  0
SECTION
  2
HEADER
  9
$ACADVER
  1
AC1006
  9
$EXTMIN
 10
3.019280
 20
0.373560
  9
$EXTMAX
 10
7.137680
 20
3.717560
  9
$LTSCALE
 40
0.044000
  9
$PDMODE
 70
    35
  9
$PDSIZE
 40
0.035200
  0
ENDSEC
  0
SECTION
  2
TABLES
  0
TABLE
  2
LTYPE
 70
     9
  0
LTYPE
  2
CONTINUOUS
 70
    64
  3
Solid line
 72
    65
 73
     0
 40
0.000000
  0
LTYPE
  2
DASHED
 70
    64
  3
__ __ __ __ __ __ __ __ __ __ __ __ __ __ __
 72
    65
 73
     2
 40
0.000330
 49
0.000220
 49
-0.000110
  0
LTYPE
  2
HIDDEN
 70
    64
  3
 _ _ _ _ _ _ _ _ _ _ _ _ _ _ _ _ _ _ _ _ _ _
 72
    65
 73
     2
 40
0.000165
 49
0.000110
 49
-0.000055
  0
LTYPE
  2
CENTER
 70
    64
  3
____ _ ____ _ ____ _ ____ _ ____ _ ____ _ ____
 72
    65
 73
     4
 40
0.000880
 49
0.000550
 49
-0.000110
 49
0.000110
 49
-0.000110
  0
LTYPE
  2
PHANTOM
 70
    64
  3
_____ _ _ _____ _ _ _____ _ _ _____ _ _ ____
 72
    65
 73
     6
 40
0.001100
 49
0.000550
 49
-0.000110
 49
0.000110
 49
-0.000110
 49
0.000110
 49
-0.000110
  0
LTYPE
  2
DOT
 70
    64
  3
...............................................
 72
    65
 73
     2
 40
0.000110
 49
0.000000
 49
-0.000110
  0
LTYPE
  2
DASHDOT
 70
    64
  3
__ . __ . __ . __ . __ . __ . __ . __ . __ . __
 72
    65
 73
     4
 40
0.000440
 49
0.000220
 49
-0.000110
 49
0.000000
 49
-0.000110
  0
LTYPE
  2
BORDER
 70
    64
  3
__ __ . __ __ . __ __ . __ __ . __ __ . __ __
 72
    65
 73
     6
 40
0.000770
 49
0.000220
 49
-0.000110
 49
0.000220
 49
-0.000110
 49
0.000000
 49
-0.000110
  0
LTYPE
  2
DIVIDE
 70
    64
  3
__ . . __ . . __ . . __ . . __ . . __ . . __
 72
    65
 73
     6
 40
0.000550
 49
0.000220
 49
-0.000110
 49
0.000000
 49
-0.000110
 49
0.000000
 49
-0.000110
  0
LTYPE
  2
DOTDOT
 70
    64
  3
 . .  . .  . .  . .  . .  . . 
 72
    65
 73
     5
 40
0.000242
 49
-0.000110
 49
0.000000
 49
-0.000110
 49
0.000000
 49
-0.000110
  0
ENDTAB
  0
TABLE
  2
STYLE
 70
     2
  0
STYLE
 70
     0
  2
SN0
 40
0.000000
 41
0.000440
 50
0.000000
 71
     0
 42
0.000000
  3
ROMAND
  0
STYLE
 70
    68
  2
SV0
 40
0.000000
 41
0.000440
 50
0.000000
 71
     0
 42
0.000000
  3
ROMAND
  0
ENDTAB
  0
TABLE
  2
LAYER
 70
     3
  0
LAYER
  2
FOREGROUND
 70
    64
 62
     7
  6
CONTINUOUS
  0
LAYER
  2
BACKGROUND
 70
    65
 62
    -7
  6
CONTINUOUS
  0
LAYER
  2
0
 70
    64
 62
     7
  6
CONTINUOUS
  0
ENDTAB
  0
ENDSEC
  0
SECTION
  2
ENTITIES
  0
POLYLINE
  8
FOREGROUND
  6
CONTINUOUS
 66
     1
 40
0.000000
 41
0.000000
  0
VERTEX
  8
FOREGROUND
  6
CONTINUOUS
 10
0.000000
 20
4.091120
  0
VERTEX
  8
FOREGROUND
  6
CONTINUOUS
 10
8.499920
 20
4.091120
  0
VERTEX
  8
FOREGROUND
  6
CONTINUOUS
 10
8.499920
 20
-6.908880
  0
VERTEX
  8
FOREGROUND
  6
CONTINUOUS
 10
0.000000
 20
-6.908880
  0
VERTEX
  8
FOREGROUND
  6
CONTINUOUS
 10
0.000000
 20
4.091120
  0
SEQEND
  8
0
  0
POLYLINE
  8
FOREGROUND
  6
CONTINUOUS
 66
     1
 40
0.000000
 41
0.000000
  0
VERTEX
  8
FOREGROUND
  6
CONTINUOUS
 10
0.000000
 20
4.091120
  0
VERTEX
  8
FOREGROUND
  6
CONTINUOUS
 10
8.499920
 20
4.091120
  0
VERTEX
  8
FOREGROUND
  6
CONTINUOUS
 10
8.499920
 20
-6.908880
  0
VERTEX
  8
FOREGROUND
  6
CONTINUOUS
 10
0.000000
 20
-6.908880
  0
VERTEX
  8
FOREGROUND
  6
CONTINUOUS
 10
0.000000
 20
4.091120
  0
SEQEND
  8
0
  0
POLYLINE
  8
0
  6
CONTINUOUS
 66
     1
 40
0.014080
 41
0.014080
  0
VERTEX
  8
0
  6
CONTINUOUS
 10
6.372080
 20
3.344000
  0
VERTEX
  8
0
  6
CONTINUOUS
 10
6.372080
 20
3.287680
  0
VERTEX
  8
0
  6
CONTINUOUS
 10
6.763680
 20
3.271400
  0
VERTEX
  8
0
  6
CONTINUOUS
 10
6.765880
 20
3.219040
  0
VERTEX
  8
0
  6
CONTINUOUS
 10
6.808560
 20
3.218160
  0
VERTEX
  8
0
  6
CONTINUOUS
 10
6.844640
 20
3.214200
  0
VERTEX
  8
0
  6
CONTINUOUS
 10
6.877200
 20
3.207600
  0
VERTEX
  8
0
  6
CONTINUOUS
 10
6.919880
 20
3.193520
  0
VERTEX
  8
0
  6
CONTINUOUS
 10
6.955960
 20
3.175920
  0
VERTEX
  8
0
  6
CONTINUOUS
 10
6.977520
 20
3.163160
  0
VERTEX
  8
0
  6
CONTINUOUS
 10
7.063760
 20
3.099360
  0
VERTEX
  8
0
  6
CONTINUOUS
 10
7.079600
 20
3.089680
  0
VERTEX
  8
0
  6
CONTINUOUS
 10
7.103800
 20
3.079560
  0
VERTEX
  8
0
  6
CONTINUOUS
 10
7.121400
 20
3.076040
  0
VERTEX
  8
0
  6
CONTINUOUS
 10
7.130640
 20
3.075600
  0
VERTEX
  8
0
  6
CONTINUOUS
 10
7.130640
 20
2.929520
  0
VERTEX
  8
0
  6
CONTINUOUS
 10
4.640680
 20
2.929520
  0
VERTEX
  8
0
  6
CONTINUOUS
 10
4.640680
 20
3.608880
  0
VERTEX
  8
0
  6
CONTINUOUS
 10
5.138760
 20
3.589960
  0
VERTEX
  8
0
  6
CONTINUOUS
 10
5.153280
 20
3.494040
  0
VERTEX
  8
0
  6
CONTINUOUS
 10
5.200360
 20
3.503720
  0
VERTEX
  8
0
  6
CONTINUOUS
 10
5.248320
 20
3.509880
  0
VERTEX
  8
0
  6
CONTINUOUS
 10
5.296720
 20
3.513400
  0
VERTEX
  8
0
  6
CONTINUOUS
 10
5.345120
 20
3.514280
  0
VERTEX
  8
0
  6
CONTINUOUS
 10
5.393080
 20
3.512960
  0
VERTEX
  8
0
  6
CONTINUOUS
 10
5.440160
 20
3.509440
  0
VERTEX
  8
0
  6
CONTINUOUS
 10
5.530360
 20
3.498000
  0
VERTEX
  8
0
  6
CONTINUOUS
 10
5.612200
 20
3.482160
  0
VERTEX
  8
0
  6
CONTINUOUS
 10
5.697560
 20
3.460600
  0
VERTEX
  8
0
  6
CONTINUOUS
 10
5.758280
 20
3.441680
  0
VERTEX
  8
0
  6
CONTINUOUS
 10
5.847160
 20
3.410000
  0
VERTEX
  8
0
  6
CONTINUOUS
 10
5.914920
 20
3.391080
  0
VERTEX
  8
0
  6
CONTINUOUS
 10
5.983120
 20
3.376120
  0
VERTEX
  8
0
  6
CONTINUOUS
 10
6.064960
 20
3.362920
  0
VERTEX
  8
0
  6
CONTINUOUS
 10
6.161320
 20
3.352360
  0
VERTEX
  8
0
  6
CONTINUOUS
 10
6.243600
 20
3.346640
  0
VERTEX
  8
0
  6
CONTINUOUS
 10
6.335560
 20
3.344000
  0
VERTEX
  8
0
  6
CONTINUOUS
 10
6.372080
 20
3.344000
  0
SEQEND
  8
0
  0
SOLID
  8
0
 62
    15
 10
3.599640
 20
2.538800
 11
4.241600
 21
2.917640
 12
3.588200
 22
2.448600
 13
4.229720
 23
2.827880
  0
POLYLINE
  8
0
  6
CONTINUOUS
 66
     1
 40
0.000000
 41
0.000000
  0
VERTEX
  8
0
  6
CONTINUOUS
 10
3.599640
 20
2.538800
  0
VERTEX
  8
0
  6
CONTINUOUS
 10
4.241600
 20
2.917640
  0
VERTEX
  8
0
  6
CONTINUOUS
 10
4.229720
 20
2.827880
  0
VERTEX
  8
0
  6
CONTINUOUS
 10
3.588200
 20
2.448600
  0
VERTEX
  8
0
  6
CONTINUOUS
 10
3.599640
 20
2.538800
  0
SEQEND
  8
0
  0
SOLID
  8
0
 62
    15
 10
3.309240
 20
1.210880
 11
3.951200
 21
1.589720
 12
3.308360
 22
1.170400
 13
3.950320
 23
1.549680
  0
POLYLINE
  8
0
  6
CONTINUOUS
 66
     1
 40
0.000000
 41
0.000000
  0
VERTEX
  8
0
  6
CONTINUOUS
 10
3.309240
 20
1.210880
  0
VERTEX
  8
0
  6
CONTINUOUS
 10
3.951200
 20
1.589720
  0
VERTEX
  8
0
  6
CONTINUOUS
 10
3.950320
 20
1.549680
  0
VERTEX
  8
0
  6
CONTINUOUS
 10
3.308360
 20
1.170400
  0
VERTEX
  8
0
  6
CONTINUOUS
 10
3.309240
 20
1.210880
  0
SEQEND
  8
0
  0
SOLID
  8
0
 62
    15
 10
3.309240
 20
1.213080
 11
3.951200
 21
1.591920
 12
3.309240
 22
1.210880
 13
3.951200
 23
1.589720
  0
POLYLINE
  8
0
  6
CONTINUOUS
 66
     1
 40
0.000000
 41
0.000000
  0
VERTEX
  8
0
  6
CONTINUOUS
 10
3.309240
 20
1.213080
  0
VERTEX
  8
0
  6
CONTINUOUS
 10
3.951200
 20
1.591920
  0
VERTEX
  8
0
  6
CONTINUOUS
 10
3.951200
 20
1.589720
  0
VERTEX
  8
0
  6
CONTINUOUS
 10
3.309240
 20
1.210880
  0
VERTEX
  8
0
  6
CONTINUOUS
 10
3.309240
 20
1.213080
  0
SEQEND
  8
0
  0
SOLID
  8
0
 62
    15
 10
3.361600
 20
1.217040
 11
4.003120
 21
1.596320
 12
3.361600
 22
1.214840
 13
4.003120
 23
1.594120
  0
POLYLINE
  8
0
  6
CONTINUOUS
 66
     1
 40
0.000000
 41
0.000000
  0
VERTEX
  8
0
  6
CONTINUOUS
 10
3.361600
 20
1.217040
  0
VERTEX
  8
0
  6
CONTINUOUS
 10
4.003120
 20
1.596320
  0
VERTEX
  8
0
  6
CONTINUOUS
 10
4.003120
 20
1.594120
  0
VERTEX
  8
0
  6
CONTINUOUS
 10
3.361600
 20
1.214840
  0
VERTEX
  8
0
  6
CONTINUOUS
 10
3.361600
 20
1.217040
  0
SEQEND
  8
0
  0
SOLID
  8
0
 62
    15
 10
3.308360
 20
1.170400
 11
3.950320
 21
1.549680
 12
3.304400
 22
1.134320
 13
3.946360
 23
1.513160
  0
POLYLINE
  8
0
  6
CONTINUOUS
 66
     1
 40
0.000000
 41
0.000000
  0
VERTEX
  8
0
  6
CONTINUOUS
 10
3.308360
 20
1.170400
  0
VERTEX
  8
0
  6
CONTINUOUS
 10
3.950320
 20
1.549680
  0
VERTEX
  8
0
  6
CONTINUOUS
 10
3.946360
 20
1.513160
  0
VERTEX
  8
0
  6
CONTINUOUS
 10
3.304400
 20
1.134320
  0
VERTEX
  8
0
  6
CONTINUOUS
 10
3.308360
 20
1.170400
  0
SEQEND
  8
0
  0
SOLID
  8
0
 62
    15
 10
3.304400
 20
1.134320
 11
3.946360
 21
1.513160
 12
3.297800
 22
1.101760
 13
3.939760
 23
1.480600
  0
POLYLINE
  8
0
  6
CONTINUOUS
 66
     1
 40
0.000000
 41
0.000000
  0
VERTEX
  8
0
  6
CONTINUOUS
 10
3.304400
 20
1.134320
  0
VERTEX
  8
0
  6
CONTINUOUS
 10
3.946360
 20
1.513160
  0
VERTEX
  8
0
  6
CONTINUOUS
 10
3.939760
 20
1.480600
  0
VERTEX
  8
0
  6
CONTINUOUS
 10
3.297800
 20
1.101760
  0
VERTEX
  8
0
  6
CONTINUOUS
 10
3.304400
 20
1.134320
  0
SEQEND
  8
0
  0
SOLID
  8
0
 62
    15
 10
3.297800
 20
1.101760
 11
3.939760
 21
1.480600
 12
3.289000
 22
1.072720
 13
3.930960
 23
1.451560
  0
POLYLINE
  8
0
  6
CONTINUOUS
 66
     1
 40
0.000000
 41
0.000000
  0
VERTEX
  8
0
  6
CONTINUOUS
 10
3.297800
 20
1.101760
  0
VERTEX
  8
0
  6
CONTINUOUS
 10
3.939760
 20
1.480600
  0
VERTEX
  8
0
  6
CONTINUOUS
 10
3.930960
 20
1.451560
  0
VERTEX
  8
0
  6
CONTINUOUS
 10
3.289000
 20
1.072720
  0
VERTEX
  8
0
  6
CONTINUOUS
 10
3.297800
 20
1.101760
  0
SEQEND
  8
0
  0
SOLID
  8
0
 62
    15
 10
3.289000
 20
1.072720
 11
3.930960
 21
1.451560
 12
3.266120
 22
1.022560
 13
3.908080
 23
1.401840
  0
POLYLINE
  8
0
  6
CONTINUOUS
 66
     1
 40
0.000000
 41
0.000000
  0
VERTEX
  8
0
  6
CONTINUOUS
 10
3.289000
 20
1.072720
  0
VERTEX
  8
0
  6
CONTINUOUS
 10
3.930960
 20
1.451560
  0
VERTEX
  8
0
  6
CONTINUOUS
 10
3.908080
 20
1.401840
  0
VERTEX
  8
0
  6
CONTINUOUS
 10
3.266120
 20
1.022560
  0
VERTEX
  8
0
  6
CONTINUOUS
 10
3.289000
 20
1.072720
  0
SEQEND
  8
0
  0
SOLID
  8
0
 62
    15
 10
3.266120
 20
1.022560
 11
3.908080
 21
1.401840
 12
3.239720
 22
0.982080
 13
3.881680
 23
1.360920
  0
POLYLINE
  8
0
  6
CONTINUOUS
 66
     1
 40
0.000000
 41
0.000000
  0
VERTEX
  8
0
  6
CONTINUOUS
 10
3.266120
 20
1.022560
  0
VERTEX
  8
0
  6
CONTINUOUS
 10
3.908080
 20
1.401840
  0
VERTEX
  8
0
  6
CONTINUOUS
 10
3.881680
 20
1.360920
  0
VERTEX
  8
0
  6
CONTINUOUS
 10
3.239720
 20
0.982080
  0
VERTEX
  8
0
  6
CONTINUOUS
 10
3.266120
 20
1.022560
  0
SEQEND
  8
0
  0
SOLID
  8
0
 62
    15
 10
3.239720
 20
0.982080
 11
3.881680
 21
1.360920
 12
3.226080
 22
0.964040
 13
3.868040
 23
1.342880
  0
POLYLINE
  8
0
  6
CONTINUOUS
 66
     1
 40
0.000000
 41
0.000000
  0
VERTEX
  8
0
  6
CONTINUOUS
 10
3.239720
 20
0.982080
  0
VERTEX
  8
0
  6
CONTINUOUS
 10
3.881680
 20
1.360920
  0
VERTEX
  8
0
  6
CONTINUOUS
 10
3.868040
 20
1.342880
  0
VERTEX
  8
0
  6
CONTINUOUS
 10
3.226080
 20
0.964040
  0
VERTEX
  8
0
  6
CONTINUOUS
 10
3.239720
 20
0.982080
  0
SEQEND
  8
0
  0
SOLID
  8
0
 62
    15
 10
3.226080
 20
0.964040
 11
3.868040
 21
1.342880
 12
3.213320
 22
0.947320
 13
3.854840
 23
1.326160
  0
POLYLINE
  8
0
  6
CONTINUOUS
 66
     1
 40
0.000000
 41
0.000000
  0
VERTEX
  8
0
  6
CONTINUOUS
 10
3.226080
 20
0.964040
  0
VERTEX
  8
0
  6
CONTINUOUS
 10
3.868040
 20
1.342880
  0
VERTEX
  8
0
  6
CONTINUOUS
 10
3.854840
 20
1.326160
  0
VERTEX
  8
0
  6
CONTINUOUS
 10
3.213320
 20
0.947320
  0
VERTEX
  8
0
  6
CONTINUOUS
 10
3.226080
 20
0.964040
  0
SEQEND
  8
0
  0
SOLID
  8
0
 62
    15
 10
3.213320
 20
0.947320
 11
3.854840
 21
1.326160
 12
3.189560
 22
0.915200
 13
3.831520
 23
1.294480
  0
POLYLINE
  8
0
  6
CONTINUOUS
 66
     1
 40
0.000000
 41
0.000000
  0
VERTEX
  8
0
  6
CONTINUOUS
 10
3.213320
 20
0.947320
  0
VERTEX
  8
0
  6
CONTINUOUS
 10
3.854840
 20
1.326160
  0
VERTEX
  8
0
  6
CONTINUOUS
 10
3.831520
 20
1.294480
  0
VERTEX
  8
0
  6
CONTINUOUS
 10
3.189560
 20
0.915200
  0
VERTEX
  8
0
  6
CONTINUOUS
 10
3.213320
 20
0.947320
  0
SEQEND
  8
0
  0
SOLID
  8
0
 62
    15
 10
3.189560
 20
0.915200
 11
3.831520
 21
1.294480
 12
3.172400
 22
0.883520
 13
3.814360
 23
1.262360
  0
POLYLINE
  8
0
  6
CONTINUOUS
 66
     1
 40
0.000000
 41
0.000000
  0
VERTEX
  8
0
  6
CONTINUOUS
 10
3.189560
 20
0.915200
  0
VERTEX
  8
0
  6
CONTINUOUS
 10
3.831520
 20
1.294480
  0
VERTEX
  8
0
  6
CONTINUOUS
 10
3.814360
 20
1.262360
  0
VERTEX
  8
0
  6
CONTINUOUS
 10
3.172400
 20
0.883520
  0
VERTEX
  8
0
  6
CONTINUOUS
 10
3.189560
 20
0.915200
  0
SEQEND
  8
0
  0
SOLID
  8
0
 62
    15
 10
3.172400
 20
0.883520
 11
3.814360
 21
1.262360
 12
3.167560
 22
0.866360
 13
3.809520
 23
1.245640
  0
POLYLINE
  8
0
  6
CONTINUOUS
 66
     1
 40
0.000000
 41
0.000000
  0
VERTEX
  8
0
  6
CONTINUOUS
 10
3.172400
 20
0.883520
  0
VERTEX
  8
0
  6
CONTINUOUS
 10
3.814360
 20
1.262360
  0
VERTEX
  8
0
  6
CONTINUOUS
 10
3.809520
 20
1.245640
  0
VERTEX
  8
0
  6
CONTINUOUS
 10
3.167560
 20
0.866360
  0
VERTEX
  8
0
  6
CONTINUOUS
 10
3.172400
 20
0.883520
  0
SEQEND
  8
0
  0
SOLID
  8
0
 62
    15
 10
3.167560
 20
0.866360
 11
3.809520
 21
1.245640
 12
3.165800
 22
0.848320
 13
3.807320
 23
1.227600
  0
POLYLINE
  8
0
  6
CONTINUOUS
 66
     1
 40
0.000000
 41
0.000000
  0
VERTEX
  8
0
  6
CONTINUOUS
 10
3.167560
 20
0.866360
  0
VERTEX
  8
0
  6
CONTINUOUS
 10
3.809520
 20
1.245640
  0
VERTEX
  8
0
  6
CONTINUOUS
 10
3.807320
 20
1.227600
  0
VERTEX
  8
0
  6
CONTINUOUS
 10
3.165800
 20
0.848320
  0
VERTEX
  8
0
  6
CONTINUOUS
 10
3.167560
 20
0.866360
  0
SEQEND
  8
0
  0
SOLID
  8
0
 62
    15
 10
3.019720
 20
3.337840
 11
3.661680
 21
3.717120
 12
3.699080
 22
3.337840
 13
4.340600
 23
3.717120
  0
POLYLINE
  8
0
  6
CONTINUOUS
 66
     1
 40
0.000000
 41
0.000000
  0
VERTEX
  8
0
  6
CONTINUOUS
 10
3.019720
 20
3.337840
  0
VERTEX
  8
0
  6
CONTINUOUS
 10
3.661680
 20
3.717120
  0
VERTEX
  8
0
  6
CONTINUOUS
 10
4.340600
 20
3.717120
  0
VERTEX
  8
0
  6
CONTINUOUS
 10
3.699080
 20
3.337840
  0
VERTEX
  8
0
  6
CONTINUOUS
 10
3.019720
 20
3.337840
  0
SEQEND
  8
0
  0
SOLID
  8
0
 62
    15
 10
3.584240
 20
2.825680
 11
4.226200
 21
3.204520
 12
3.593920
 22
2.778600
 13
4.235880
 23
3.157440
  0
POLYLINE
  8
0
  6
CONTINUOUS
 66
     1
 40
0.000000
 41
0.000000
  0
VERTEX
  8
0
  6
CONTINUOUS
 10
3.584240
 20
2.825680
  0
VERTEX
  8
0
  6
CONTINUOUS
 10
4.226200
 20
3.204520
  0
VERTEX
  8
0
  6
CONTINUOUS
 10
4.235880
 20
3.157440
  0
VERTEX
  8
0
  6
CONTINUOUS
 10
3.593920
 20
2.778600
  0
VERTEX
  8
0
  6
CONTINUOUS
 10
3.584240
 20
2.825680
  0
SEQEND
  8
0
  0
SOLID
  8
0
 62
    15
 10
3.699080
 20
3.337840
 11
4.340600
 21
3.717120
 12
3.680160
 22
2.840200
 13
4.322120
 23
3.219040
  0
POLYLINE
  8
0
  6
CONTINUOUS
 66
     1
 40
0.000000
 41
0.000000
  0
VERTEX
  8
0
  6
CONTINUOUS
 10
3.699080
 20
3.337840
  0
VERTEX
  8
0
  6
CONTINUOUS
 10
4.340600
 20
3.717120
  0
VERTEX
  8
0
  6
CONTINUOUS
 10
4.322120
 20
3.219040
  0
VERTEX
  8
0
  6
CONTINUOUS
 10
3.680160
 20
2.840200
  0
VERTEX
  8
0
  6
CONTINUOUS
 10
3.699080
 20
3.337840
  0
SEQEND
  8
0
  0
SOLID
  8
0
 62
    15
 10
3.593920
 20
2.778600
 11
4.235880
 21
3.157440
 12
3.600520
 22
2.730640
 13
4.242040
 23
3.109480
  0
POLYLINE
  8
0
  6
CONTINUOUS
 66
     1
 40
0.000000
 41
0.000000
  0
VERTEX
  8
0
  6
CONTINUOUS
 10
3.593920
 20
2.778600
  0
VERTEX
  8
0
  6
CONTINUOUS
 10
4.235880
 20
3.157440
  0
VERTEX
  8
0
  6
CONTINUOUS
 10
4.242040
 20
3.109480
  0
VERTEX
  8
0
  6
CONTINUOUS
 10
3.600520
 20
2.730640
  0
VERTEX
  8
0
  6
CONTINUOUS
 10
3.593920
 20
2.778600
  0
SEQEND
  8
0
  0
SOLID
  8
0
 62
    15
 10
3.600520
 20
2.730640
 11
4.242040
 21
3.109480
 12
3.604480
 22
2.633840
 13
4.246440
 23
3.012680
  0
POLYLINE
  8
0
  6
CONTINUOUS
 66
     1
 40
0.000000
 41
0.000000
  0
VERTEX
  8
0
  6
CONTINUOUS
 10
3.600520
 20
2.730640
  0
VERTEX
  8
0
  6
CONTINUOUS
 10
4.242040
 20
3.109480
  0
VERTEX
  8
0
  6
CONTINUOUS
 10
4.246440
 20
3.012680
  0
VERTEX
  8
0
  6
CONTINUOUS
 10
3.604480
 20
2.633840
  0
VERTEX
  8
0
  6
CONTINUOUS
 10
3.600520
 20
2.730640
  0
SEQEND
  8
0
  0
SOLID
  8
0
 62
    15
 10
3.604480
 20
2.633840
 11
4.246440
 21
3.012680
 12
3.599640
 22
2.538800
 13
4.241600
 23
2.917640
  0
POLYLINE
  8
0
  6
CONTINUOUS
 66
     1
 40
0.000000
 41
0.000000
  0
VERTEX
  8
0
  6
CONTINUOUS
 10
3.604480
 20
2.633840
  0
VERTEX
  8
0
  6
CONTINUOUS
 10
4.246440
 20
3.012680
  0
VERTEX
  8
0
  6
CONTINUOUS
 10
4.241600
 20
2.917640
  0
VERTEX
  8
0
  6
CONTINUOUS
 10
3.599640
 20
2.538800
  0
VERTEX
  8
0
  6
CONTINUOUS
 10
3.604480
 20
2.633840
  0
SEQEND
  8
0
  0
SOLID
  8
0
 62
    15
 10
3.378320
 20
1.606880
 11
4.019840
 21
1.985720
 12
3.361600
 22
1.217040
 13
4.003120
 23
1.596320
  0
POLYLINE
  8
0
  6
CONTINUOUS
 66
     1
 40
0.000000
 41
0.000000
  0
VERTEX
  8
0
  6
CONTINUOUS
 10
3.378320
 20
1.606880
  0
VERTEX
  8
0
  6
CONTINUOUS
 10
4.019840
 20
1.985720
  0
VERTEX
  8
0
  6
CONTINUOUS
 10
4.003120
 20
1.596320
  0
VERTEX
  8
0
  6
CONTINUOUS
 10
3.361600
 20
1.217040
  0
VERTEX
  8
0
  6
CONTINUOUS
 10
3.378320
 20
1.606880
  0
SEQEND
  8
0
  0
SOLID
  8
0
 62
    15
 10
3.588200
 20
2.448600
 11
4.229720
 21
2.827880
 12
3.572360
 22
2.366760
 13
4.214320
 23
2.746040
  0
POLYLINE
  8
0
  6
CONTINUOUS
 66
     1
 40
0.000000
 41
0.000000
  0
VERTEX
  8
0
  6
CONTINUOUS
 10
3.588200
 20
2.448600
  0
VERTEX
  8
0
  6
CONTINUOUS
 10
4.229720
 20
2.827880
  0
VERTEX
  8
0
  6
CONTINUOUS
 10
4.214320
 20
2.746040
  0
VERTEX
  8
0
  6
CONTINUOUS
 10
3.572360
 20
2.366760
  0
VERTEX
  8
0
  6
CONTINUOUS
 10
3.588200
 20
2.448600
  0
SEQEND
  8
0
  0
SOLID
  8
0
 62
    15
 10
3.572360
 20
2.366760
 11
4.214320
 21
2.746040
 12
3.555200
 22
2.296800
 13
4.196720
 23
2.675640
  0
POLYLINE
  8
0
  6
CONTINUOUS
 66
     1
 40
0.000000
 41
0.000000
  0
VERTEX
  8
0
  6
CONTINUOUS
 10
3.572360
 20
2.366760
  0
VERTEX
  8
0
  6
CONTINUOUS
 10
4.214320
 20
2.746040
  0
VERTEX
  8
0
  6
CONTINUOUS
 10
4.196720
 20
2.675640
  0
VERTEX
  8
0
  6
CONTINUOUS
 10
3.555200
 20
2.296800
  0
VERTEX
  8
0
  6
CONTINUOUS
 10
3.572360
 20
2.366760
  0
SEQEND
  8
0
  0
SOLID
  8
0
 62
    15
 10
3.555200
 20
2.296800
 11
4.196720
 21
2.675640
 12
3.546840
 22
2.266880
 13
4.188360
 23
2.646160
  0
POLYLINE
  8
0
  6
CONTINUOUS
 66
     1
 40
0.000000
 41
0.000000
  0
VERTEX
  8
0
  6
CONTINUOUS
 10
3.555200
 20
2.296800
  0
VERTEX
  8
0
  6
CONTINUOUS
 10
4.196720
 20
2.675640
  0
VERTEX
  8
0
  6
CONTINUOUS
 10
4.188360
 20
2.646160
  0
VERTEX
  8
0
  6
CONTINUOUS
 10
3.546840
 20
2.266880
  0
VERTEX
  8
0
  6
CONTINUOUS
 10
3.555200
 20
2.296800
  0
SEQEND
  8
0
  0
SOLID
  8
0
 62
    15
 10
3.546840
 20
2.266880
 11
4.188360
 21
2.646160
 12
3.538920
 22
2.241360
 13
4.180880
 23
2.620640
  0
POLYLINE
  8
0
  6
CONTINUOUS
 66
     1
 40
0.000000
 41
0.000000
  0
VERTEX
  8
0
  6
CONTINUOUS
 10
3.546840
 20
2.266880
  0
VERTEX
  8
0
  6
CONTINUOUS
 10
4.188360
 20
2.646160
  0
VERTEX
  8
0
  6
CONTINUOUS
 10
4.180880
 20
2.620640
  0
VERTEX
  8
0
  6
CONTINUOUS
 10
3.538920
 20
2.241360
  0
VERTEX
  8
0
  6
CONTINUOUS
 10
3.546840
 20
2.266880
  0
SEQEND
  8
0
  0
SOLID
  8
0
 62
    15
 10
3.538920
 20
2.241360
 11
4.180880
 21
2.620640
 12
3.531880
 22
2.220680
 13
4.173840
 23
2.599520
  0
POLYLINE
  8
0
  6
CONTINUOUS
 66
     1
 40
0.000000
 41
0.000000
  0
VERTEX
  8
0
  6
CONTINUOUS
 10
3.538920
 20
2.241360
  0
VERTEX
  8
0
  6
CONTINUOUS
 10
4.180880
 20
2.620640
  0
VERTEX
  8
0
  6
CONTINUOUS
 10
4.173840
 20
2.599520
  0
VERTEX
  8
0
  6
CONTINUOUS
 10
3.531880
 20
2.220680
  0
VERTEX
  8
0
  6
CONTINUOUS
 10
3.538920
 20
2.241360
  0
SEQEND
  8
0
  0
SOLID
  8
0
 62
    15
 10
3.531880
 20
2.220680
 11
4.173840
 21
2.599520
 12
3.526160
 22
2.204840
 13
4.168120
 23
2.583680
  0
POLYLINE
  8
0
  6
CONTINUOUS
 66
     1
 40
0.000000
 41
0.000000
  0
VERTEX
  8
0
  6
CONTINUOUS
 10
3.531880
 20
2.220680
  0
VERTEX
  8
0
  6
CONTINUOUS
 10
4.173840
 20
2.599520
  0
VERTEX
  8
0
  6
CONTINUOUS
 10
4.168120
 20
2.583680
  0
VERTEX
  8
0
  6
CONTINUOUS
 10
3.526160
 20
2.204840
  0
VERTEX
  8
0
  6
CONTINUOUS
 10
3.531880
 20
2.220680
  0
SEQEND
  8
0
  0
SOLID
  8
0
 62
    15
 10
3.526160
 20
2.204840
 11
4.168120
 21
2.583680
 12
3.520440
 22
2.190320
 13
4.162400
 23
2.569160
  0
POLYLINE
  8
0
  6
CONTINUOUS
 66
     1
 40
0.000000
 41
0.000000
  0
VERTEX
  8
0
  6
CONTINUOUS
 10
3.526160
 20
2.204840
  0
VERTEX
  8
0
  6
CONTINUOUS
 10
4.168120
 20
2.583680
  0
VERTEX
  8
0
  6
CONTINUOUS
 10
4.162400
 20
2.569160
  0
VERTEX
  8
0
  6
CONTINUOUS
 10
3.520440
 20
2.190320
  0
VERTEX
  8
0
  6
CONTINUOUS
 10
3.526160
 20
2.204840
  0
SEQEND
  8
0
  0
SOLID
  8
0
 62
    15
 10
3.520440
 20
2.190320
 11
4.162400
 21
2.569160
 12
3.514280
 22
2.173160
 13
4.156240
 23
2.552440
  0
POLYLINE
  8
0
  6
CONTINUOUS
 66
     1
 40
0.000000
 41
0.000000
  0
VERTEX
  8
0
  6
CONTINUOUS
 10
3.520440
 20
2.190320
  0
VERTEX
  8
0
  6
CONTINUOUS
 10
4.162400
 20
2.569160
  0
VERTEX
  8
0
  6
CONTINUOUS
 10
4.156240
 20
2.552440
  0
VERTEX
  8
0
  6
CONTINUOUS
 10
3.514280
 20
2.173160
  0
VERTEX
  8
0
  6
CONTINUOUS
 10
3.520440
 20
2.190320
  0
SEQEND
  8
0
  0
SOLID
  8
0
 62
    15
 10
3.514280
 20
2.173160
 11
4.156240
 21
2.552440
 12
3.500200
 22
2.131800
 13
4.142160
 23
2.510640
  0
POLYLINE
  8
0
  6
CONTINUOUS
 66
     1
 40
0.000000
 41
0.000000
  0
VERTEX
  8
0
  6
CONTINUOUS
 10
3.514280
 20
2.173160
  0
VERTEX
  8
0
  6
CONTINUOUS
 10
4.156240
 20
2.552440
  0
VERTEX
  8
0
  6
CONTINUOUS
 10
4.142160
 20
2.510640
  0
VERTEX
  8
0
  6
CONTINUOUS
 10
3.500200
 20
2.131800
  0
VERTEX
  8
0
  6
CONTINUOUS
 10
3.514280
 20
2.173160
  0
SEQEND
  8
0
  0
SOLID
  8
0
 62
    15
 10
3.500200
 20
2.131800
 11
4.142160
 21
2.510640
 12
3.485240
 22
2.079000
 13
4.127200
 23
2.458280
  0
POLYLINE
  8
0
  6
CONTINUOUS
 66
     1
 40
0.000000
 41
0.000000
  0
VERTEX
  8
0
  6
CONTINUOUS
 10
3.500200
 20
2.131800
  0
VERTEX
  8
0
  6
CONTINUOUS
 10
4.142160
 20
2.510640
  0
VERTEX
  8
0
  6
CONTINUOUS
 10
4.127200
 20
2.458280
  0
VERTEX
  8
0
  6
CONTINUOUS
 10
3.485240
 20
2.079000
  0
VERTEX
  8
0
  6
CONTINUOUS
 10
3.500200
 20
2.131800
  0
SEQEND
  8
0
  0
SOLID
  8
0
 62
    15
 10
3.485240
 20
2.079000
 11
4.127200
 21
2.458280
 12
3.470280
 22
2.013880
 13
4.111800
 23
2.393160
  0
POLYLINE
  8
0
  6
CONTINUOUS
 66
     1
 40
0.000000
 41
0.000000
  0
VERTEX
  8
0
  6
CONTINUOUS
 10
3.485240
 20
2.079000
  0
VERTEX
  8
0
  6
CONTINUOUS
 10
4.127200
 20
2.458280
  0
VERTEX
  8
0
  6
CONTINUOUS
 10
4.111800
 20
2.393160
  0
VERTEX
  8
0
  6
CONTINUOUS
 10
3.470280
 20
2.013880
  0
VERTEX
  8
0
  6
CONTINUOUS
 10
3.485240
 20
2.079000
  0
SEQEND
  8
0
  0
SOLID
  8
0
 62
    15
 10
3.470280
 20
2.013880
 11
4.111800
 21
2.393160
 12
3.462800
 22
1.976480
 13
4.104760
 23
2.355760
  0
POLYLINE
  8
0
  6
CONTINUOUS
 66
     1
 40
0.000000
 41
0.000000
  0
VERTEX
  8
0
  6
CONTINUOUS
 10
3.470280
 20
2.013880
  0
VERTEX
  8
0
  6
CONTINUOUS
 10
4.111800
 20
2.393160
  0
VERTEX
  8
0
  6
CONTINUOUS
 10
4.104760
 20
2.355760
  0
VERTEX
  8
0
  6
CONTINUOUS
 10
3.462800
 20
1.976480
  0
VERTEX
  8
0
  6
CONTINUOUS
 10
3.470280
 20
2.013880
  0
SEQEND
  8
0
  0
SOLID
  8
0
 62
    15
 10
3.462800
 20
1.976480
 11
4.104760
 21
2.355760
 12
3.456200
 22
1.935560
 13
4.098160
 23
2.314840
  0
POLYLINE
  8
0
  6
CONTINUOUS
 66
     1
 40
0.000000
 41
0.000000
  0
VERTEX
  8
0
  6
CONTINUOUS
 10
3.462800
 20
1.976480
  0
VERTEX
  8
0
  6
CONTINUOUS
 10
4.104760
 20
2.355760
  0
VERTEX
  8
0
  6
CONTINUOUS
 10
4.098160
 20
2.314840
  0
VERTEX
  8
0
  6
CONTINUOUS
 10
3.456200
 20
1.935560
  0
VERTEX
  8
0
  6
CONTINUOUS
 10
3.462800
 20
1.976480
  0
SEQEND
  8
0
  0
SOLID
  8
0
 62
    15
 10
3.456200
 20
1.935560
 11
4.098160
 21
2.314840
 12
3.450040
 22
1.891120
 13
4.092000
 23
2.270400
  0
POLYLINE
  8
0
  6
CONTINUOUS
 66
     1
 40
0.000000
 41
0.000000
  0
VERTEX
  8
0
  6
CONTINUOUS
 10
3.456200
 20
1.935560
  0
VERTEX
  8
0
  6
CONTINUOUS
 10
4.098160
 20
2.314840
  0
VERTEX
  8
0
  6
CONTINUOUS
 10
4.092000
 20
2.270400
  0
VERTEX
  8
0
  6
CONTINUOUS
 10
3.450040
 20
1.891120
  0
VERTEX
  8
0
  6
CONTINUOUS
 10
3.456200
 20
1.935560
  0
SEQEND
  8
0
  0
SOLID
  8
0
 62
    15
 10
3.450040
 20
1.891120
 11
4.092000
 21
2.270400
 12
3.444760
 22
1.843160
 13
4.086720
 23
2.222000
  0
POLYLINE
  8
0
  6
CONTINUOUS
 66
     1
 40
0.000000
 41
0.000000
  0
VERTEX
  8
0
  6
CONTINUOUS
 10
3.450040
 20
1.891120
  0
VERTEX
  8
0
  6
CONTINUOUS
 10
4.092000
 20
2.270400
  0
VERTEX
  8
0
  6
CONTINUOUS
 10
4.086720
 20
2.222000
  0
VERTEX
  8
0
  6
CONTINUOUS
 10
3.444760
 20
1.843160
  0
VERTEX
  8
0
  6
CONTINUOUS
 10
3.450040
 20
1.891120
  0
SEQEND
  8
0
  0
SOLID
  8
0
 62
    15
 10
3.444760
 20
1.843160
 11
4.086720
 21
2.222000
 12
3.440360
 22
1.791240
 13
4.082320
 23
2.170080
  0
POLYLINE
  8
0
  6
CONTINUOUS
 66
     1
 40
0.000000
 41
0.000000
  0
VERTEX
  8
0
  6
CONTINUOUS
 10
3.444760
 20
1.843160
  0
VERTEX
  8
0
  6
CONTINUOUS
 10
4.086720
 20
2.222000
  0
VERTEX
  8
0
  6
CONTINUOUS
 10
4.082320
 20
2.170080
  0
VERTEX
  8
0
  6
CONTINUOUS
 10
3.440360
 20
1.791240
  0
VERTEX
  8
0
  6
CONTINUOUS
 10
3.444760
 20
1.843160
  0
SEQEND
  8
0
  0
SOLID
  8
0
 62
    15
 10
3.440360
 20
1.791240
 11
4.082320
 21
2.170080
 12
3.437280
 22
1.735360
 13
4.079240
 23
2.114200
  0
POLYLINE
  8
0
  6
CONTINUOUS
 66
     1
 40
0.000000
 41
0.000000
  0
VERTEX
  8
0
  6
CONTINUOUS
 10
3.440360
 20
1.791240
  0
VERTEX
  8
0
  6
CONTINUOUS
 10
4.082320
 20
2.170080
  0
VERTEX
  8
0
  6
CONTINUOUS
 10
4.079240
 20
2.114200
  0
VERTEX
  8
0
  6
CONTINUOUS
 10
3.437280
 20
1.735360
  0
VERTEX
  8
0
  6
CONTINUOUS
 10
3.440360
 20
1.791240
  0
SEQEND
  8
0
  0
SOLID
  8
0
 62
    15
 10
3.437280
 20
1.735360
 11
4.079240
 21
2.114200
 12
3.435080
 22
1.675080
 13
4.077040
 23
2.054360
  0
POLYLINE
  8
0
  6
CONTINUOUS
 66
     1
 40
0.000000
 41
0.000000
  0
VERTEX
  8
0
  6
CONTINUOUS
 10
3.437280
 20
1.735360
  0
VERTEX
  8
0
  6
CONTINUOUS
 10
4.079240
 20
2.114200
  0
VERTEX
  8
0
  6
CONTINUOUS
 10
4.077040
 20
2.054360
  0
VERTEX
  8
0
  6
CONTINUOUS
 10
3.435080
 20
1.675080
  0
VERTEX
  8
0
  6
CONTINUOUS
 10
3.437280
 20
1.735360
  0
SEQEND
  8
0
  0
SOLID
  8
0
 62
    15
 10
3.435080
 20
1.675080
 11
4.077040
 21
2.054360
 12
3.434200
 22
1.610840
 13
4.076160
 23
1.990120
  0
POLYLINE
  8
0
  6
CONTINUOUS
 66
     1
 40
0.000000
 41
0.000000
  0
VERTEX
  8
0
  6
CONTINUOUS
 10
3.435080
 20
1.675080
  0
VERTEX
  8
0
  6
CONTINUOUS
 10
4.077040
 20
2.054360
  0
VERTEX
  8
0
  6
CONTINUOUS
 10
4.076160
 20
1.990120
  0
VERTEX
  8
0
  6
CONTINUOUS
 10
3.434200
 20
1.610840
  0
VERTEX
  8
0
  6
CONTINUOUS
 10
3.435080
 20
1.675080
  0
SEQEND
  8
0
  0
SOLID
  8
0
 62
    15
 10
3.434200
 20
1.610840
 11
4.076160
 21
1.990120
 12
3.434200
 22
1.606880
 13
4.076160
 23
1.985720
  0
POLYLINE
  8
0
  6
CONTINUOUS
 66
     1
 40
0.000000
 41
0.000000
  0
VERTEX
  8
0
  6
CONTINUOUS
 10
3.434200
 20
1.610840
  0
VERTEX
  8
0
  6
CONTINUOUS
 10
4.076160
 20
1.990120
  0
VERTEX
  8
0
  6
CONTINUOUS
 10
4.076160
 20
1.985720
  0
VERTEX
  8
0
  6
CONTINUOUS
 10
3.434200
 20
1.606880
  0
VERTEX
  8
0
  6
CONTINUOUS
 10
3.434200
 20
1.610840
  0
SEQEND
  8
0
  0
POLYLINE
  8
0
  6
CONTINUOUS
 66
     1
 40
0.000000
 41
0.000000
  0
VERTEX
  8
0
  6
CONTINUOUS
 10
3.434200
 20
1.606880
  0
VERTEX
  8
0
  6
CONTINUOUS
 10
3.378320
 20
1.606880
  0
VERTEX
  8
0
  6
CONTINUOUS
 10
3.361600
 20
1.217040
  0
VERTEX
  8
0
  6
CONTINUOUS
 10
3.361600
 20
1.214840
  0
VERTEX
  8
0
  6
CONTINUOUS
 10
3.309240
 20
1.213080
  0
VERTEX
  8
0
  6
CONTINUOUS
 10
3.309240
 20
1.210880
  0
VERTEX
  8
0
  6
CONTINUOUS
 10
3.308360
 20
1.170400
  0
VERTEX
  8
0
  6
CONTINUOUS
 10
3.304400
 20
1.134320
  0
VERTEX
  8
0
  6
CONTINUOUS
 10
3.297800
 20
1.101760
  0
VERTEX
  8
0
  6
CONTINUOUS
 10
3.289000
 20
1.072720
  0
VERTEX
  8
0
  6
CONTINUOUS
 10
3.266120
 20
1.022560
  0
VERTEX
  8
0
  6
CONTINUOUS
 10
3.239720
 20
0.982080
  0
VERTEX
  8
0
  6
CONTINUOUS
 10
3.226080
 20
0.964040
  0
VERTEX
  8
0
  6
CONTINUOUS
 10
3.213320
 20
0.947320
  0
VERTEX
  8
0
  6
CONTINUOUS
 10
3.189560
 20
0.915200
  0
VERTEX
  8
0
  6
CONTINUOUS
 10
3.172400
 20
0.883520
  0
VERTEX
  8
0
  6
CONTINUOUS
 10
3.167560
 20
0.866360
  0
VERTEX
  8
0
  6
CONTINUOUS
 10
3.165800
 20
0.848320
  0
VERTEX
  8
0
  6
CONTINUOUS
 10
3.019720
 20
0.848320
  0
VERTEX
  8
0
  6
CONTINUOUS
 10
3.019720
 20
3.337840
  0
VERTEX
  8
0
  6
CONTINUOUS
 10
3.699080
 20
3.337840
  0
VERTEX
  8
0
  6
CONTINUOUS
 10
3.680160
 20
2.840200
  0
VERTEX
  8
0
  6
CONTINUOUS
 10
3.584240
 20
2.825680
  0
VERTEX
  8
0
  6
CONTINUOUS
 10
3.593920
 20
2.778600
  0
VERTEX
  8
0
  6
CONTINUOUS
 10
3.600520
 20
2.730640
  0
VERTEX
  8
0
  6
CONTINUOUS
 10
3.604480
 20
2.633840
  0
VERTEX
  8
0
  6
CONTINUOUS
 10
3.599640
 20
2.538800
  0
VERTEX
  8
0
  6
CONTINUOUS
 10
3.588200
 20
2.448600
  0
VERTEX
  8
0
  6
CONTINUOUS
 10
3.572360
 20
2.366760
  0
VERTEX
  8
0
  6
CONTINUOUS
 10
3.555200
 20
2.296800
  0
VERTEX
  8
0
  6
CONTINUOUS
 10
3.546840
 20
2.266880
  0
VERTEX
  8
0
  6
CONTINUOUS
 10
3.538920
 20
2.241360
  0
VERTEX
  8
0
  6
CONTINUOUS
 10
3.531880
 20
2.220680
  0
VERTEX
  8
0
  6
CONTINUOUS
 10
3.526160
 20
2.204840
  0
VERTEX
  8
0
  6
CONTINUOUS
 10
3.520440
 20
2.190320
  0
VERTEX
  8
0
  6
CONTINUOUS
 10
3.514280
 20
2.173160
  0
VERTEX
  8
0
  6
CONTINUOUS
 10
3.500200
 20
2.131800
  0
VERTEX
  8
0
  6
CONTINUOUS
 10
3.485240
 20
2.079000
  0
VERTEX
  8
0
  6
CONTINUOUS
 10
3.470280
 20
2.013880
  0
VERTEX
  8
0
  6
CONTINUOUS
 10
3.462800
 20
1.976480
  0
VERTEX
  8
0
  6
CONTINUOUS
 10
3.456200
 20
1.935560
  0
VERTEX
  8
0
  6
CONTINUOUS
 10
3.450040
 20
1.891120
  0
VERTEX
  8
0
  6
CONTINUOUS
 10
3.444760
 20
1.843160
  0
VERTEX
  8
0
  6
CONTINUOUS
 10
3.440360
 20
1.791240
  0
VERTEX
  8
0
  6
CONTINUOUS
 10
3.437280
 20
1.735360
  0
VERTEX
  8
0
  6
CONTINUOUS
 10
3.435080
 20
1.675080
  0
VERTEX
  8
0
  6
CONTINUOUS
 10
3.434200
 20
1.610840
  0
VERTEX
  8
0
  6
CONTINUOUS
 10
3.434200
 20
1.606880
  0
SEQEND
  8
0
  0
TEXT
  8
0
 10
3.385800
 20
0.608520
 40
0.137989
  1
BA  308
 41
1.000000
  7
SN0
 71
     0
 72
     5
 11
3.974937
 21
0.608520
  0
TEXT
  8
0
 10
3.137640
 20
0.417120
 40
0.137989
  1
11/16" x 2-1/2"
 41
1.000000
  7
SN0
 71
     0
 72
     5
 11
4.220367
 21
0.417120
  0
ENDSEC
  0
EOF
