  0
SECTION
  2
HEADER
  9
$ACADVER
  1
AC1006
  9
$EXTMIN
 10
4.238520
 20
0.410080
  9
$EXTMAX
 10
8.085000
 20
3.850000
  9
$LTSCALE
 40
0.044000
  9
$PDMODE
 70
    35
  9
$PDSIZE
 40
0.035200
  0
ENDSEC
  0
SECTION
  2
TABLES
  0
TABLE
  2
LTYPE
 70
     9
  0
LTYPE
  2
CONTINUOUS
 70
    64
  3
Solid line
 72
    65
 73
     0
 40
0.000000
  0
LTYPE
  2
DASHED
 70
    64
  3
__ __ __ __ __ __ __ __ __ __ __ __ __ __ __
 72
    65
 73
     2
 40
0.000330
 49
0.000220
 49
-0.000110
  0
LTYPE
  2
HIDDEN
 70
    64
  3
 _ _ _ _ _ _ _ _ _ _ _ _ _ _ _ _ _ _ _ _ _ _
 72
    65
 73
     2
 40
0.000165
 49
0.000110
 49
-0.000055
  0
LTYPE
  2
CENTER
 70
    64
  3
____ _ ____ _ ____ _ ____ _ ____ _ ____ _ ____
 72
    65
 73
     4
 40
0.000880
 49
0.000550
 49
-0.000110
 49
0.000110
 49
-0.000110
  0
LTYPE
  2
PHANTOM
 70
    64
  3
_____ _ _ _____ _ _ _____ _ _ _____ _ _ ____
 72
    65
 73
     6
 40
0.001100
 49
0.000550
 49
-0.000110
 49
0.000110
 49
-0.000110
 49
0.000110
 49
-0.000110
  0
LTYPE
  2
DOT
 70
    64
  3
...............................................
 72
    65
 73
     2
 40
0.000110
 49
0.000000
 49
-0.000110
  0
LTYPE
  2
DASHDOT
 70
    64
  3
__ . __ . __ . __ . __ . __ . __ . __ . __ . __
 72
    65
 73
     4
 40
0.000440
 49
0.000220
 49
-0.000110
 49
0.000000
 49
-0.000110
  0
LTYPE
  2
BORDER
 70
    64
  3
__ __ . __ __ . __ __ . __ __ . __ __ . __ __
 72
    65
 73
     6
 40
0.000770
 49
0.000220
 49
-0.000110
 49
0.000220
 49
-0.000110
 49
0.000000
 49
-0.000110
  0
LTYPE
  2
DIVIDE
 70
    64
  3
__ . . __ . . __ . . __ . . __ . . __ . . __
 72
    65
 73
     6
 40
0.000550
 49
0.000220
 49
-0.000110
 49
0.000000
 49
-0.000110
 49
0.000000
 49
-0.000110
  0
LTYPE
  2
DOTDOT
 70
    64
  3
 . .  . .  . .  . .  . .  . . 
 72
    65
 73
     5
 40
0.000242
 49
-0.000110
 49
0.000000
 49
-0.000110
 49
0.000000
 49
-0.000110
  0
ENDTAB
  0
TABLE
  2
STYLE
 70
     2
  0
STYLE
 70
     0
  2
SN0
 40
0.000000
 41
0.000440
 50
0.000000
 71
     0
 42
0.000000
  3
ROMAND
  0
STYLE
 70
    68
  2
SV0
 40
0.000000
 41
0.000440
 50
0.000000
 71
     0
 42
0.000000
  3
ROMAND
  0
ENDTAB
  0
TABLE
  2
LAYER
 70
     3
  0
LAYER
  2
FOREGROUND
 70
    64
 62
     7
  6
CONTINUOUS
  0
LAYER
  2
BACKGROUND
 70
    65
 62
    -7
  6
CONTINUOUS
  0
LAYER
  2
0
 70
    64
 62
     7
  6
CONTINUOUS
  0
ENDTAB
  0
ENDSEC
  0
SECTION
  2
ENTITIES
  0
POLYLINE
  8
FOREGROUND
  6
CONTINUOUS
 66
     1
 40
0.000000
 41
0.000000
  0
VERTEX
  8
FOREGROUND
  6
CONTINUOUS
 10
0.000000
 20
4.260080
  0
VERTEX
  8
FOREGROUND
  6
CONTINUOUS
 10
8.499920
 20
4.260080
  0
VERTEX
  8
FOREGROUND
  6
CONTINUOUS
 10
8.499920
 20
-6.739920
  0
VERTEX
  8
FOREGROUND
  6
CONTINUOUS
 10
0.000000
 20
-6.739920
  0
VERTEX
  8
FOREGROUND
  6
CONTINUOUS
 10
0.000000
 20
4.260080
  0
SEQEND
  8
0
  0
POLYLINE
  8
FOREGROUND
  6
CONTINUOUS
 66
     1
 40
0.000000
 41
0.000000
  0
VERTEX
  8
FOREGROUND
  6
CONTINUOUS
 10
0.000000
 20
4.260080
  0
VERTEX
  8
FOREGROUND
  6
CONTINUOUS
 10
8.499920
 20
4.260080
  0
VERTEX
  8
FOREGROUND
  6
CONTINUOUS
 10
8.499920
 20
-6.739920
  0
VERTEX
  8
FOREGROUND
  6
CONTINUOUS
 10
0.000000
 20
-6.739920
  0
VERTEX
  8
FOREGROUND
  6
CONTINUOUS
 10
0.000000
 20
4.260080
  0
SEQEND
  8
0
  0
POLYLINE
  8
0
  6
CONTINUOUS
 66
     1
 40
0.014080
 41
0.014080
  0
VERTEX
  8
0
  6
CONTINUOUS
 10
7.338760
 20
2.108920
  0
VERTEX
  8
0
  6
CONTINUOUS
 10
7.194880
 20
2.198680
  0
VERTEX
  8
0
  6
CONTINUOUS
 10
7.233600
 20
2.243560
  0
VERTEX
  8
0
  6
CONTINUOUS
 10
7.264840
 20
2.289760
  0
VERTEX
  8
0
  6
CONTINUOUS
 10
7.281120
 20
2.321000
  0
VERTEX
  8
0
  6
CONTINUOUS
 10
7.298280
 20
2.368520
  0
VERTEX
  8
0
  6
CONTINUOUS
 10
7.305320
 20
2.400640
  0
VERTEX
  8
0
  6
CONTINUOUS
 10
7.308400
 20
2.433640
  0
VERTEX
  8
0
  6
CONTINUOUS
 10
7.307080
 20
2.466640
  0
VERTEX
  8
0
  6
CONTINUOUS
 10
7.302240
 20
2.500080
  0
VERTEX
  8
0
  6
CONTINUOUS
 10
7.293000
 20
2.533960
  0
VERTEX
  8
0
  6
CONTINUOUS
 10
7.279800
 20
2.568280
  0
VERTEX
  8
0
  6
CONTINUOUS
 10
7.262200
 20
2.603040
  0
VERTEX
  8
0
  6
CONTINUOUS
 10
7.240200
 20
2.638240
  0
VERTEX
  8
0
  6
CONTINUOUS
 10
7.198840
 20
2.691920
  0
VERTEX
  8
0
  6
CONTINUOUS
 10
7.056720
 20
2.844600
  0
VERTEX
  8
0
  6
CONTINUOUS
 10
6.980600
 20
2.935240
  0
VERTEX
  8
0
  6
CONTINUOUS
 10
6.929560
 20
3.003880
  0
VERTEX
  8
0
  6
CONTINUOUS
 10
6.887760
 20
3.068120
  0
VERTEX
  8
0
  6
CONTINUOUS
 10
6.855200
 20
3.128400
  0
VERTEX
  8
0
  6
CONTINUOUS
 10
6.837160
 20
3.171080
  0
VERTEX
  8
0
  6
CONTINUOUS
 10
6.824840
 20
3.211120
  0
VERTEX
  8
0
  6
CONTINUOUS
 10
6.817800
 20
3.248520
  0
VERTEX
  8
0
  6
CONTINUOUS
 10
6.850360
 20
3.257320
  0
VERTEX
  8
0
  6
CONTINUOUS
 10
6.881160
 20
3.268320
  0
VERTEX
  8
0
  6
CONTINUOUS
 10
6.923400
 20
3.289000
  0
VERTEX
  8
0
  6
CONTINUOUS
 10
6.948920
 20
3.305280
  0
VERTEX
  8
0
  6
CONTINUOUS
 10
6.983240
 20
3.333440
  0
VERTEX
  8
0
  6
CONTINUOUS
 10
7.012280
 20
3.364680
  0
VERTEX
  8
0
  6
CONTINUOUS
 10
7.036920
 20
3.398560
  0
VERTEX
  8
0
  6
CONTINUOUS
 10
7.050560
 20
3.422760
  0
VERTEX
  8
0
  6
CONTINUOUS
 10
7.062000
 20
3.447400
  0
VERTEX
  8
0
  6
CONTINUOUS
 10
7.070800
 20
3.472920
  0
VERTEX
  8
0
  6
CONTINUOUS
 10
7.077840
 20
3.498880
  0
VERTEX
  8
0
  6
CONTINUOUS
 10
7.082680
 20
3.524840
  0
VERTEX
  8
0
  6
CONTINUOUS
 10
7.084880
 20
3.551240
  0
VERTEX
  8
0
  6
CONTINUOUS
 10
7.084880
 20
3.577640
  0
VERTEX
  8
0
  6
CONTINUOUS
 10
7.082680
 20
3.603600
  0
VERTEX
  8
0
  6
CONTINUOUS
 10
7.075200
 20
3.641440
  0
VERTEX
  8
0
  6
CONTINUOUS
 10
7.062000
 20
3.677960
  0
VERTEX
  8
0
  6
CONTINUOUS
 10
7.043960
 20
3.712720
  0
VERTEX
  8
0
  6
CONTINUOUS
 10
7.020200
 20
3.744400
  0
VERTEX
  8
0
  6
CONTINUOUS
 10
6.990720
 20
3.772560
  0
VERTEX
  8
0
  6
CONTINUOUS
 10
6.956400
 20
3.796760
  0
VERTEX
  8
0
  6
CONTINUOUS
 10
6.915920
 20
3.816560
  0
VERTEX
  8
0
  6
CONTINUOUS
 10
6.870160
 20
3.831080
  0
VERTEX
  8
0
  6
CONTINUOUS
 10
6.836280
 20
3.837680
  0
VERTEX
  8
0
  6
CONTINUOUS
 10
6.800200
 20
3.841640
  0
VERTEX
  8
0
  6
CONTINUOUS
 10
6.757520
 20
3.842520
  0
VERTEX
  8
0
  6
CONTINUOUS
 10
6.503200
 20
3.842520
  0
VERTEX
  8
0
  6
CONTINUOUS
 10
6.503200
 20
1.354760
  0
VERTEX
  8
0
  6
CONTINUOUS
 10
7.338760
 20
1.354760
  0
VERTEX
  8
0
  6
CONTINUOUS
 10
7.338760
 20
2.108920
  0
SEQEND
  8
0
  0
SOLID
  8
0
 62
    15
 10
4.614720
 20
2.644840
 11
5.258880
 21
3.010480
 12
4.654320
 22
2.581480
 13
5.298480
 23
2.947120
  0
POLYLINE
  8
0
  6
CONTINUOUS
 66
     1
 40
0.000000
 41
0.000000
  0
VERTEX
  8
0
  6
CONTINUOUS
 10
4.614720
 20
2.644840
  0
VERTEX
  8
0
  6
CONTINUOUS
 10
5.258880
 20
3.010480
  0
VERTEX
  8
0
  6
CONTINUOUS
 10
5.298480
 20
2.947120
  0
VERTEX
  8
0
  6
CONTINUOUS
 10
4.654320
 20
2.581480
  0
VERTEX
  8
0
  6
CONTINUOUS
 10
4.614720
 20
2.644840
  0
SEQEND
  8
0
  0
SOLID
  8
0
 62
    15
 10
4.238960
 20
3.403840
 11
4.883560
 21
3.769480
 12
4.497240
 22
3.403400
 13
5.141840
 23
3.769040
  0
POLYLINE
  8
0
  6
CONTINUOUS
 66
     1
 40
0.000000
 41
0.000000
  0
VERTEX
  8
0
  6
CONTINUOUS
 10
4.238960
 20
3.403840
  0
VERTEX
  8
0
  6
CONTINUOUS
 10
4.883560
 20
3.769480
  0
VERTEX
  8
0
  6
CONTINUOUS
 10
5.141840
 20
3.769040
  0
VERTEX
  8
0
  6
CONTINUOUS
 10
4.497240
 20
3.403400
  0
VERTEX
  8
0
  6
CONTINUOUS
 10
4.238960
 20
3.403840
  0
SEQEND
  8
0
  0
SOLID
  8
0
 62
    15
 10
4.497240
 20
3.403400
 11
5.141840
 21
3.769040
 12
4.572480
 22
3.399000
 13
5.216640
 23
3.764640
  0
POLYLINE
  8
0
  6
CONTINUOUS
 66
     1
 40
0.000000
 41
0.000000
  0
VERTEX
  8
0
  6
CONTINUOUS
 10
4.497240
 20
3.403400
  0
VERTEX
  8
0
  6
CONTINUOUS
 10
5.141840
 20
3.769040
  0
VERTEX
  8
0
  6
CONTINUOUS
 10
5.216640
 20
3.764640
  0
VERTEX
  8
0
  6
CONTINUOUS
 10
4.572480
 20
3.399000
  0
VERTEX
  8
0
  6
CONTINUOUS
 10
4.497240
 20
3.403400
  0
SEQEND
  8
0
  0
SOLID
  8
0
 62
    15
 10
4.572480
 20
3.399000
 11
5.216640
 21
3.764640
 12
4.637160
 22
3.383160
 13
5.281760
 23
3.748800
  0
POLYLINE
  8
0
  6
CONTINUOUS
 66
     1
 40
0.000000
 41
0.000000
  0
VERTEX
  8
0
  6
CONTINUOUS
 10
4.572480
 20
3.399000
  0
VERTEX
  8
0
  6
CONTINUOUS
 10
5.216640
 20
3.764640
  0
VERTEX
  8
0
  6
CONTINUOUS
 10
5.281760
 20
3.748800
  0
VERTEX
  8
0
  6
CONTINUOUS
 10
4.637160
 20
3.383160
  0
VERTEX
  8
0
  6
CONTINUOUS
 10
4.572480
 20
3.399000
  0
SEQEND
  8
0
  0
SOLID
  8
0
 62
    15
 10
4.637160
 20
3.383160
 11
5.281760
 21
3.748800
 12
4.692160
 22
3.358080
 13
5.336320
 23
3.723720
  0
POLYLINE
  8
0
  6
CONTINUOUS
 66
     1
 40
0.000000
 41
0.000000
  0
VERTEX
  8
0
  6
CONTINUOUS
 10
4.637160
 20
3.383160
  0
VERTEX
  8
0
  6
CONTINUOUS
 10
5.281760
 20
3.748800
  0
VERTEX
  8
0
  6
CONTINUOUS
 10
5.336320
 20
3.723720
  0
VERTEX
  8
0
  6
CONTINUOUS
 10
4.692160
 20
3.358080
  0
VERTEX
  8
0
  6
CONTINUOUS
 10
4.637160
 20
3.383160
  0
SEQEND
  8
0
  0
SOLID
  8
0
 62
    15
 10
4.692160
 20
3.358080
 11
5.336320
 21
3.723720
 12
4.737040
 22
3.324640
 13
5.381640
 23
3.690280
  0
POLYLINE
  8
0
  6
CONTINUOUS
 66
     1
 40
0.000000
 41
0.000000
  0
VERTEX
  8
0
  6
CONTINUOUS
 10
4.692160
 20
3.358080
  0
VERTEX
  8
0
  6
CONTINUOUS
 10
5.336320
 20
3.723720
  0
VERTEX
  8
0
  6
CONTINUOUS
 10
5.381640
 20
3.690280
  0
VERTEX
  8
0
  6
CONTINUOUS
 10
4.737040
 20
3.324640
  0
VERTEX
  8
0
  6
CONTINUOUS
 10
4.692160
 20
3.358080
  0
SEQEND
  8
0
  0
SOLID
  8
0
 62
    15
 10
4.737040
 20
3.324640
 11
5.381640
 21
3.690280
 12
4.772240
 22
3.284600
 13
5.416840
 23
3.650240
  0
POLYLINE
  8
0
  6
CONTINUOUS
 66
     1
 40
0.000000
 41
0.000000
  0
VERTEX
  8
0
  6
CONTINUOUS
 10
4.737040
 20
3.324640
  0
VERTEX
  8
0
  6
CONTINUOUS
 10
5.381640
 20
3.690280
  0
VERTEX
  8
0
  6
CONTINUOUS
 10
5.416840
 20
3.650240
  0
VERTEX
  8
0
  6
CONTINUOUS
 10
4.772240
 20
3.284600
  0
VERTEX
  8
0
  6
CONTINUOUS
 10
4.737040
 20
3.324640
  0
SEQEND
  8
0
  0
SOLID
  8
0
 62
    15
 10
4.772240
 20
3.284600
 11
5.416840
 21
3.650240
 12
4.797760
 22
3.239280
 13
5.442360
 23
3.604920
  0
POLYLINE
  8
0
  6
CONTINUOUS
 66
     1
 40
0.000000
 41
0.000000
  0
VERTEX
  8
0
  6
CONTINUOUS
 10
4.772240
 20
3.284600
  0
VERTEX
  8
0
  6
CONTINUOUS
 10
5.416840
 20
3.650240
  0
VERTEX
  8
0
  6
CONTINUOUS
 10
5.442360
 20
3.604920
  0
VERTEX
  8
0
  6
CONTINUOUS
 10
4.797760
 20
3.239280
  0
VERTEX
  8
0
  6
CONTINUOUS
 10
4.772240
 20
3.284600
  0
SEQEND
  8
0
  0
SOLID
  8
0
 62
    15
 10
4.797760
 20
3.239280
 11
5.442360
 21
3.604920
 12
4.814040
 22
3.190440
 13
5.458640
 23
3.556080
  0
POLYLINE
  8
0
  6
CONTINUOUS
 66
     1
 40
0.000000
 41
0.000000
  0
VERTEX
  8
0
  6
CONTINUOUS
 10
4.797760
 20
3.239280
  0
VERTEX
  8
0
  6
CONTINUOUS
 10
5.442360
 20
3.604920
  0
VERTEX
  8
0
  6
CONTINUOUS
 10
5.458640
 20
3.556080
  0
VERTEX
  8
0
  6
CONTINUOUS
 10
4.814040
 20
3.190440
  0
VERTEX
  8
0
  6
CONTINUOUS
 10
4.797760
 20
3.239280
  0
SEQEND
  8
0
  0
SOLID
  8
0
 62
    15
 10
4.814040
 20
3.190440
 11
5.458640
 21
3.556080
 12
4.821080
 22
3.138960
 13
5.465240
 23
3.504600
  0
POLYLINE
  8
0
  6
CONTINUOUS
 66
     1
 40
0.000000
 41
0.000000
  0
VERTEX
  8
0
  6
CONTINUOUS
 10
4.814040
 20
3.190440
  0
VERTEX
  8
0
  6
CONTINUOUS
 10
5.458640
 20
3.556080
  0
VERTEX
  8
0
  6
CONTINUOUS
 10
5.465240
 20
3.504600
  0
VERTEX
  8
0
  6
CONTINUOUS
 10
4.821080
 20
3.138960
  0
VERTEX
  8
0
  6
CONTINUOUS
 10
4.814040
 20
3.190440
  0
SEQEND
  8
0
  0
SOLID
  8
0
 62
    15
 10
4.821080
 20
3.138960
 11
5.465240
 21
3.504600
 12
4.818440
 22
3.086160
 13
5.463040
 23
3.451800
  0
POLYLINE
  8
0
  6
CONTINUOUS
 66
     1
 40
0.000000
 41
0.000000
  0
VERTEX
  8
0
  6
CONTINUOUS
 10
4.821080
 20
3.138960
  0
VERTEX
  8
0
  6
CONTINUOUS
 10
5.465240
 20
3.504600
  0
VERTEX
  8
0
  6
CONTINUOUS
 10
5.463040
 20
3.451800
  0
VERTEX
  8
0
  6
CONTINUOUS
 10
4.818440
 20
3.086160
  0
VERTEX
  8
0
  6
CONTINUOUS
 10
4.821080
 20
3.138960
  0
SEQEND
  8
0
  0
SOLID
  8
0
 62
    15
 10
4.818440
 20
3.086160
 11
5.463040
 21
3.451800
 12
4.807000
 22
3.034240
 13
5.451160
 23
3.399880
  0
POLYLINE
  8
0
  6
CONTINUOUS
 66
     1
 40
0.000000
 41
0.000000
  0
VERTEX
  8
0
  6
CONTINUOUS
 10
4.818440
 20
3.086160
  0
VERTEX
  8
0
  6
CONTINUOUS
 10
5.463040
 20
3.451800
  0
VERTEX
  8
0
  6
CONTINUOUS
 10
5.451160
 20
3.399880
  0
VERTEX
  8
0
  6
CONTINUOUS
 10
4.807000
 20
3.034240
  0
VERTEX
  8
0
  6
CONTINUOUS
 10
4.818440
 20
3.086160
  0
SEQEND
  8
0
  0
SOLID
  8
0
 62
    15
 10
4.807000
 20
3.034240
 11
5.451160
 21
3.399880
 12
4.786320
 22
2.983640
 13
5.430920
 23
3.349720
  0
POLYLINE
  8
0
  6
CONTINUOUS
 66
     1
 40
0.000000
 41
0.000000
  0
VERTEX
  8
0
  6
CONTINUOUS
 10
4.807000
 20
3.034240
  0
VERTEX
  8
0
  6
CONTINUOUS
 10
5.451160
 20
3.399880
  0
VERTEX
  8
0
  6
CONTINUOUS
 10
5.430920
 20
3.349720
  0
VERTEX
  8
0
  6
CONTINUOUS
 10
4.786320
 20
2.983640
  0
VERTEX
  8
0
  6
CONTINUOUS
 10
4.807000
 20
3.034240
  0
SEQEND
  8
0
  0
SOLID
  8
0
 62
    15
 10
4.786320
 20
2.983640
 11
5.430920
 21
3.349720
 12
4.756840
 22
2.937000
 13
5.401440
 23
3.302640
  0
POLYLINE
  8
0
  6
CONTINUOUS
 66
     1
 40
0.000000
 41
0.000000
  0
VERTEX
  8
0
  6
CONTINUOUS
 10
4.786320
 20
2.983640
  0
VERTEX
  8
0
  6
CONTINUOUS
 10
5.430920
 20
3.349720
  0
VERTEX
  8
0
  6
CONTINUOUS
 10
5.401440
 20
3.302640
  0
VERTEX
  8
0
  6
CONTINUOUS
 10
4.756840
 20
2.937000
  0
VERTEX
  8
0
  6
CONTINUOUS
 10
4.786320
 20
2.983640
  0
SEQEND
  8
0
  0
SOLID
  8
0
 62
    15
 10
4.553560
 20
2.809840
 11
5.198160
 21
3.175480
 12
4.564120
 22
2.759240
 13
5.208720
 23
3.124880
  0
POLYLINE
  8
0
  6
CONTINUOUS
 66
     1
 40
0.000000
 41
0.000000
  0
VERTEX
  8
0
  6
CONTINUOUS
 10
4.553560
 20
2.809840
  0
VERTEX
  8
0
  6
CONTINUOUS
 10
5.198160
 20
3.175480
  0
VERTEX
  8
0
  6
CONTINUOUS
 10
5.208720
 20
3.124880
  0
VERTEX
  8
0
  6
CONTINUOUS
 10
4.564120
 20
2.759240
  0
VERTEX
  8
0
  6
CONTINUOUS
 10
4.553560
 20
2.809840
  0
SEQEND
  8
0
  0
SOLID
  8
0
 62
    15
 10
4.719000
 20
2.894760
 11
5.363160
 21
3.260400
 12
4.672360
 22
2.858240
 13
5.316520
 23
3.223880
  0
POLYLINE
  8
0
  6
CONTINUOUS
 66
     1
 40
0.000000
 41
0.000000
  0
VERTEX
  8
0
  6
CONTINUOUS
 10
4.719000
 20
2.894760
  0
VERTEX
  8
0
  6
CONTINUOUS
 10
5.363160
 20
3.260400
  0
VERTEX
  8
0
  6
CONTINUOUS
 10
5.316520
 20
3.223880
  0
VERTEX
  8
0
  6
CONTINUOUS
 10
4.672360
 20
2.858240
  0
VERTEX
  8
0
  6
CONTINUOUS
 10
4.719000
 20
2.894760
  0
SEQEND
  8
0
  0
SOLID
  8
0
 62
    15
 10
4.756840
 20
2.937000
 11
5.401440
 21
3.302640
 12
4.719000
 22
2.894760
 13
5.363160
 23
3.260400
  0
POLYLINE
  8
0
  6
CONTINUOUS
 66
     1
 40
0.000000
 41
0.000000
  0
VERTEX
  8
0
  6
CONTINUOUS
 10
4.756840
 20
2.937000
  0
VERTEX
  8
0
  6
CONTINUOUS
 10
5.401440
 20
3.302640
  0
VERTEX
  8
0
  6
CONTINUOUS
 10
5.363160
 20
3.260400
  0
VERTEX
  8
0
  6
CONTINUOUS
 10
4.719000
 20
2.894760
  0
VERTEX
  8
0
  6
CONTINUOUS
 10
4.756840
 20
2.937000
  0
SEQEND
  8
0
  0
SOLID
  8
0
 62
    15
 10
4.564120
 20
2.759240
 11
5.208720
 21
3.124880
 12
4.584800
 22
2.704240
 13
5.228960
 23
3.069880
  0
POLYLINE
  8
0
  6
CONTINUOUS
 66
     1
 40
0.000000
 41
0.000000
  0
VERTEX
  8
0
  6
CONTINUOUS
 10
4.564120
 20
2.759240
  0
VERTEX
  8
0
  6
CONTINUOUS
 10
5.208720
 20
3.124880
  0
VERTEX
  8
0
  6
CONTINUOUS
 10
5.228960
 20
3.069880
  0
VERTEX
  8
0
  6
CONTINUOUS
 10
4.584800
 20
2.704240
  0
VERTEX
  8
0
  6
CONTINUOUS
 10
4.564120
 20
2.759240
  0
SEQEND
  8
0
  0
SOLID
  8
0
 62
    15
 10
4.584800
 20
2.704240
 11
5.228960
 21
3.069880
 12
4.614720
 22
2.644840
 13
5.258880
 23
3.010480
  0
POLYLINE
  8
0
  6
CONTINUOUS
 66
     1
 40
0.000000
 41
0.000000
  0
VERTEX
  8
0
  6
CONTINUOUS
 10
4.584800
 20
2.704240
  0
VERTEX
  8
0
  6
CONTINUOUS
 10
5.228960
 20
3.069880
  0
VERTEX
  8
0
  6
CONTINUOUS
 10
5.258880
 20
3.010480
  0
VERTEX
  8
0
  6
CONTINUOUS
 10
4.614720
 20
2.644840
  0
VERTEX
  8
0
  6
CONTINUOUS
 10
4.584800
 20
2.704240
  0
SEQEND
  8
0
  0
SOLID
  8
0
 62
    15
 10
5.074520
 20
1.664080
 11
5.718680
 21
2.029720
 12
5.074520
 22
0.916080
 13
5.718680
 23
1.281720
  0
POLYLINE
  8
0
  6
CONTINUOUS
 66
     1
 40
0.000000
 41
0.000000
  0
VERTEX
  8
0
  6
CONTINUOUS
 10
5.074520
 20
1.664080
  0
VERTEX
  8
0
  6
CONTINUOUS
 10
5.718680
 20
2.029720
  0
VERTEX
  8
0
  6
CONTINUOUS
 10
5.718680
 20
1.281720
  0
VERTEX
  8
0
  6
CONTINUOUS
 10
5.074520
 20
0.916080
  0
VERTEX
  8
0
  6
CONTINUOUS
 10
5.074520
 20
1.664080
  0
SEQEND
  8
0
  0
SOLID
  8
0
 62
    15
 10
4.654320
 20
2.581480
 11
5.298480
 21
2.947120
 12
4.702720
 22
2.514160
 13
5.347320
 23
2.879800
  0
POLYLINE
  8
0
  6
CONTINUOUS
 66
     1
 40
0.000000
 41
0.000000
  0
VERTEX
  8
0
  6
CONTINUOUS
 10
4.654320
 20
2.581480
  0
VERTEX
  8
0
  6
CONTINUOUS
 10
5.298480
 20
2.947120
  0
VERTEX
  8
0
  6
CONTINUOUS
 10
5.347320
 20
2.879800
  0
VERTEX
  8
0
  6
CONTINUOUS
 10
4.702720
 20
2.514160
  0
VERTEX
  8
0
  6
CONTINUOUS
 10
4.654320
 20
2.581480
  0
SEQEND
  8
0
  0
SOLID
  8
0
 62
    15
 10
4.702720
 20
2.514160
 11
5.347320
 21
2.879800
 12
4.760360
 22
2.442880
 13
5.404960
 23
2.808520
  0
POLYLINE
  8
0
  6
CONTINUOUS
 66
     1
 40
0.000000
 41
0.000000
  0
VERTEX
  8
0
  6
CONTINUOUS
 10
4.702720
 20
2.514160
  0
VERTEX
  8
0
  6
CONTINUOUS
 10
5.347320
 20
2.879800
  0
VERTEX
  8
0
  6
CONTINUOUS
 10
5.404960
 20
2.808520
  0
VERTEX
  8
0
  6
CONTINUOUS
 10
4.760360
 20
2.442880
  0
VERTEX
  8
0
  6
CONTINUOUS
 10
4.702720
 20
2.514160
  0
SEQEND
  8
0
  0
SOLID
  8
0
 62
    15
 10
4.760360
 20
2.442880
 11
5.404960
 21
2.808520
 12
4.826800
 22
2.367640
 13
5.471400
 23
2.733280
  0
POLYLINE
  8
0
  6
CONTINUOUS
 66
     1
 40
0.000000
 41
0.000000
  0
VERTEX
  8
0
  6
CONTINUOUS
 10
4.760360
 20
2.442880
  0
VERTEX
  8
0
  6
CONTINUOUS
 10
5.404960
 20
2.808520
  0
VERTEX
  8
0
  6
CONTINUOUS
 10
5.471400
 20
2.733280
  0
VERTEX
  8
0
  6
CONTINUOUS
 10
4.826800
 20
2.367640
  0
VERTEX
  8
0
  6
CONTINUOUS
 10
4.760360
 20
2.442880
  0
SEQEND
  8
0
  0
SOLID
  8
0
 62
    15
 10
4.826800
 20
2.367640
 11
5.471400
 21
2.733280
 12
4.901600
 22
2.288880
 13
5.546200
 23
2.654520
  0
POLYLINE
  8
0
  6
CONTINUOUS
 66
     1
 40
0.000000
 41
0.000000
  0
VERTEX
  8
0
  6
CONTINUOUS
 10
4.826800
 20
2.367640
  0
VERTEX
  8
0
  6
CONTINUOUS
 10
5.471400
 20
2.733280
  0
VERTEX
  8
0
  6
CONTINUOUS
 10
5.546200
 20
2.654520
  0
VERTEX
  8
0
  6
CONTINUOUS
 10
4.901600
 20
2.288880
  0
VERTEX
  8
0
  6
CONTINUOUS
 10
4.826800
 20
2.367640
  0
SEQEND
  8
0
  0
SOLID
  8
0
 62
    15
 10
4.901600
 20
2.288880
 11
5.546200
 21
2.654520
 12
4.935040
 22
2.252800
 13
5.579200
 23
2.618440
  0
POLYLINE
  8
0
  6
CONTINUOUS
 66
     1
 40
0.000000
 41
0.000000
  0
VERTEX
  8
0
  6
CONTINUOUS
 10
4.901600
 20
2.288880
  0
VERTEX
  8
0
  6
CONTINUOUS
 10
5.546200
 20
2.654520
  0
VERTEX
  8
0
  6
CONTINUOUS
 10
5.579200
 20
2.618440
  0
VERTEX
  8
0
  6
CONTINUOUS
 10
4.935040
 20
2.252800
  0
VERTEX
  8
0
  6
CONTINUOUS
 10
4.901600
 20
2.288880
  0
SEQEND
  8
0
  0
SOLID
  8
0
 62
    15
 10
4.935040
 20
2.252800
 11
5.579200
 21
2.618440
 12
4.963640
 22
2.217160
 13
5.607800
 23
2.582800
  0
POLYLINE
  8
0
  6
CONTINUOUS
 66
     1
 40
0.000000
 41
0.000000
  0
VERTEX
  8
0
  6
CONTINUOUS
 10
4.935040
 20
2.252800
  0
VERTEX
  8
0
  6
CONTINUOUS
 10
5.579200
 20
2.618440
  0
VERTEX
  8
0
  6
CONTINUOUS
 10
5.607800
 20
2.582800
  0
VERTEX
  8
0
  6
CONTINUOUS
 10
4.963640
 20
2.217160
  0
VERTEX
  8
0
  6
CONTINUOUS
 10
4.935040
 20
2.252800
  0
SEQEND
  8
0
  0
SOLID
  8
0
 62
    15
 10
4.963640
 20
2.217160
 11
5.607800
 21
2.582800
 12
4.987840
 22
2.181960
 13
5.632000
 23
2.547600
  0
POLYLINE
  8
0
  6
CONTINUOUS
 66
     1
 40
0.000000
 41
0.000000
  0
VERTEX
  8
0
  6
CONTINUOUS
 10
4.963640
 20
2.217160
  0
VERTEX
  8
0
  6
CONTINUOUS
 10
5.607800
 20
2.582800
  0
VERTEX
  8
0
  6
CONTINUOUS
 10
5.632000
 20
2.547600
  0
VERTEX
  8
0
  6
CONTINUOUS
 10
4.987840
 20
2.181960
  0
VERTEX
  8
0
  6
CONTINUOUS
 10
4.963640
 20
2.217160
  0
SEQEND
  8
0
  0
SOLID
  8
0
 62
    15
 10
4.987840
 20
2.181960
 11
5.632000
 21
2.547600
 12
5.007640
 22
2.146760
 13
5.651800
 23
2.512400
  0
POLYLINE
  8
0
  6
CONTINUOUS
 66
     1
 40
0.000000
 41
0.000000
  0
VERTEX
  8
0
  6
CONTINUOUS
 10
4.987840
 20
2.181960
  0
VERTEX
  8
0
  6
CONTINUOUS
 10
5.632000
 20
2.547600
  0
VERTEX
  8
0
  6
CONTINUOUS
 10
5.651800
 20
2.512400
  0
VERTEX
  8
0
  6
CONTINUOUS
 10
5.007640
 20
2.146760
  0
VERTEX
  8
0
  6
CONTINUOUS
 10
4.987840
 20
2.181960
  0
SEQEND
  8
0
  0
SOLID
  8
0
 62
    15
 10
5.007640
 20
2.146760
 11
5.651800
 21
2.512400
 12
5.023040
 22
2.112440
 13
5.667200
 23
2.478080
  0
POLYLINE
  8
0
  6
CONTINUOUS
 66
     1
 40
0.000000
 41
0.000000
  0
VERTEX
  8
0
  6
CONTINUOUS
 10
5.007640
 20
2.146760
  0
VERTEX
  8
0
  6
CONTINUOUS
 10
5.651800
 20
2.512400
  0
VERTEX
  8
0
  6
CONTINUOUS
 10
5.667200
 20
2.478080
  0
VERTEX
  8
0
  6
CONTINUOUS
 10
5.023040
 20
2.112440
  0
VERTEX
  8
0
  6
CONTINUOUS
 10
5.007640
 20
2.146760
  0
SEQEND
  8
0
  0
SOLID
  8
0
 62
    15
 10
5.023040
 20
2.112440
 11
5.667200
 21
2.478080
 12
5.034040
 22
2.078120
 13
5.678640
 23
2.443760
  0
POLYLINE
  8
0
  6
CONTINUOUS
 66
     1
 40
0.000000
 41
0.000000
  0
VERTEX
  8
0
  6
CONTINUOUS
 10
5.023040
 20
2.112440
  0
VERTEX
  8
0
  6
CONTINUOUS
 10
5.667200
 20
2.478080
  0
VERTEX
  8
0
  6
CONTINUOUS
 10
5.678640
 20
2.443760
  0
VERTEX
  8
0
  6
CONTINUOUS
 10
5.034040
 20
2.078120
  0
VERTEX
  8
0
  6
CONTINUOUS
 10
5.023040
 20
2.112440
  0
SEQEND
  8
0
  0
SOLID
  8
0
 62
    15
 10
5.034040
 20
2.078120
 11
5.678640
 21
2.443760
 12
5.041080
 22
2.044240
 13
5.685680
 23
2.410320
  0
POLYLINE
  8
0
  6
CONTINUOUS
 66
     1
 40
0.000000
 41
0.000000
  0
VERTEX
  8
0
  6
CONTINUOUS
 10
5.034040
 20
2.078120
  0
VERTEX
  8
0
  6
CONTINUOUS
 10
5.678640
 20
2.443760
  0
VERTEX
  8
0
  6
CONTINUOUS
 10
5.685680
 20
2.410320
  0
VERTEX
  8
0
  6
CONTINUOUS
 10
5.041080
 20
2.044240
  0
VERTEX
  8
0
  6
CONTINUOUS
 10
5.034040
 20
2.078120
  0
SEQEND
  8
0
  0
SOLID
  8
0
 62
    15
 10
5.041080
 20
2.044240
 11
5.685680
 21
2.410320
 12
5.044160
 22
2.011240
 13
5.688760
 23
2.376880
  0
POLYLINE
  8
0
  6
CONTINUOUS
 66
     1
 40
0.000000
 41
0.000000
  0
VERTEX
  8
0
  6
CONTINUOUS
 10
5.041080
 20
2.044240
  0
VERTEX
  8
0
  6
CONTINUOUS
 10
5.685680
 20
2.410320
  0
VERTEX
  8
0
  6
CONTINUOUS
 10
5.688760
 20
2.376880
  0
VERTEX
  8
0
  6
CONTINUOUS
 10
5.044160
 20
2.011240
  0
VERTEX
  8
0
  6
CONTINUOUS
 10
5.041080
 20
2.044240
  0
SEQEND
  8
0
  0
SOLID
  8
0
 62
    15
 10
5.044160
 20
2.011240
 11
5.688760
 21
2.376880
 12
5.038440
 22
1.945680
 13
5.682600
 23
2.311320
  0
POLYLINE
  8
0
  6
CONTINUOUS
 66
     1
 40
0.000000
 41
0.000000
  0
VERTEX
  8
0
  6
CONTINUOUS
 10
5.044160
 20
2.011240
  0
VERTEX
  8
0
  6
CONTINUOUS
 10
5.688760
 20
2.376880
  0
VERTEX
  8
0
  6
CONTINUOUS
 10
5.682600
 20
2.311320
  0
VERTEX
  8
0
  6
CONTINUOUS
 10
5.038440
 20
1.945680
  0
VERTEX
  8
0
  6
CONTINUOUS
 10
5.044160
 20
2.011240
  0
SEQEND
  8
0
  0
SOLID
  8
0
 62
    15
 10
5.038440
 20
1.945680
 11
5.682600
 21
2.311320
 12
5.016880
 22
1.881880
 13
5.661480
 23
2.247520
  0
POLYLINE
  8
0
  6
CONTINUOUS
 66
     1
 40
0.000000
 41
0.000000
  0
VERTEX
  8
0
  6
CONTINUOUS
 10
5.038440
 20
1.945680
  0
VERTEX
  8
0
  6
CONTINUOUS
 10
5.682600
 20
2.311320
  0
VERTEX
  8
0
  6
CONTINUOUS
 10
5.661480
 20
2.247520
  0
VERTEX
  8
0
  6
CONTINUOUS
 10
5.016880
 20
1.881880
  0
VERTEX
  8
0
  6
CONTINUOUS
 10
5.038440
 20
1.945680
  0
SEQEND
  8
0
  0
SOLID
  8
0
 62
    15
 10
5.016880
 20
1.881880
 11
5.661480
 21
2.247520
 12
4.980800
 22
1.820280
 13
5.625400
 23
2.185920
  0
POLYLINE
  8
0
  6
CONTINUOUS
 66
     1
 40
0.000000
 41
0.000000
  0
VERTEX
  8
0
  6
CONTINUOUS
 10
5.016880
 20
1.881880
  0
VERTEX
  8
0
  6
CONTINUOUS
 10
5.661480
 20
2.247520
  0
VERTEX
  8
0
  6
CONTINUOUS
 10
5.625400
 20
2.185920
  0
VERTEX
  8
0
  6
CONTINUOUS
 10
4.980800
 20
1.820280
  0
VERTEX
  8
0
  6
CONTINUOUS
 10
5.016880
 20
1.881880
  0
SEQEND
  8
0
  0
SOLID
  8
0
 62
    15
 10
4.980800
 20
1.820280
 11
5.625400
 21
2.185920
 12
4.930640
 22
1.760000
 13
5.575240
 23
2.125640
  0
POLYLINE
  8
0
  6
CONTINUOUS
 66
     1
 40
0.000000
 41
0.000000
  0
VERTEX
  8
0
  6
CONTINUOUS
 10
4.980800
 20
1.820280
  0
VERTEX
  8
0
  6
CONTINUOUS
 10
5.625400
 20
2.185920
  0
VERTEX
  8
0
  6
CONTINUOUS
 10
5.575240
 20
2.125640
  0
VERTEX
  8
0
  6
CONTINUOUS
 10
4.930640
 20
1.760000
  0
VERTEX
  8
0
  6
CONTINUOUS
 10
4.980800
 20
1.820280
  0
SEQEND
  8
0
  0
SOLID
  8
0
 62
    15
 10
4.930640
 20
1.760000
 11
5.575240
 21
2.125640
 12
4.935040
 22
1.757800
 13
5.579200
 23
2.123440
  0
POLYLINE
  8
0
  6
CONTINUOUS
 66
     1
 40
0.000000
 41
0.000000
  0
VERTEX
  8
0
  6
CONTINUOUS
 10
4.930640
 20
1.760000
  0
VERTEX
  8
0
  6
CONTINUOUS
 10
5.575240
 20
2.125640
  0
VERTEX
  8
0
  6
CONTINUOUS
 10
5.579200
 20
2.123440
  0
VERTEX
  8
0
  6
CONTINUOUS
 10
4.935040
 20
1.757800
  0
VERTEX
  8
0
  6
CONTINUOUS
 10
4.930640
 20
1.760000
  0
SEQEND
  8
0
  0
SOLID
  8
0
 62
    15
 10
4.935040
 20
1.757800
 11
5.579200
 21
2.123440
 12
5.074520
 22
1.670240
 13
5.718680
 23
2.035880
  0
POLYLINE
  8
0
  6
CONTINUOUS
 66
     1
 40
0.000000
 41
0.000000
  0
VERTEX
  8
0
  6
CONTINUOUS
 10
4.935040
 20
1.757800
  0
VERTEX
  8
0
  6
CONTINUOUS
 10
5.579200
 20
2.123440
  0
VERTEX
  8
0
  6
CONTINUOUS
 10
5.718680
 20
2.035880
  0
VERTEX
  8
0
  6
CONTINUOUS
 10
5.074520
 20
1.670240
  0
VERTEX
  8
0
  6
CONTINUOUS
 10
4.935040
 20
1.757800
  0
SEQEND
  8
0
  0
SOLID
  8
0
 62
    15
 10
5.074520
 20
1.670240
 11
5.718680
 21
2.035880
 12
5.074520
 22
1.664080
 13
5.718680
 23
2.029720
  0
POLYLINE
  8
0
  6
CONTINUOUS
 66
     1
 40
0.000000
 41
0.000000
  0
VERTEX
  8
0
  6
CONTINUOUS
 10
5.074520
 20
1.670240
  0
VERTEX
  8
0
  6
CONTINUOUS
 10
5.718680
 20
2.035880
  0
VERTEX
  8
0
  6
CONTINUOUS
 10
5.718680
 20
2.029720
  0
VERTEX
  8
0
  6
CONTINUOUS
 10
5.074520
 20
1.664080
  0
VERTEX
  8
0
  6
CONTINUOUS
 10
5.074520
 20
1.670240
  0
SEQEND
  8
0
  0
POLYLINE
  8
0
  6
CONTINUOUS
 66
     1
 40
0.000000
 41
0.000000
  0
VERTEX
  8
0
  6
CONTINUOUS
 10
5.074520
 20
1.664080
  0
VERTEX
  8
0
  6
CONTINUOUS
 10
5.074520
 20
0.916080
  0
VERTEX
  8
0
  6
CONTINUOUS
 10
4.238960
 20
0.916080
  0
VERTEX
  8
0
  6
CONTINUOUS
 10
4.238960
 20
3.403840
  0
VERTEX
  8
0
  6
CONTINUOUS
 10
4.497240
 20
3.403400
  0
VERTEX
  8
0
  6
CONTINUOUS
 10
4.572480
 20
3.399000
  0
VERTEX
  8
0
  6
CONTINUOUS
 10
4.637160
 20
3.383160
  0
VERTEX
  8
0
  6
CONTINUOUS
 10
4.692160
 20
3.358080
  0
VERTEX
  8
0
  6
CONTINUOUS
 10
4.737040
 20
3.324640
  0
VERTEX
  8
0
  6
CONTINUOUS
 10
4.772240
 20
3.284600
  0
VERTEX
  8
0
  6
CONTINUOUS
 10
4.797760
 20
3.239280
  0
VERTEX
  8
0
  6
CONTINUOUS
 10
4.814040
 20
3.190440
  0
VERTEX
  8
0
  6
CONTINUOUS
 10
4.821080
 20
3.138960
  0
VERTEX
  8
0
  6
CONTINUOUS
 10
4.818440
 20
3.086160
  0
VERTEX
  8
0
  6
CONTINUOUS
 10
4.807000
 20
3.034240
  0
VERTEX
  8
0
  6
CONTINUOUS
 10
4.786320
 20
2.983640
  0
VERTEX
  8
0
  6
CONTINUOUS
 10
4.756840
 20
2.937000
  0
VERTEX
  8
0
  6
CONTINUOUS
 10
4.719000
 20
2.894760
  0
VERTEX
  8
0
  6
CONTINUOUS
 10
4.672360
 20
2.858240
  0
VERTEX
  8
0
  6
CONTINUOUS
 10
4.617360
 20
2.829640
  0
VERTEX
  8
0
  6
CONTINUOUS
 10
4.553560
 20
2.809840
  0
VERTEX
  8
0
  6
CONTINUOUS
 10
4.564120
 20
2.759240
  0
VERTEX
  8
0
  6
CONTINUOUS
 10
4.584800
 20
2.704240
  0
VERTEX
  8
0
  6
CONTINUOUS
 10
4.614720
 20
2.644840
  0
VERTEX
  8
0
  6
CONTINUOUS
 10
4.654320
 20
2.581480
  0
VERTEX
  8
0
  6
CONTINUOUS
 10
4.702720
 20
2.514160
  0
VERTEX
  8
0
  6
CONTINUOUS
 10
4.760360
 20
2.442880
  0
VERTEX
  8
0
  6
CONTINUOUS
 10
4.826800
 20
2.367640
  0
VERTEX
  8
0
  6
CONTINUOUS
 10
4.901600
 20
2.288880
  0
VERTEX
  8
0
  6
CONTINUOUS
 10
4.935040
 20
2.252800
  0
VERTEX
  8
0
  6
CONTINUOUS
 10
4.963640
 20
2.217160
  0
VERTEX
  8
0
  6
CONTINUOUS
 10
4.987840
 20
2.181960
  0
VERTEX
  8
0
  6
CONTINUOUS
 10
5.007640
 20
2.146760
  0
VERTEX
  8
0
  6
CONTINUOUS
 10
5.023040
 20
2.112440
  0
VERTEX
  8
0
  6
CONTINUOUS
 10
5.034040
 20
2.078120
  0
VERTEX
  8
0
  6
CONTINUOUS
 10
5.041080
 20
2.044240
  0
VERTEX
  8
0
  6
CONTINUOUS
 10
5.044160
 20
2.011240
  0
VERTEX
  8
0
  6
CONTINUOUS
 10
5.038440
 20
1.945680
  0
VERTEX
  8
0
  6
CONTINUOUS
 10
5.016880
 20
1.881880
  0
VERTEX
  8
0
  6
CONTINUOUS
 10
4.980800
 20
1.820280
  0
VERTEX
  8
0
  6
CONTINUOUS
 10
4.930640
 20
1.760000
  0
VERTEX
  8
0
  6
CONTINUOUS
 10
4.935040
 20
1.757800
  0
VERTEX
  8
0
  6
CONTINUOUS
 10
5.074520
 20
1.670240
  0
VERTEX
  8
0
  6
CONTINUOUS
 10
5.074520
 20
1.664080
  0
SEQEND
  8
0
  0
TEXT
  8
0
 10
4.683360
 20
0.645480
 40
0.138046
  1
BA  306
 41
1.000000
  7
SN0
 71
     0
 72
     5
 11
5.272833
 21
0.645480
  0
TEXT
  8
0
 10
4.527600
 20
0.453640
 40
0.138046
  1
3/4" x 2-1/2"
 41
1.000000
  7
SN0
 71
     0
 72
     5
 11
5.426907
 21
0.453640
  0
TEXT
  8
0
 10
7.725520
 20
3.666520
 40
0.138046
  1
base
 41
1.000000
  7
SN0
 71
     0
 72
     5
 11
8.085166
 21
3.666520
  0
TEXT
  8
0
 10
7.766880
 20
3.475120
 40
0.138046
  1
306
 41
1.000000
  7
SN0
 71
     0
 72
     5
 11
8.043634
 21
3.475120
  0
ENDSEC
  0
EOF
