  0
SECTION
  2
HEADER
  9
$ACADVER
  1
AC1006
  9
$EXTMIN
 10
0.612920
 20
0.414480
  9
$EXTMAX
 10
8.071360
 20
3.696440
  9
$LTSCALE
 40
0.044000
  9
$PDMODE
 70
    35
  9
$PDSIZE
 40
0.035200
  0
ENDSEC
  0
SECTION
  2
TABLES
  0
TABLE
  2
LTYPE
 70
     9
  0
LTYPE
  2
CONTINUOUS
 70
    64
  3
Solid line
 72
    65
 73
     0
 40
0.000000
  0
LTYPE
  2
DASHED
 70
    64
  3
__ __ __ __ __ __ __ __ __ __ __ __ __ __ __
 72
    65
 73
     2
 40
0.000330
 49
0.000220
 49
-0.000110
  0
LTYPE
  2
HIDDEN
 70
    64
  3
 _ _ _ _ _ _ _ _ _ _ _ _ _ _ _ _ _ _ _ _ _ _
 72
    65
 73
     2
 40
0.000165
 49
0.000110
 49
-0.000055
  0
LTYPE
  2
CENTER
 70
    64
  3
____ _ ____ _ ____ _ ____ _ ____ _ ____ _ ____
 72
    65
 73
     4
 40
0.000880
 49
0.000550
 49
-0.000110
 49
0.000110
 49
-0.000110
  0
LTYPE
  2
PHANTOM
 70
    64
  3
_____ _ _ _____ _ _ _____ _ _ _____ _ _ ____
 72
    65
 73
     6
 40
0.001100
 49
0.000550
 49
-0.000110
 49
0.000110
 49
-0.000110
 49
0.000110
 49
-0.000110
  0
LTYPE
  2
DOT
 70
    64
  3
...............................................
 72
    65
 73
     2
 40
0.000110
 49
0.000000
 49
-0.000110
  0
LTYPE
  2
DASHDOT
 70
    64
  3
__ . __ . __ . __ . __ . __ . __ . __ . __ . __
 72
    65
 73
     4
 40
0.000440
 49
0.000220
 49
-0.000110
 49
0.000000
 49
-0.000110
  0
LTYPE
  2
BORDER
 70
    64
  3
__ __ . __ __ . __ __ . __ __ . __ __ . __ __
 72
    65
 73
     6
 40
0.000770
 49
0.000220
 49
-0.000110
 49
0.000220
 49
-0.000110
 49
0.000000
 49
-0.000110
  0
LTYPE
  2
DIVIDE
 70
    64
  3
__ . . __ . . __ . . __ . . __ . . __ . . __
 72
    65
 73
     6
 40
0.000550
 49
0.000220
 49
-0.000110
 49
0.000000
 49
-0.000110
 49
0.000000
 49
-0.000110
  0
LTYPE
  2
DOTDOT
 70
    64
  3
 . .  . .  . .  . .  . .  . . 
 72
    65
 73
     5
 40
0.000242
 49
-0.000110
 49
0.000000
 49
-0.000110
 49
0.000000
 49
-0.000110
  0
ENDTAB
  0
TABLE
  2
STYLE
 70
     2
  0
STYLE
 70
     0
  2
SN0
 40
0.000000
 41
0.000440
 50
0.000000
 71
     0
 42
0.000000
  3
ROMAND
  0
STYLE
 70
    68
  2
SV0
 40
0.000000
 41
0.000440
 50
0.000000
 71
     0
 42
0.000000
  3
ROMAND
  0
ENDTAB
  0
TABLE
  2
LAYER
 70
     3
  0
LAYER
  2
FOREGROUND
 70
    64
 62
     7
  6
CONTINUOUS
  0
LAYER
  2
BACKGROUND
 70
    65
 62
    -7
  6
CONTINUOUS
  0
LAYER
  2
0
 70
    64
 62
     7
  6
CONTINUOUS
  0
ENDTAB
  0
ENDSEC
  0
SECTION
  2
ENTITIES
  0
POLYLINE
  8
FOREGROUND
  6
CONTINUOUS
 66
     1
 40
0.000000
 41
0.000000
  0
VERTEX
  8
FOREGROUND
  6
CONTINUOUS
 10
0.000000
 20
4.110920
  0
VERTEX
  8
FOREGROUND
  6
CONTINUOUS
 10
8.499920
 20
4.110920
  0
VERTEX
  8
FOREGROUND
  6
CONTINUOUS
 10
8.499920
 20
-6.889080
  0
VERTEX
  8
FOREGROUND
  6
CONTINUOUS
 10
0.000000
 20
-6.889080
  0
VERTEX
  8
FOREGROUND
  6
CONTINUOUS
 10
0.000000
 20
4.110920
  0
SEQEND
  8
0
  0
POLYLINE
  8
FOREGROUND
  6
CONTINUOUS
 66
     1
 40
0.000000
 41
0.000000
  0
VERTEX
  8
FOREGROUND
  6
CONTINUOUS
 10
0.000000
 20
4.110920
  0
VERTEX
  8
FOREGROUND
  6
CONTINUOUS
 10
8.499920
 20
4.110920
  0
VERTEX
  8
FOREGROUND
  6
CONTINUOUS
 10
8.499920
 20
-6.889080
  0
VERTEX
  8
FOREGROUND
  6
CONTINUOUS
 10
0.000000
 20
-6.889080
  0
VERTEX
  8
FOREGROUND
  6
CONTINUOUS
 10
0.000000
 20
4.110920
  0
SEQEND
  8
0
  0
POLYLINE
  8
0
  6
CONTINUOUS
 66
     1
 40
0.014080
 41
0.014080
  0
VERTEX
  8
0
  6
CONTINUOUS
 10
5.694040
 20
3.662120
  0
VERTEX
  8
0
  6
CONTINUOUS
 10
5.734080
 20
3.661680
  0
VERTEX
  8
0
  6
CONTINUOUS
 10
5.798760
 20
3.653320
  0
VERTEX
  8
0
  6
CONTINUOUS
 10
5.868720
 20
3.634400
  0
VERTEX
  8
0
  6
CONTINUOUS
 10
5.998960
 20
3.592600
  0
VERTEX
  8
0
  6
CONTINUOUS
 10
6.222920
 20
3.513840
  0
VERTEX
  8
0
  6
CONTINUOUS
 10
6.560840
 20
3.387120
  0
VERTEX
  8
0
  6
CONTINUOUS
 10
6.642240
 20
3.353680
  0
VERTEX
  8
0
  6
CONTINUOUS
 10
6.714840
 20
3.320240
  0
VERTEX
  8
0
  6
CONTINUOUS
 10
6.778640
 20
3.286360
  0
VERTEX
  8
0
  6
CONTINUOUS
 10
6.833640
 20
3.252040
  0
VERTEX
  8
0
  6
CONTINUOUS
 10
6.881160
 20
3.217720
  0
VERTEX
  8
0
  6
CONTINUOUS
 10
6.920320
 20
3.182960
  0
VERTEX
  8
0
  6
CONTINUOUS
 10
6.952440
 20
3.147760
  0
VERTEX
  8
0
  6
CONTINUOUS
 10
6.969600
 20
3.124440
  0
VERTEX
  8
0
  6
CONTINUOUS
 10
6.984120
 20
3.101120
  0
VERTEX
  8
0
  6
CONTINUOUS
 10
6.999960
 20
3.065480
  0
VERTEX
  8
0
  6
CONTINUOUS
 10
7.009200
 20
3.030280
  0
VERTEX
  8
0
  6
CONTINUOUS
 10
7.010960
 20
3.018400
  0
VERTEX
  8
0
  6
CONTINUOUS
 10
7.012280
 20
2.994640
  0
VERTEX
  8
0
  6
CONTINUOUS
 10
7.011400
 20
2.970440
  0
VERTEX
  8
0
  6
CONTINUOUS
 10
7.007880
 20
2.946680
  0
VERTEX
  8
0
  6
CONTINUOUS
 10
7.002160
 20
2.922920
  0
VERTEX
  8
0
  6
CONTINUOUS
 10
6.993800
 20
2.898720
  0
VERTEX
  8
0
  6
CONTINUOUS
 10
6.970920
 20
2.850760
  0
VERTEX
  8
0
  6
CONTINUOUS
 10
6.940120
 20
2.802800
  0
VERTEX
  8
0
  6
CONTINUOUS
 10
6.901840
 20
2.754840
  0
VERTEX
  8
0
  6
CONTINUOUS
 10
6.856960
 20
2.706880
  0
VERTEX
  8
0
  6
CONTINUOUS
 10
6.806800
 20
2.658920
  0
VERTEX
  8
0
  6
CONTINUOUS
 10
6.727160
 20
2.588960
  0
VERTEX
  8
0
  6
CONTINUOUS
 10
6.660280
 20
2.523400
  0
VERTEX
  8
0
  6
CONTINUOUS
 10
6.622880
 20
2.481600
  0
VERTEX
  8
0
  6
CONTINUOUS
 10
6.591640
 20
2.441120
  0
VERTEX
  8
0
  6
CONTINUOUS
 10
6.566560
 20
2.401080
  0
VERTEX
  8
0
  6
CONTINUOUS
 10
6.556440
 20
2.381720
  0
VERTEX
  8
0
  6
CONTINUOUS
 10
6.541480
 20
2.342120
  0
VERTEX
  8
0
  6
CONTINUOUS
 10
6.536200
 20
2.322320
  0
VERTEX
  8
0
  6
CONTINUOUS
 10
6.532680
 20
2.302520
  0
VERTEX
  8
0
  6
CONTINUOUS
 10
6.530920
 20
2.282720
  0
VERTEX
  8
0
  6
CONTINUOUS
 10
6.530920
 20
2.262480
  0
VERTEX
  8
0
  6
CONTINUOUS
 10
6.535760
 20
2.221560
  0
VERTEX
  8
0
  6
CONTINUOUS
 10
6.547640
 20
2.179320
  0
VERTEX
  8
0
  6
CONTINUOUS
 10
6.567000
 20
2.135760
  0
VERTEX
  8
0
  6
CONTINUOUS
 10
6.593400
 20
2.090000
  0
VERTEX
  8
0
  6
CONTINUOUS
 10
6.626840
 20
2.042040
  0
VERTEX
  8
0
  6
CONTINUOUS
 10
6.668200
 20
1.991000
  0
VERTEX
  8
0
  6
CONTINUOUS
 10
6.717040
 20
1.937320
  0
VERTEX
  8
0
  6
CONTINUOUS
 10
6.731560
 20
1.762200
  0
VERTEX
  8
0
  6
CONTINUOUS
 10
6.759280
 20
1.734920
  0
VERTEX
  8
0
  6
CONTINUOUS
 10
6.786120
 20
1.698840
  0
VERTEX
  8
0
  6
CONTINUOUS
 10
6.805480
 20
1.665840
  0
VERTEX
  8
0
  6
CONTINUOUS
 10
6.822640
 20
1.627560
  0
VERTEX
  8
0
  6
CONTINUOUS
 10
6.836280
 20
1.584880
  0
VERTEX
  8
0
  6
CONTINUOUS
 10
6.842440
 20
1.554080
  0
VERTEX
  8
0
  6
CONTINUOUS
 10
6.846400
 20
1.521520
  0
VERTEX
  8
0
  6
CONTINUOUS
 10
6.846840
 20
1.487640
  0
VERTEX
  8
0
  6
CONTINUOUS
 10
6.844200
 20
1.452000
  0
VERTEX
  8
0
  6
CONTINUOUS
 10
6.838040
 20
1.415480
  0
VERTEX
  8
0
  6
CONTINUOUS
 10
6.827040
 20
1.377640
  0
VERTEX
  8
0
  6
CONTINUOUS
 10
6.812080
 20
1.338480
  0
VERTEX
  8
0
  6
CONTINUOUS
 10
6.802400
 20
1.318680
  0
VERTEX
  8
0
  6
CONTINUOUS
 10
6.790080
 20
1.301960
  0
VERTEX
  8
0
  6
CONTINUOUS
 10
4.577760
 20
1.301960
  0
VERTEX
  8
0
  6
CONTINUOUS
 10
4.565000
 20
1.318680
  0
VERTEX
  8
0
  6
CONTINUOUS
 10
4.547400
 20
1.358280
  0
VERTEX
  8
0
  6
CONTINUOUS
 10
4.534200
 20
1.396560
  0
VERTEX
  8
0
  6
CONTINUOUS
 10
4.525840
 20
1.433960
  0
VERTEX
  8
0
  6
CONTINUOUS
 10
4.521440
 20
1.470040
  0
VERTEX
  8
0
  6
CONTINUOUS
 10
4.520560
 20
1.504800
  0
VERTEX
  8
0
  6
CONTINUOUS
 10
4.522760
 20
1.537800
  0
VERTEX
  8
0
  6
CONTINUOUS
 10
4.527600
 20
1.569480
  0
VERTEX
  8
0
  6
CONTINUOUS
 10
4.539920
 20
1.613920
  0
VERTEX
  8
0
  6
CONTINUOUS
 10
4.555760
 20
1.653520
  0
VERTEX
  8
0
  6
CONTINUOUS
 10
4.568080
 20
1.677280
  0
VERTEX
  8
0
  6
CONTINUOUS
 10
4.594920
 20
1.718200
  0
VERTEX
  8
0
  6
CONTINUOUS
 10
4.621320
 20
1.749000
  0
VERTEX
  8
0
  6
CONTINUOUS
 10
4.635840
 20
1.762200
  0
VERTEX
  8
0
  6
CONTINUOUS
 10
4.650360
 20
1.937320
  0
VERTEX
  8
0
  6
CONTINUOUS
 10
4.699200
 20
1.991000
  0
VERTEX
  8
0
  6
CONTINUOUS
 10
4.740560
 20
2.042040
  0
VERTEX
  8
0
  6
CONTINUOUS
 10
4.774000
 20
2.090000
  0
VERTEX
  8
0
  6
CONTINUOUS
 10
4.800400
 20
2.135760
  0
VERTEX
  8
0
  6
CONTINUOUS
 10
4.819760
 20
2.179320
  0
VERTEX
  8
0
  6
CONTINUOUS
 10
4.831640
 20
2.221560
  0
VERTEX
  8
0
  6
CONTINUOUS
 10
4.835160
 20
2.242240
  0
VERTEX
  8
0
  6
CONTINUOUS
 10
4.836480
 20
2.282720
  0
VERTEX
  8
0
  6
CONTINUOUS
 10
4.834720
 20
2.302520
  0
VERTEX
  8
0
  6
CONTINUOUS
 10
4.826360
 20
2.342120
  0
VERTEX
  8
0
  6
CONTINUOUS
 10
4.810960
 20
2.381720
  0
VERTEX
  8
0
  6
CONTINUOUS
 10
4.789400
 20
2.421320
  0
VERTEX
  8
0
  6
CONTINUOUS
 10
4.761240
 20
2.461360
  0
VERTEX
  8
0
  6
CONTINUOUS
 10
4.726920
 20
2.502280
  0
VERTEX
  8
0
  6
CONTINUOUS
 10
4.686440
 20
2.544960
  0
VERTEX
  8
0
  6
CONTINUOUS
 10
4.614720
 20
2.611840
  0
VERTEX
  8
0
  6
CONTINUOUS
 10
4.560600
 20
2.658920
  0
VERTEX
  8
0
  6
CONTINUOUS
 10
4.487120
 20
2.730640
  0
VERTEX
  8
0
  6
CONTINUOUS
 10
4.445760
 20
2.779040
  0
VERTEX
  8
0
  6
CONTINUOUS
 10
4.411000
 20
2.827000
  0
VERTEX
  8
0
  6
CONTINUOUS
 10
4.396480
 20
2.850760
  0
VERTEX
  8
0
  6
CONTINUOUS
 10
4.384160
 20
2.874960
  0
VERTEX
  8
0
  6
CONTINUOUS
 10
4.374040
 20
2.898720
  0
VERTEX
  8
0
  6
CONTINUOUS
 10
4.365680
 20
2.922920
  0
VERTEX
  8
0
  6
CONTINUOUS
 10
4.359520
 20
2.946680
  0
VERTEX
  8
0
  6
CONTINUOUS
 10
4.356000
 20
2.970440
  0
VERTEX
  8
0
  6
CONTINUOUS
 10
4.355120
 20
2.994640
  0
VERTEX
  8
0
  6
CONTINUOUS
 10
4.358200
 20
3.030280
  0
VERTEX
  8
0
  6
CONTINUOUS
 10
4.367880
 20
3.065480
  0
VERTEX
  8
0
  6
CONTINUOUS
 10
4.383720
 20
3.101120
  0
VERTEX
  8
0
  6
CONTINUOUS
 10
4.406160
 20
3.136320
  0
VERTEX
  8
0
  6
CONTINUOUS
 10
4.435640
 20
3.171080
  0
VERTEX
  8
0
  6
CONTINUOUS
 10
4.472600
 20
3.206280
  0
VERTEX
  8
0
  6
CONTINUOUS
 10
4.517040
 20
3.240600
  0
VERTEX
  8
0
  6
CONTINUOUS
 10
4.569400
 20
3.274920
  0
VERTEX
  8
0
  6
CONTINUOUS
 10
4.630560
 20
3.308800
  0
VERTEX
  8
0
  6
CONTINUOUS
 10
4.700080
 20
3.342680
  0
VERTEX
  8
0
  6
CONTINUOUS
 10
4.778400
 20
3.376120
  0
VERTEX
  8
0
  6
CONTINUOUS
 10
5.082440
 20
3.490960
  0
VERTEX
  8
0
  6
CONTINUOUS
 10
5.315200
 20
3.574560
  0
VERTEX
  8
0
  6
CONTINUOUS
 10
5.485040
 20
3.630440
  0
VERTEX
  8
0
  6
CONTINUOUS
 10
5.563360
 20
3.652000
  0
VERTEX
  8
0
  6
CONTINUOUS
 10
5.597680
 20
3.657720
  0
VERTEX
  8
0
  6
CONTINUOUS
 10
5.633320
 20
3.661680
  0
VERTEX
  8
0
  6
CONTINUOUS
 10
5.694040
 20
3.662120
  0
SEQEND
  8
0
  0
SOLID
  8
0
 62
    15
 10
2.792680
 20
1.822040
 11
3.413960
 21
2.168760
 12
2.823920
 22
1.736240
 13
3.444760
 23
2.082960
  0
POLYLINE
  8
0
  6
CONTINUOUS
 66
     1
 40
0.000000
 41
0.000000
  0
VERTEX
  8
0
  6
CONTINUOUS
 10
2.792680
 20
1.822040
  0
VERTEX
  8
0
  6
CONTINUOUS
 10
3.413960
 20
2.168760
  0
VERTEX
  8
0
  6
CONTINUOUS
 10
3.444760
 20
2.082960
  0
VERTEX
  8
0
  6
CONTINUOUS
 10
2.823920
 20
1.736240
  0
VERTEX
  8
0
  6
CONTINUOUS
 10
2.792680
 20
1.822040
  0
SEQEND
  8
0
  0
SOLID
  8
0
 62
    15
 10
2.026640
 20
3.258200
 11
2.647480
 21
3.604920
 12
2.051720
 22
3.254240
 13
2.673000
 23
3.600960
  0
POLYLINE
  8
0
  6
CONTINUOUS
 66
     1
 40
0.000000
 41
0.000000
  0
VERTEX
  8
0
  6
CONTINUOUS
 10
2.026640
 20
3.258200
  0
VERTEX
  8
0
  6
CONTINUOUS
 10
2.647480
 20
3.604920
  0
VERTEX
  8
0
  6
CONTINUOUS
 10
2.673000
 20
3.600960
  0
VERTEX
  8
0
  6
CONTINUOUS
 10
2.051720
 20
3.254240
  0
VERTEX
  8
0
  6
CONTINUOUS
 10
2.026640
 20
3.258200
  0
SEQEND
  8
0
  0
SOLID
  8
0
 62
    15
 10
2.051720
 20
3.254240
 11
2.673000
 21
3.600960
 12
2.061400
 22
3.252480
 13
2.682680
 23
3.599200
  0
POLYLINE
  8
0
  6
CONTINUOUS
 66
     1
 40
0.000000
 41
0.000000
  0
VERTEX
  8
0
  6
CONTINUOUS
 10
2.051720
 20
3.254240
  0
VERTEX
  8
0
  6
CONTINUOUS
 10
2.673000
 20
3.600960
  0
VERTEX
  8
0
  6
CONTINUOUS
 10
2.682680
 20
3.599200
  0
VERTEX
  8
0
  6
CONTINUOUS
 10
2.061400
 20
3.252480
  0
VERTEX
  8
0
  6
CONTINUOUS
 10
2.051720
 20
3.254240
  0
SEQEND
  8
0
  0
SOLID
  8
0
 62
    15
 10
2.061400
 20
3.252480
 11
2.682680
 21
3.599200
 12
2.068880
 22
3.250720
 13
2.689720
 23
3.597440
  0
POLYLINE
  8
0
  6
CONTINUOUS
 66
     1
 40
0.000000
 41
0.000000
  0
VERTEX
  8
0
  6
CONTINUOUS
 10
2.061400
 20
3.252480
  0
VERTEX
  8
0
  6
CONTINUOUS
 10
2.682680
 20
3.599200
  0
VERTEX
  8
0
  6
CONTINUOUS
 10
2.689720
 20
3.597440
  0
VERTEX
  8
0
  6
CONTINUOUS
 10
2.068880
 20
3.250720
  0
VERTEX
  8
0
  6
CONTINUOUS
 10
2.061400
 20
3.252480
  0
SEQEND
  8
0
  0
SOLID
  8
0
 62
    15
 10
2.068880
 20
3.250720
 11
2.689720
 21
3.597440
 12
2.093520
 22
3.244120
 13
2.714800
 23
3.590840
  0
POLYLINE
  8
0
  6
CONTINUOUS
 66
     1
 40
0.000000
 41
0.000000
  0
VERTEX
  8
0
  6
CONTINUOUS
 10
2.068880
 20
3.250720
  0
VERTEX
  8
0
  6
CONTINUOUS
 10
2.689720
 20
3.597440
  0
VERTEX
  8
0
  6
CONTINUOUS
 10
2.714800
 20
3.590840
  0
VERTEX
  8
0
  6
CONTINUOUS
 10
2.093520
 20
3.244120
  0
VERTEX
  8
0
  6
CONTINUOUS
 10
2.068880
 20
3.250720
  0
SEQEND
  8
0
  0
SOLID
  8
0
 62
    15
 10
2.093520
 20
3.244120
 11
2.714800
 21
3.590840
 12
2.139280
 22
3.230920
 13
2.760560
 23
3.577200
  0
POLYLINE
  8
0
  6
CONTINUOUS
 66
     1
 40
0.000000
 41
0.000000
  0
VERTEX
  8
0
  6
CONTINUOUS
 10
2.093520
 20
3.244120
  0
VERTEX
  8
0
  6
CONTINUOUS
 10
2.714800
 20
3.590840
  0
VERTEX
  8
0
  6
CONTINUOUS
 10
2.760560
 20
3.577200
  0
VERTEX
  8
0
  6
CONTINUOUS
 10
2.139280
 20
3.230920
  0
VERTEX
  8
0
  6
CONTINUOUS
 10
2.093520
 20
3.244120
  0
SEQEND
  8
0
  0
SOLID
  8
0
 62
    15
 10
2.139280
 20
3.230920
 11
2.760560
 21
3.577200
 12
2.209680
 22
3.208480
 13
2.830960
 23
3.555200
  0
POLYLINE
  8
0
  6
CONTINUOUS
 66
     1
 40
0.000000
 41
0.000000
  0
VERTEX
  8
0
  6
CONTINUOUS
 10
2.139280
 20
3.230920
  0
VERTEX
  8
0
  6
CONTINUOUS
 10
2.760560
 20
3.577200
  0
VERTEX
  8
0
  6
CONTINUOUS
 10
2.830960
 20
3.555200
  0
VERTEX
  8
0
  6
CONTINUOUS
 10
2.209680
 20
3.208480
  0
VERTEX
  8
0
  6
CONTINUOUS
 10
2.139280
 20
3.230920
  0
SEQEND
  8
0
  0
SOLID
  8
0
 62
    15
 10
2.209680
 20
3.208480
 11
2.830960
 21
3.555200
 12
2.309120
 22
3.175040
 13
2.930400
 23
3.521760
  0
POLYLINE
  8
0
  6
CONTINUOUS
 66
     1
 40
0.000000
 41
0.000000
  0
VERTEX
  8
0
  6
CONTINUOUS
 10
2.209680
 20
3.208480
  0
VERTEX
  8
0
  6
CONTINUOUS
 10
2.830960
 20
3.555200
  0
VERTEX
  8
0
  6
CONTINUOUS
 10
2.930400
 20
3.521760
  0
VERTEX
  8
0
  6
CONTINUOUS
 10
2.309120
 20
3.175040
  0
VERTEX
  8
0
  6
CONTINUOUS
 10
2.209680
 20
3.208480
  0
SEQEND
  8
0
  0
SOLID
  8
0
 62
    15
 10
2.309120
 20
3.175040
 11
2.930400
 21
3.521760
 12
2.441120
 22
3.128400
 13
3.062400
 23
3.475120
  0
POLYLINE
  8
0
  6
CONTINUOUS
 66
     1
 40
0.000000
 41
0.000000
  0
VERTEX
  8
0
  6
CONTINUOUS
 10
2.309120
 20
3.175040
  0
VERTEX
  8
0
  6
CONTINUOUS
 10
2.930400
 20
3.521760
  0
VERTEX
  8
0
  6
CONTINUOUS
 10
3.062400
 20
3.475120
  0
VERTEX
  8
0
  6
CONTINUOUS
 10
2.441120
 20
3.128400
  0
VERTEX
  8
0
  6
CONTINUOUS
 10
2.309120
 20
3.175040
  0
SEQEND
  8
0
  0
SOLID
  8
0
 62
    15
 10
2.441120
 20
3.128400
 11
3.062400
 21
3.475120
 12
2.609200
 22
3.066800
 13
3.230480
 23
3.413520
  0
POLYLINE
  8
0
  6
CONTINUOUS
 66
     1
 40
0.000000
 41
0.000000
  0
VERTEX
  8
0
  6
CONTINUOUS
 10
2.441120
 20
3.128400
  0
VERTEX
  8
0
  6
CONTINUOUS
 10
3.062400
 20
3.475120
  0
VERTEX
  8
0
  6
CONTINUOUS
 10
3.230480
 20
3.413520
  0
VERTEX
  8
0
  6
CONTINUOUS
 10
2.609200
 20
3.066800
  0
VERTEX
  8
0
  6
CONTINUOUS
 10
2.441120
 20
3.128400
  0
SEQEND
  8
0
  0
SOLID
  8
0
 62
    15
 10
2.609200
 20
3.066800
 11
3.230480
 21
3.413520
 12
2.708200
 22
3.029400
 13
3.329480
 23
3.376120
  0
POLYLINE
  8
0
  6
CONTINUOUS
 66
     1
 40
0.000000
 41
0.000000
  0
VERTEX
  8
0
  6
CONTINUOUS
 10
2.609200
 20
3.066800
  0
VERTEX
  8
0
  6
CONTINUOUS
 10
3.230480
 20
3.413520
  0
VERTEX
  8
0
  6
CONTINUOUS
 10
3.329480
 20
3.376120
  0
VERTEX
  8
0
  6
CONTINUOUS
 10
2.708200
 20
3.029400
  0
VERTEX
  8
0
  6
CONTINUOUS
 10
2.609200
 20
3.066800
  0
SEQEND
  8
0
  0
SOLID
  8
0
 62
    15
 10
2.708200
 20
3.029400
 11
3.329480
 21
3.376120
 12
2.817760
 22
2.987600
 13
3.438600
 23
3.334320
  0
POLYLINE
  8
0
  6
CONTINUOUS
 66
     1
 40
0.000000
 41
0.000000
  0
VERTEX
  8
0
  6
CONTINUOUS
 10
2.708200
 20
3.029400
  0
VERTEX
  8
0
  6
CONTINUOUS
 10
3.329480
 20
3.376120
  0
VERTEX
  8
0
  6
CONTINUOUS
 10
3.438600
 20
3.334320
  0
VERTEX
  8
0
  6
CONTINUOUS
 10
2.817760
 20
2.987600
  0
VERTEX
  8
0
  6
CONTINUOUS
 10
2.708200
 20
3.029400
  0
SEQEND
  8
0
  0
SOLID
  8
0
 62
    15
 10
2.817760
 20
2.987600
 11
3.438600
 21
3.334320
 12
2.924240
 22
2.943600
 13
3.545520
 23
3.289880
  0
POLYLINE
  8
0
  6
CONTINUOUS
 66
     1
 40
0.000000
 41
0.000000
  0
VERTEX
  8
0
  6
CONTINUOUS
 10
2.817760
 20
2.987600
  0
VERTEX
  8
0
  6
CONTINUOUS
 10
3.438600
 20
3.334320
  0
VERTEX
  8
0
  6
CONTINUOUS
 10
3.545520
 20
3.289880
  0
VERTEX
  8
0
  6
CONTINUOUS
 10
2.924240
 20
2.943600
  0
VERTEX
  8
0
  6
CONTINUOUS
 10
2.817760
 20
2.987600
  0
SEQEND
  8
0
  0
SOLID
  8
0
 62
    15
 10
2.924240
 20
2.943600
 11
3.545520
 21
3.289880
 12
3.014880
 22
2.898280
 13
3.636160
 23
3.245000
  0
POLYLINE
  8
0
  6
CONTINUOUS
 66
     1
 40
0.000000
 41
0.000000
  0
VERTEX
  8
0
  6
CONTINUOUS
 10
2.924240
 20
2.943600
  0
VERTEX
  8
0
  6
CONTINUOUS
 10
3.545520
 20
3.289880
  0
VERTEX
  8
0
  6
CONTINUOUS
 10
3.636160
 20
3.245000
  0
VERTEX
  8
0
  6
CONTINUOUS
 10
3.014880
 20
2.898280
  0
VERTEX
  8
0
  6
CONTINUOUS
 10
2.924240
 20
2.943600
  0
SEQEND
  8
0
  0
SOLID
  8
0
 62
    15
 10
3.014880
 20
2.898280
 11
3.636160
 21
3.245000
 12
3.090560
 22
2.852960
 13
3.711840
 23
3.199680
  0
POLYLINE
  8
0
  6
CONTINUOUS
 66
     1
 40
0.000000
 41
0.000000
  0
VERTEX
  8
0
  6
CONTINUOUS
 10
3.014880
 20
2.898280
  0
VERTEX
  8
0
  6
CONTINUOUS
 10
3.636160
 20
3.245000
  0
VERTEX
  8
0
  6
CONTINUOUS
 10
3.711840
 20
3.199680
  0
VERTEX
  8
0
  6
CONTINUOUS
 10
3.090560
 20
2.852960
  0
VERTEX
  8
0
  6
CONTINUOUS
 10
3.014880
 20
2.898280
  0
SEQEND
  8
0
  0
SOLID
  8
0
 62
    15
 10
3.090560
 20
2.852960
 11
3.711840
 21
3.199680
 12
3.151720
 22
2.806760
 13
3.773000
 23
3.153480
  0
POLYLINE
  8
0
  6
CONTINUOUS
 66
     1
 40
0.000000
 41
0.000000
  0
VERTEX
  8
0
  6
CONTINUOUS
 10
3.090560
 20
2.852960
  0
VERTEX
  8
0
  6
CONTINUOUS
 10
3.711840
 20
3.199680
  0
VERTEX
  8
0
  6
CONTINUOUS
 10
3.773000
 20
3.153480
  0
VERTEX
  8
0
  6
CONTINUOUS
 10
3.151720
 20
2.806760
  0
VERTEX
  8
0
  6
CONTINUOUS
 10
3.090560
 20
2.852960
  0
SEQEND
  8
0
  0
SOLID
  8
0
 62
    15
 10
3.151720
 20
2.806760
 11
3.773000
 21
3.153480
 12
3.199240
 22
2.760120
 13
3.820520
 23
3.106840
  0
POLYLINE
  8
0
  6
CONTINUOUS
 66
     1
 40
0.000000
 41
0.000000
  0
VERTEX
  8
0
  6
CONTINUOUS
 10
3.151720
 20
2.806760
  0
VERTEX
  8
0
  6
CONTINUOUS
 10
3.773000
 20
3.153480
  0
VERTEX
  8
0
  6
CONTINUOUS
 10
3.820520
 20
3.106840
  0
VERTEX
  8
0
  6
CONTINUOUS
 10
3.199240
 20
2.760120
  0
VERTEX
  8
0
  6
CONTINUOUS
 10
3.151720
 20
2.806760
  0
SEQEND
  8
0
  0
SOLID
  8
0
 62
    15
 10
3.199240
 20
2.760120
 11
3.820520
 21
3.106840
 12
3.234000
 22
2.713480
 13
3.855280
 23
3.060200
  0
POLYLINE
  8
0
  6
CONTINUOUS
 66
     1
 40
0.000000
 41
0.000000
  0
VERTEX
  8
0
  6
CONTINUOUS
 10
3.199240
 20
2.760120
  0
VERTEX
  8
0
  6
CONTINUOUS
 10
3.820520
 20
3.106840
  0
VERTEX
  8
0
  6
CONTINUOUS
 10
3.855280
 20
3.060200
  0
VERTEX
  8
0
  6
CONTINUOUS
 10
3.234000
 20
2.713480
  0
VERTEX
  8
0
  6
CONTINUOUS
 10
3.199240
 20
2.760120
  0
SEQEND
  8
0
  0
SOLID
  8
0
 62
    15
 10
3.234000
 20
2.713480
 11
3.855280
 21
3.060200
 12
3.267880
 22
2.618880
 13
3.888720
 23
2.965600
  0
POLYLINE
  8
0
  6
CONTINUOUS
 66
     1
 40
0.000000
 41
0.000000
  0
VERTEX
  8
0
  6
CONTINUOUS
 10
3.234000
 20
2.713480
  0
VERTEX
  8
0
  6
CONTINUOUS
 10
3.855280
 20
3.060200
  0
VERTEX
  8
0
  6
CONTINUOUS
 10
3.888720
 20
2.965600
  0
VERTEX
  8
0
  6
CONTINUOUS
 10
3.267880
 20
2.618880
  0
VERTEX
  8
0
  6
CONTINUOUS
 10
3.234000
 20
2.713480
  0
SEQEND
  8
0
  0
SOLID
  8
0
 62
    15
 10
3.267880
 20
2.618880
 11
3.888720
 21
2.965600
 12
3.258640
 22
2.523400
 13
3.879920
 23
2.870120
  0
POLYLINE
  8
0
  6
CONTINUOUS
 66
     1
 40
0.000000
 41
0.000000
  0
VERTEX
  8
0
  6
CONTINUOUS
 10
3.267880
 20
2.618880
  0
VERTEX
  8
0
  6
CONTINUOUS
 10
3.888720
 20
2.965600
  0
VERTEX
  8
0
  6
CONTINUOUS
 10
3.879920
 20
2.870120
  0
VERTEX
  8
0
  6
CONTINUOUS
 10
3.258640
 20
2.523400
  0
VERTEX
  8
0
  6
CONTINUOUS
 10
3.267880
 20
2.618880
  0
SEQEND
  8
0
  0
SOLID
  8
0
 62
    15
 10
3.258640
 20
2.523400
 11
3.879920
 21
2.870120
 12
3.213320
 22
2.427480
 13
3.834160
 23
2.774200
  0
POLYLINE
  8
0
  6
CONTINUOUS
 66
     1
 40
0.000000
 41
0.000000
  0
VERTEX
  8
0
  6
CONTINUOUS
 10
3.258640
 20
2.523400
  0
VERTEX
  8
0
  6
CONTINUOUS
 10
3.879920
 20
2.870120
  0
VERTEX
  8
0
  6
CONTINUOUS
 10
3.834160
 20
2.774200
  0
VERTEX
  8
0
  6
CONTINUOUS
 10
3.213320
 20
2.427480
  0
VERTEX
  8
0
  6
CONTINUOUS
 10
3.258640
 20
2.523400
  0
SEQEND
  8
0
  0
SOLID
  8
0
 62
    15
 10
3.213320
 20
2.427480
 11
3.834160
 21
2.774200
 12
3.137200
 22
2.331560
 13
3.758040
 23
2.677840
  0
POLYLINE
  8
0
  6
CONTINUOUS
 66
     1
 40
0.000000
 41
0.000000
  0
VERTEX
  8
0
  6
CONTINUOUS
 10
3.213320
 20
2.427480
  0
VERTEX
  8
0
  6
CONTINUOUS
 10
3.834160
 20
2.774200
  0
VERTEX
  8
0
  6
CONTINUOUS
 10
3.758040
 20
2.677840
  0
VERTEX
  8
0
  6
CONTINUOUS
 10
3.137200
 20
2.331560
  0
VERTEX
  8
0
  6
CONTINUOUS
 10
3.213320
 20
2.427480
  0
SEQEND
  8
0
  0
SOLID
  8
0
 62
    15
 10
3.137200
 20
2.331560
 11
3.758040
 21
2.677840
 12
3.036440
 22
2.235640
 13
3.657720
 23
2.582360
  0
POLYLINE
  8
0
  6
CONTINUOUS
 66
     1
 40
0.000000
 41
0.000000
  0
VERTEX
  8
0
  6
CONTINUOUS
 10
3.137200
 20
2.331560
  0
VERTEX
  8
0
  6
CONTINUOUS
 10
3.758040
 20
2.677840
  0
VERTEX
  8
0
  6
CONTINUOUS
 10
3.657720
 20
2.582360
  0
VERTEX
  8
0
  6
CONTINUOUS
 10
3.036440
 20
2.235640
  0
VERTEX
  8
0
  6
CONTINUOUS
 10
3.137200
 20
2.331560
  0
SEQEND
  8
0
  0
SOLID
  8
0
 62
    15
 10
3.036440
 20
2.235640
 11
3.657720
 21
2.582360
 12
2.937880
 22
2.145440
 13
3.559160
 23
2.492160
  0
POLYLINE
  8
0
  6
CONTINUOUS
 66
     1
 40
0.000000
 41
0.000000
  0
VERTEX
  8
0
  6
CONTINUOUS
 10
3.036440
 20
2.235640
  0
VERTEX
  8
0
  6
CONTINUOUS
 10
3.657720
 20
2.582360
  0
VERTEX
  8
0
  6
CONTINUOUS
 10
3.559160
 20
2.492160
  0
VERTEX
  8
0
  6
CONTINUOUS
 10
2.937880
 20
2.145440
  0
VERTEX
  8
0
  6
CONTINUOUS
 10
3.036440
 20
2.235640
  0
SEQEND
  8
0
  0
SOLID
  8
0
 62
    15
 10
2.937880
 20
2.145440
 11
3.559160
 21
2.492160
 12
2.863080
 22
2.061840
 13
3.484360
 23
2.408560
  0
POLYLINE
  8
0
  6
CONTINUOUS
 66
     1
 40
0.000000
 41
0.000000
  0
VERTEX
  8
0
  6
CONTINUOUS
 10
2.937880
 20
2.145440
  0
VERTEX
  8
0
  6
CONTINUOUS
 10
3.559160
 20
2.492160
  0
VERTEX
  8
0
  6
CONTINUOUS
 10
3.484360
 20
2.408560
  0
VERTEX
  8
0
  6
CONTINUOUS
 10
2.863080
 20
2.061840
  0
VERTEX
  8
0
  6
CONTINUOUS
 10
2.937880
 20
2.145440
  0
SEQEND
  8
0
  0
SOLID
  8
0
 62
    15
 10
2.863080
 20
2.061840
 11
3.484360
 21
2.408560
 12
2.813360
 22
1.982200
 13
3.434640
 23
2.328920
  0
POLYLINE
  8
0
  6
CONTINUOUS
 66
     1
 40
0.000000
 41
0.000000
  0
VERTEX
  8
0
  6
CONTINUOUS
 10
2.863080
 20
2.061840
  0
VERTEX
  8
0
  6
CONTINUOUS
 10
3.484360
 20
2.408560
  0
VERTEX
  8
0
  6
CONTINUOUS
 10
3.434640
 20
2.328920
  0
VERTEX
  8
0
  6
CONTINUOUS
 10
2.813360
 20
1.982200
  0
VERTEX
  8
0
  6
CONTINUOUS
 10
2.863080
 20
2.061840
  0
SEQEND
  8
0
  0
SOLID
  8
0
 62
    15
 10
2.813360
 20
1.982200
 11
3.434640
 21
2.328920
 12
2.789600
 22
1.903000
 13
3.410880
 23
2.249720
  0
POLYLINE
  8
0
  6
CONTINUOUS
 66
     1
 40
0.000000
 41
0.000000
  0
VERTEX
  8
0
  6
CONTINUOUS
 10
2.813360
 20
1.982200
  0
VERTEX
  8
0
  6
CONTINUOUS
 10
3.434640
 20
2.328920
  0
VERTEX
  8
0
  6
CONTINUOUS
 10
3.410880
 20
2.249720
  0
VERTEX
  8
0
  6
CONTINUOUS
 10
2.789600
 20
1.903000
  0
VERTEX
  8
0
  6
CONTINUOUS
 10
2.813360
 20
1.982200
  0
SEQEND
  8
0
  0
SOLID
  8
0
 62
    15
 10
2.789600
 20
1.903000
 11
3.410880
 21
2.249720
 12
2.792680
 22
1.822040
 13
3.413960
 23
2.168760
  0
POLYLINE
  8
0
  6
CONTINUOUS
 66
     1
 40
0.000000
 41
0.000000
  0
VERTEX
  8
0
  6
CONTINUOUS
 10
2.789600
 20
1.903000
  0
VERTEX
  8
0
  6
CONTINUOUS
 10
3.410880
 20
2.249720
  0
VERTEX
  8
0
  6
CONTINUOUS
 10
3.413960
 20
2.168760
  0
VERTEX
  8
0
  6
CONTINUOUS
 10
2.792680
 20
1.822040
  0
VERTEX
  8
0
  6
CONTINUOUS
 10
2.789600
 20
1.903000
  0
SEQEND
  8
0
  0
SOLID
  8
0
 62
    15
 10
1.950960
 20
3.262600
 11
2.572240
 21
3.609320
 12
2.026640
 22
3.258200
 13
2.647480
 23
3.604920
  0
POLYLINE
  8
0
  6
CONTINUOUS
 66
     1
 40
0.000000
 41
0.000000
  0
VERTEX
  8
0
  6
CONTINUOUS
 10
1.950960
 20
3.262600
  0
VERTEX
  8
0
  6
CONTINUOUS
 10
2.572240
 20
3.609320
  0
VERTEX
  8
0
  6
CONTINUOUS
 10
2.647480
 20
3.604920
  0
VERTEX
  8
0
  6
CONTINUOUS
 10
2.026640
 20
3.258200
  0
VERTEX
  8
0
  6
CONTINUOUS
 10
1.950960
 20
3.262600
  0
SEQEND
  8
0
  0
SOLID
  8
0
 62
    15
 10
2.823920
 20
1.736240
 11
3.444760
 21
2.082960
 12
2.883760
 22
1.642520
 13
3.505040
 23
1.989240
  0
POLYLINE
  8
0
  6
CONTINUOUS
 66
     1
 40
0.000000
 41
0.000000
  0
VERTEX
  8
0
  6
CONTINUOUS
 10
2.823920
 20
1.736240
  0
VERTEX
  8
0
  6
CONTINUOUS
 10
3.444760
 20
2.082960
  0
VERTEX
  8
0
  6
CONTINUOUS
 10
3.505040
 20
1.989240
  0
VERTEX
  8
0
  6
CONTINUOUS
 10
2.883760
 20
1.642520
  0
VERTEX
  8
0
  6
CONTINUOUS
 10
2.823920
 20
1.736240
  0
SEQEND
  8
0
  0
SOLID
  8
0
 62
    15
 10
2.883760
 20
1.642520
 11
3.505040
 21
1.989240
 12
2.973960
 22
1.537800
 13
3.595240
 23
1.884520
  0
POLYLINE
  8
0
  6
CONTINUOUS
 66
     1
 40
0.000000
 41
0.000000
  0
VERTEX
  8
0
  6
CONTINUOUS
 10
2.883760
 20
1.642520
  0
VERTEX
  8
0
  6
CONTINUOUS
 10
3.505040
 20
1.989240
  0
VERTEX
  8
0
  6
CONTINUOUS
 10
3.595240
 20
1.884520
  0
VERTEX
  8
0
  6
CONTINUOUS
 10
2.973960
 20
1.537800
  0
VERTEX
  8
0
  6
CONTINUOUS
 10
2.883760
 20
1.642520
  0
SEQEND
  8
0
  0
SOLID
  8
0
 62
    15
 10
2.973960
 20
1.537800
 11
3.595240
 21
1.884520
 12
2.973960
 22
1.535600
 13
3.595240
 23
1.882320
  0
POLYLINE
  8
0
  6
CONTINUOUS
 66
     1
 40
0.000000
 41
0.000000
  0
VERTEX
  8
0
  6
CONTINUOUS
 10
2.973960
 20
1.537800
  0
VERTEX
  8
0
  6
CONTINUOUS
 10
3.595240
 20
1.884520
  0
VERTEX
  8
0
  6
CONTINUOUS
 10
3.595240
 20
1.882320
  0
VERTEX
  8
0
  6
CONTINUOUS
 10
2.973960
 20
1.535600
  0
VERTEX
  8
0
  6
CONTINUOUS
 10
2.973960
 20
1.537800
  0
SEQEND
  8
0
  0
SOLID
  8
0
 62
    15
 10
2.973960
 20
1.535600
 11
3.595240
 21
1.882320
 12
2.988480
 22
1.362680
 13
3.609760
 23
1.709400
  0
POLYLINE
  8
0
  6
CONTINUOUS
 66
     1
 40
0.000000
 41
0.000000
  0
VERTEX
  8
0
  6
CONTINUOUS
 10
2.973960
 20
1.535600
  0
VERTEX
  8
0
  6
CONTINUOUS
 10
3.595240
 20
1.882320
  0
VERTEX
  8
0
  6
CONTINUOUS
 10
3.609760
 20
1.709400
  0
VERTEX
  8
0
  6
CONTINUOUS
 10
2.988480
 20
1.362680
  0
VERTEX
  8
0
  6
CONTINUOUS
 10
2.973960
 20
1.535600
  0
SEQEND
  8
0
  0
SOLID
  8
0
 62
    15
 10
2.988480
 20
1.362680
 11
3.609760
 21
1.709400
 12
2.990680
 22
1.360480
 13
3.611520
 23
1.707200
  0
POLYLINE
  8
0
  6
CONTINUOUS
 66
     1
 40
0.000000
 41
0.000000
  0
VERTEX
  8
0
  6
CONTINUOUS
 10
2.988480
 20
1.362680
  0
VERTEX
  8
0
  6
CONTINUOUS
 10
3.609760
 20
1.709400
  0
VERTEX
  8
0
  6
CONTINUOUS
 10
3.611520
 20
1.707200
  0
VERTEX
  8
0
  6
CONTINUOUS
 10
2.990680
 20
1.360480
  0
VERTEX
  8
0
  6
CONTINUOUS
 10
2.988480
 20
1.362680
  0
SEQEND
  8
0
  0
SOLID
  8
0
 62
    15
 10
2.990680
 20
1.360480
 11
3.611520
 21
1.707200
 12
3.043040
 22
1.299760
 13
3.663880
 23
1.646040
  0
POLYLINE
  8
0
  6
CONTINUOUS
 66
     1
 40
0.000000
 41
0.000000
  0
VERTEX
  8
0
  6
CONTINUOUS
 10
2.990680
 20
1.360480
  0
VERTEX
  8
0
  6
CONTINUOUS
 10
3.611520
 20
1.707200
  0
VERTEX
  8
0
  6
CONTINUOUS
 10
3.663880
 20
1.646040
  0
VERTEX
  8
0
  6
CONTINUOUS
 10
3.043040
 20
1.299760
  0
VERTEX
  8
0
  6
CONTINUOUS
 10
2.990680
 20
1.360480
  0
SEQEND
  8
0
  0
SOLID
  8
0
 62
    15
 10
3.043040
 20
1.299760
 11
3.663880
 21
1.646040
 12
3.089240
 22
1.199880
 13
3.710080
 23
1.546600
  0
POLYLINE
  8
0
  6
CONTINUOUS
 66
     1
 40
0.000000
 41
0.000000
  0
VERTEX
  8
0
  6
CONTINUOUS
 10
3.043040
 20
1.299760
  0
VERTEX
  8
0
  6
CONTINUOUS
 10
3.663880
 20
1.646040
  0
VERTEX
  8
0
  6
CONTINUOUS
 10
3.710080
 20
1.546600
  0
VERTEX
  8
0
  6
CONTINUOUS
 10
3.089240
 20
1.199880
  0
VERTEX
  8
0
  6
CONTINUOUS
 10
3.043040
 20
1.299760
  0
SEQEND
  8
0
  0
SOLID
  8
0
 62
    15
 10
3.089240
 20
1.199880
 11
3.710080
 21
1.546600
 12
3.101560
 22
1.138280
 13
3.722840
 23
1.485000
  0
POLYLINE
  8
0
  6
CONTINUOUS
 66
     1
 40
0.000000
 41
0.000000
  0
VERTEX
  8
0
  6
CONTINUOUS
 10
3.089240
 20
1.199880
  0
VERTEX
  8
0
  6
CONTINUOUS
 10
3.710080
 20
1.546600
  0
VERTEX
  8
0
  6
CONTINUOUS
 10
3.722840
 20
1.485000
  0
VERTEX
  8
0
  6
CONTINUOUS
 10
3.101560
 20
1.138280
  0
VERTEX
  8
0
  6
CONTINUOUS
 10
3.089240
 20
1.199880
  0
SEQEND
  8
0
  0
SOLID
  8
0
 62
    15
 10
3.101560
 20
1.138280
 11
3.722840
 21
1.485000
 12
3.103320
 22
1.070520
 13
3.724160
 23
1.417240
  0
POLYLINE
  8
0
  6
CONTINUOUS
 66
     1
 40
0.000000
 41
0.000000
  0
VERTEX
  8
0
  6
CONTINUOUS
 10
3.101560
 20
1.138280
  0
VERTEX
  8
0
  6
CONTINUOUS
 10
3.722840
 20
1.485000
  0
VERTEX
  8
0
  6
CONTINUOUS
 10
3.724160
 20
1.417240
  0
VERTEX
  8
0
  6
CONTINUOUS
 10
3.103320
 20
1.070520
  0
VERTEX
  8
0
  6
CONTINUOUS
 10
3.101560
 20
1.138280
  0
SEQEND
  8
0
  0
SOLID
  8
0
 62
    15
 10
3.103320
 20
1.070520
 11
3.724160
 21
1.417240
 12
3.090120
 22
0.997040
 13
3.711400
 23
1.343320
  0
POLYLINE
  8
0
  6
CONTINUOUS
 66
     1
 40
0.000000
 41
0.000000
  0
VERTEX
  8
0
  6
CONTINUOUS
 10
3.103320
 20
1.070520
  0
VERTEX
  8
0
  6
CONTINUOUS
 10
3.724160
 20
1.417240
  0
VERTEX
  8
0
  6
CONTINUOUS
 10
3.711400
 20
1.343320
  0
VERTEX
  8
0
  6
CONTINUOUS
 10
3.090120
 20
0.997040
  0
VERTEX
  8
0
  6
CONTINUOUS
 10
3.103320
 20
1.070520
  0
SEQEND
  8
0
  0
SOLID
  8
0
 62
    15
 10
3.090120
 20
0.997040
 11
3.711400
 21
1.343320
 12
3.059320
 22
0.919160
 13
3.680600
 23
1.265880
  0
POLYLINE
  8
0
  6
CONTINUOUS
 66
     1
 40
0.000000
 41
0.000000
  0
VERTEX
  8
0
  6
CONTINUOUS
 10
3.090120
 20
0.997040
  0
VERTEX
  8
0
  6
CONTINUOUS
 10
3.711400
 20
1.343320
  0
VERTEX
  8
0
  6
CONTINUOUS
 10
3.680600
 20
1.265880
  0
VERTEX
  8
0
  6
CONTINUOUS
 10
3.059320
 20
0.919160
  0
VERTEX
  8
0
  6
CONTINUOUS
 10
3.090120
 20
0.997040
  0
SEQEND
  8
0
  0
SOLID
  8
0
 62
    15
 10
3.059320
 20
0.919160
 11
3.680600
 21
1.265880
 12
3.047000
 22
0.902440
 13
3.667840
 23
1.249160
  0
POLYLINE
  8
0
  6
CONTINUOUS
 66
     1
 40
0.000000
 41
0.000000
  0
VERTEX
  8
0
  6
CONTINUOUS
 10
3.059320
 20
0.919160
  0
VERTEX
  8
0
  6
CONTINUOUS
 10
3.680600
 20
1.265880
  0
VERTEX
  8
0
  6
CONTINUOUS
 10
3.667840
 20
1.249160
  0
VERTEX
  8
0
  6
CONTINUOUS
 10
3.047000
 20
0.902440
  0
VERTEX
  8
0
  6
CONTINUOUS
 10
3.059320
 20
0.919160
  0
SEQEND
  8
0
  0
SOLID
  8
0
 62
    15
 10
0.865920
 20
2.898280
 11
1.487200
 21
3.245000
 12
0.957000
 22
2.943600
 13
1.577840
 23
3.289880
  0
POLYLINE
  8
0
  6
CONTINUOUS
 66
     1
 40
0.000000
 41
0.000000
  0
VERTEX
  8
0
  6
CONTINUOUS
 10
0.865920
 20
2.898280
  0
VERTEX
  8
0
  6
CONTINUOUS
 10
1.487200
 20
3.245000
  0
VERTEX
  8
0
  6
CONTINUOUS
 10
1.577840
 20
3.289880
  0
VERTEX
  8
0
  6
CONTINUOUS
 10
0.957000
 20
2.943600
  0
VERTEX
  8
0
  6
CONTINUOUS
 10
0.865920
 20
2.898280
  0
SEQEND
  8
0
  0
SOLID
  8
0
 62
    15
 10
0.957000
 20
2.943600
 11
1.577840
 21
3.289880
 12
1.063480
 22
2.987600
 13
1.684760
 23
3.334320
  0
POLYLINE
  8
0
  6
CONTINUOUS
 66
     1
 40
0.000000
 41
0.000000
  0
VERTEX
  8
0
  6
CONTINUOUS
 10
0.957000
 20
2.943600
  0
VERTEX
  8
0
  6
CONTINUOUS
 10
1.577840
 20
3.289880
  0
VERTEX
  8
0
  6
CONTINUOUS
 10
1.684760
 20
3.334320
  0
VERTEX
  8
0
  6
CONTINUOUS
 10
1.063480
 20
2.987600
  0
VERTEX
  8
0
  6
CONTINUOUS
 10
0.957000
 20
2.943600
  0
SEQEND
  8
0
  0
SOLID
  8
0
 62
    15
 10
1.063480
 20
2.987600
 11
1.684760
 21
3.334320
 12
1.173040
 22
3.029400
 13
1.793880
 23
3.376120
  0
POLYLINE
  8
0
  6
CONTINUOUS
 66
     1
 40
0.000000
 41
0.000000
  0
VERTEX
  8
0
  6
CONTINUOUS
 10
1.063480
 20
2.987600
  0
VERTEX
  8
0
  6
CONTINUOUS
 10
1.684760
 20
3.334320
  0
VERTEX
  8
0
  6
CONTINUOUS
 10
1.793880
 20
3.376120
  0
VERTEX
  8
0
  6
CONTINUOUS
 10
1.173040
 20
3.029400
  0
VERTEX
  8
0
  6
CONTINUOUS
 10
1.063480
 20
2.987600
  0
SEQEND
  8
0
  0
SOLID
  8
0
 62
    15
 10
1.173040
 20
3.029400
 11
1.793880
 21
3.376120
 12
1.272040
 22
3.066800
 13
1.892880
 23
3.413520
  0
POLYLINE
  8
0
  6
CONTINUOUS
 66
     1
 40
0.000000
 41
0.000000
  0
VERTEX
  8
0
  6
CONTINUOUS
 10
1.173040
 20
3.029400
  0
VERTEX
  8
0
  6
CONTINUOUS
 10
1.793880
 20
3.376120
  0
VERTEX
  8
0
  6
CONTINUOUS
 10
1.892880
 20
3.413520
  0
VERTEX
  8
0
  6
CONTINUOUS
 10
1.272040
 20
3.066800
  0
VERTEX
  8
0
  6
CONTINUOUS
 10
1.173040
 20
3.029400
  0
SEQEND
  8
0
  0
SOLID
  8
0
 62
    15
 10
1.272040
 20
3.066800
 11
1.892880
 21
3.413520
 12
1.440120
 22
3.128400
 13
2.061400
 23
3.475120
  0
POLYLINE
  8
0
  6
CONTINUOUS
 66
     1
 40
0.000000
 41
0.000000
  0
VERTEX
  8
0
  6
CONTINUOUS
 10
1.272040
 20
3.066800
  0
VERTEX
  8
0
  6
CONTINUOUS
 10
1.892880
 20
3.413520
  0
VERTEX
  8
0
  6
CONTINUOUS
 10
2.061400
 20
3.475120
  0
VERTEX
  8
0
  6
CONTINUOUS
 10
1.440120
 20
3.128400
  0
VERTEX
  8
0
  6
CONTINUOUS
 10
1.272040
 20
3.066800
  0
SEQEND
  8
0
  0
SOLID
  8
0
 62
    15
 10
1.440120
 20
3.128400
 11
2.061400
 21
3.475120
 12
1.572120
 22
3.175040
 13
2.192960
 23
3.521760
  0
POLYLINE
  8
0
  6
CONTINUOUS
 66
     1
 40
0.000000
 41
0.000000
  0
VERTEX
  8
0
  6
CONTINUOUS
 10
1.440120
 20
3.128400
  0
VERTEX
  8
0
  6
CONTINUOUS
 10
2.061400
 20
3.475120
  0
VERTEX
  8
0
  6
CONTINUOUS
 10
2.192960
 20
3.521760
  0
VERTEX
  8
0
  6
CONTINUOUS
 10
1.572120
 20
3.175040
  0
VERTEX
  8
0
  6
CONTINUOUS
 10
1.440120
 20
3.128400
  0
SEQEND
  8
0
  0
SOLID
  8
0
 62
    15
 10
1.572120
 20
3.175040
 11
2.192960
 21
3.521760
 12
1.671560
 22
3.208480
 13
2.292400
 23
3.555200
  0
POLYLINE
  8
0
  6
CONTINUOUS
 66
     1
 40
0.000000
 41
0.000000
  0
VERTEX
  8
0
  6
CONTINUOUS
 10
1.572120
 20
3.175040
  0
VERTEX
  8
0
  6
CONTINUOUS
 10
2.192960
 20
3.521760
  0
VERTEX
  8
0
  6
CONTINUOUS
 10
2.292400
 20
3.555200
  0
VERTEX
  8
0
  6
CONTINUOUS
 10
1.671560
 20
3.208480
  0
VERTEX
  8
0
  6
CONTINUOUS
 10
1.572120
 20
3.175040
  0
SEQEND
  8
0
  0
SOLID
  8
0
 62
    15
 10
1.671560
 20
3.208480
 11
2.292400
 21
3.555200
 12
1.741960
 22
3.230920
 13
2.363240
 23
3.577200
  0
POLYLINE
  8
0
  6
CONTINUOUS
 66
     1
 40
0.000000
 41
0.000000
  0
VERTEX
  8
0
  6
CONTINUOUS
 10
1.671560
 20
3.208480
  0
VERTEX
  8
0
  6
CONTINUOUS
 10
2.292400
 20
3.555200
  0
VERTEX
  8
0
  6
CONTINUOUS
 10
2.363240
 20
3.577200
  0
VERTEX
  8
0
  6
CONTINUOUS
 10
1.741960
 20
3.230920
  0
VERTEX
  8
0
  6
CONTINUOUS
 10
1.671560
 20
3.208480
  0
SEQEND
  8
0
  0
SOLID
  8
0
 62
    15
 10
1.741960
 20
3.230920
 11
2.363240
 21
3.577200
 12
1.787720
 22
3.244120
 13
2.409000
 23
3.590840
  0
POLYLINE
  8
0
  6
CONTINUOUS
 66
     1
 40
0.000000
 41
0.000000
  0
VERTEX
  8
0
  6
CONTINUOUS
 10
1.741960
 20
3.230920
  0
VERTEX
  8
0
  6
CONTINUOUS
 10
2.363240
 20
3.577200
  0
VERTEX
  8
0
  6
CONTINUOUS
 10
2.409000
 20
3.590840
  0
VERTEX
  8
0
  6
CONTINUOUS
 10
1.787720
 20
3.244120
  0
VERTEX
  8
0
  6
CONTINUOUS
 10
1.741960
 20
3.230920
  0
SEQEND
  8
0
  0
SOLID
  8
0
 62
    15
 10
1.787720
 20
3.244120
 11
2.409000
 21
3.590840
 12
1.812360
 22
3.250720
 13
2.433640
 23
3.597440
  0
POLYLINE
  8
0
  6
CONTINUOUS
 66
     1
 40
0.000000
 41
0.000000
  0
VERTEX
  8
0
  6
CONTINUOUS
 10
1.787720
 20
3.244120
  0
VERTEX
  8
0
  6
CONTINUOUS
 10
2.409000
 20
3.590840
  0
VERTEX
  8
0
  6
CONTINUOUS
 10
2.433640
 20
3.597440
  0
VERTEX
  8
0
  6
CONTINUOUS
 10
1.812360
 20
3.250720
  0
VERTEX
  8
0
  6
CONTINUOUS
 10
1.787720
 20
3.244120
  0
SEQEND
  8
0
  0
SOLID
  8
0
 62
    15
 10
1.812360
 20
3.250720
 11
2.433640
 21
3.597440
 12
1.819840
 22
3.252480
 13
2.441120
 23
3.599200
  0
POLYLINE
  8
0
  6
CONTINUOUS
 66
     1
 40
0.000000
 41
0.000000
  0
VERTEX
  8
0
  6
CONTINUOUS
 10
1.812360
 20
3.250720
  0
VERTEX
  8
0
  6
CONTINUOUS
 10
2.433640
 20
3.597440
  0
VERTEX
  8
0
  6
CONTINUOUS
 10
2.441120
 20
3.599200
  0
VERTEX
  8
0
  6
CONTINUOUS
 10
1.819840
 20
3.252480
  0
VERTEX
  8
0
  6
CONTINUOUS
 10
1.812360
 20
3.250720
  0
SEQEND
  8
0
  0
SOLID
  8
0
 62
    15
 10
1.819840
 20
3.252480
 11
2.441120
 21
3.599200
 12
1.829520
 22
3.254240
 13
2.450360
 23
3.600960
  0
POLYLINE
  8
0
  6
CONTINUOUS
 66
     1
 40
0.000000
 41
0.000000
  0
VERTEX
  8
0
  6
CONTINUOUS
 10
1.819840
 20
3.252480
  0
VERTEX
  8
0
  6
CONTINUOUS
 10
2.441120
 20
3.599200
  0
VERTEX
  8
0
  6
CONTINUOUS
 10
2.450360
 20
3.600960
  0
VERTEX
  8
0
  6
CONTINUOUS
 10
1.829520
 20
3.254240
  0
VERTEX
  8
0
  6
CONTINUOUS
 10
1.819840
 20
3.252480
  0
SEQEND
  8
0
  0
SOLID
  8
0
 62
    15
 10
1.829520
 20
3.254240
 11
2.450360
 21
3.600960
 12
1.854600
 22
3.258200
 13
2.475880
 23
3.604920
  0
POLYLINE
  8
0
  6
CONTINUOUS
 66
     1
 40
0.000000
 41
0.000000
  0
VERTEX
  8
0
  6
CONTINUOUS
 10
1.829520
 20
3.254240
  0
VERTEX
  8
0
  6
CONTINUOUS
 10
2.450360
 20
3.600960
  0
VERTEX
  8
0
  6
CONTINUOUS
 10
2.475880
 20
3.604920
  0
VERTEX
  8
0
  6
CONTINUOUS
 10
1.854600
 20
3.258200
  0
VERTEX
  8
0
  6
CONTINUOUS
 10
1.829520
 20
3.254240
  0
SEQEND
  8
0
  0
SOLID
  8
0
 62
    15
 10
1.854600
 20
3.258200
 11
2.475880
 21
3.604920
 12
1.930280
 22
3.262600
 13
2.551120
 23
3.609320
  0
POLYLINE
  8
0
  6
CONTINUOUS
 66
     1
 40
0.000000
 41
0.000000
  0
VERTEX
  8
0
  6
CONTINUOUS
 10
1.854600
 20
3.258200
  0
VERTEX
  8
0
  6
CONTINUOUS
 10
2.475880
 20
3.604920
  0
VERTEX
  8
0
  6
CONTINUOUS
 10
2.551120
 20
3.609320
  0
VERTEX
  8
0
  6
CONTINUOUS
 10
1.930280
 20
3.262600
  0
VERTEX
  8
0
  6
CONTINUOUS
 10
1.854600
 20
3.258200
  0
SEQEND
  8
0
  0
SOLID
  8
0
 62
    15
 10
1.930280
 20
3.262600
 11
2.551120
 21
3.609320
 12
1.950960
 22
3.262600
 13
2.572240
 23
3.609320
  0
POLYLINE
  8
0
  6
CONTINUOUS
 66
     1
 40
0.000000
 41
0.000000
  0
VERTEX
  8
0
  6
CONTINUOUS
 10
1.930280
 20
3.262600
  0
VERTEX
  8
0
  6
CONTINUOUS
 10
2.551120
 20
3.609320
  0
VERTEX
  8
0
  6
CONTINUOUS
 10
2.572240
 20
3.609320
  0
VERTEX
  8
0
  6
CONTINUOUS
 10
1.950960
 20
3.262600
  0
VERTEX
  8
0
  6
CONTINUOUS
 10
1.930280
 20
3.262600
  0
SEQEND
  8
0
  0
POLYLINE
  8
0
  6
CONTINUOUS
 66
     1
 40
0.000000
 41
0.000000
  0
VERTEX
  8
0
  6
CONTINUOUS
 10
1.950960
 20
3.262600
  0
VERTEX
  8
0
  6
CONTINUOUS
 10
2.026640
 20
3.258200
  0
VERTEX
  8
0
  6
CONTINUOUS
 10
2.068880
 20
3.250720
  0
VERTEX
  8
0
  6
CONTINUOUS
 10
2.139280
 20
3.230920
  0
VERTEX
  8
0
  6
CONTINUOUS
 10
2.309120
 20
3.175040
  0
VERTEX
  8
0
  6
CONTINUOUS
 10
2.441120
 20
3.128400
  0
VERTEX
  8
0
  6
CONTINUOUS
 10
2.708200
 20
3.029400
  0
VERTEX
  8
0
  6
CONTINUOUS
 10
2.817760
 20
2.987600
  0
VERTEX
  8
0
  6
CONTINUOUS
 10
2.924240
 20
2.943600
  0
VERTEX
  8
0
  6
CONTINUOUS
 10
3.014880
 20
2.898280
  0
VERTEX
  8
0
  6
CONTINUOUS
 10
3.090560
 20
2.852960
  0
VERTEX
  8
0
  6
CONTINUOUS
 10
3.151720
 20
2.806760
  0
VERTEX
  8
0
  6
CONTINUOUS
 10
3.199240
 20
2.760120
  0
VERTEX
  8
0
  6
CONTINUOUS
 10
3.234000
 20
2.713480
  0
VERTEX
  8
0
  6
CONTINUOUS
 10
3.267880
 20
2.618880
  0
VERTEX
  8
0
  6
CONTINUOUS
 10
3.258640
 20
2.523400
  0
VERTEX
  8
0
  6
CONTINUOUS
 10
3.213320
 20
2.427480
  0
VERTEX
  8
0
  6
CONTINUOUS
 10
3.137200
 20
2.331560
  0
VERTEX
  8
0
  6
CONTINUOUS
 10
3.036440
 20
2.235640
  0
VERTEX
  8
0
  6
CONTINUOUS
 10
2.937880
 20
2.145440
  0
VERTEX
  8
0
  6
CONTINUOUS
 10
2.863080
 20
2.061840
  0
VERTEX
  8
0
  6
CONTINUOUS
 10
2.813360
 20
1.982200
  0
VERTEX
  8
0
  6
CONTINUOUS
 10
2.789600
 20
1.903000
  0
VERTEX
  8
0
  6
CONTINUOUS
 10
2.792680
 20
1.822040
  0
VERTEX
  8
0
  6
CONTINUOUS
 10
2.823920
 20
1.736240
  0
VERTEX
  8
0
  6
CONTINUOUS
 10
2.883760
 20
1.642520
  0
VERTEX
  8
0
  6
CONTINUOUS
 10
2.973960
 20
1.537800
  0
VERTEX
  8
0
  6
CONTINUOUS
 10
2.988480
 20
1.362680
  0
VERTEX
  8
0
  6
CONTINUOUS
 10
3.043040
 20
1.299760
  0
VERTEX
  8
0
  6
CONTINUOUS
 10
3.089240
 20
1.199880
  0
VERTEX
  8
0
  6
CONTINUOUS
 10
3.101560
 20
1.138280
  0
VERTEX
  8
0
  6
CONTINUOUS
 10
3.103320
 20
1.070520
  0
VERTEX
  8
0
  6
CONTINUOUS
 10
3.090120
 20
0.997040
  0
VERTEX
  8
0
  6
CONTINUOUS
 10
3.059320
 20
0.919160
  0
VERTEX
  8
0
  6
CONTINUOUS
 10
3.047000
 20
0.902440
  0
VERTEX
  8
0
  6
CONTINUOUS
 10
0.834240
 20
0.902440
  0
VERTEX
  8
0
  6
CONTINUOUS
 10
0.821920
 20
0.919160
  0
VERTEX
  8
0
  6
CONTINUOUS
 10
0.791120
 20
0.997040
  0
VERTEX
  8
0
  6
CONTINUOUS
 10
0.778360
 20
1.070520
  0
VERTEX
  8
0
  6
CONTINUOUS
 10
0.779680
 20
1.138280
  0
VERTEX
  8
0
  6
CONTINUOUS
 10
0.792000
 20
1.199880
  0
VERTEX
  8
0
  6
CONTINUOUS
 10
0.838200
 20
1.299760
  0
VERTEX
  8
0
  6
CONTINUOUS
 10
0.892760
 20
1.362680
  0
VERTEX
  8
0
  6
CONTINUOUS
 10
0.907280
 20
1.537800
  0
VERTEX
  8
0
  6
CONTINUOUS
 10
0.997480
 20
1.642520
  0
VERTEX
  8
0
  6
CONTINUOUS
 10
1.057320
 20
1.736240
  0
VERTEX
  8
0
  6
CONTINUOUS
 10
1.088560
 20
1.822040
  0
VERTEX
  8
0
  6
CONTINUOUS
 10
1.091640
 20
1.903000
  0
VERTEX
  8
0
  6
CONTINUOUS
 10
1.067880
 20
1.982200
  0
VERTEX
  8
0
  6
CONTINUOUS
 10
1.018160
 20
2.061840
  0
VERTEX
  8
0
  6
CONTINUOUS
 10
0.943360
 20
2.145440
  0
VERTEX
  8
0
  6
CONTINUOUS
 10
0.844800
 20
2.235640
  0
VERTEX
  8
0
  6
CONTINUOUS
 10
0.744040
 20
2.331560
  0
VERTEX
  8
0
  6
CONTINUOUS
 10
0.667920
 20
2.427480
  0
VERTEX
  8
0
  6
CONTINUOUS
 10
0.622600
 20
2.523400
  0
VERTEX
  8
0
  6
CONTINUOUS
 10
0.613360
 20
2.618880
  0
VERTEX
  8
0
  6
CONTINUOUS
 10
0.647240
 20
2.713480
  0
VERTEX
  8
0
  6
CONTINUOUS
 10
0.681560
 20
2.760120
  0
VERTEX
  8
0
  6
CONTINUOUS
 10
0.729520
 20
2.806760
  0
VERTEX
  8
0
  6
CONTINUOUS
 10
0.790680
 20
2.852960
  0
VERTEX
  8
0
  6
CONTINUOUS
 10
0.865920
 20
2.898280
  0
VERTEX
  8
0
  6
CONTINUOUS
 10
0.957000
 20
2.943600
  0
VERTEX
  8
0
  6
CONTINUOUS
 10
1.063480
 20
2.987600
  0
VERTEX
  8
0
  6
CONTINUOUS
 10
1.272040
 20
3.066800
  0
VERTEX
  8
0
  6
CONTINUOUS
 10
1.440120
 20
3.128400
  0
VERTEX
  8
0
  6
CONTINUOUS
 10
1.572120
 20
3.175040
  0
VERTEX
  8
0
  6
CONTINUOUS
 10
1.741960
 20
3.230920
  0
VERTEX
  8
0
  6
CONTINUOUS
 10
1.819840
 20
3.252480
  0
VERTEX
  8
0
  6
CONTINUOUS
 10
1.854600
 20
3.258200
  0
VERTEX
  8
0
  6
CONTINUOUS
 10
1.930280
 20
3.262600
  0
VERTEX
  8
0
  6
CONTINUOUS
 10
1.950960
 20
3.262600
  0
SEQEND
  8
0
  0
TEXT
  8
0
 10
1.954480
 20
0.649440
 40
0.138110
  1
BA  305
 41
1.000000
  7
SN0
 71
     0
 72
     5
 11
2.543697
 21
0.649440
  0
TEXT
  8
0
 10
1.724800
 20
0.458040
 40
0.138110
  1
2-3/8" x 2-5/8"
 41
1.000000
  7
SN0
 71
     0
 72
     5
 11
2.771592
 21
0.458040
  0
TEXT
  8
0
 10
7.433360
 20
3.544200
 40
0.138110
  1
hand rail
 41
1.000000
  7
SN0
 71
     0
 72
     5
 11
8.068446
 21
3.544200
  0
TEXT
  8
0
 10
7.613320
 20
3.352800
 40
0.138110
  1
305
 41
1.000000
  7
SN0
 71
     0
 72
     5
 11
7.890028
 21
3.352800
  0
ENDSEC
  0
EOF
