  0
SECTION
  2
HEADER
  9
$ACADVER
  1
AC1006
  9
$EXTMIN
 10
3.251600
 20
0.380160
  9
$EXTMAX
 10
8.039240
 20
3.803800
  9
$LTSCALE
 40
0.044000
  9
$PDMODE
 70
    35
  9
$PDSIZE
 40
0.035200
  0
ENDSEC
  0
SECTION
  2
TABLES
  0
TABLE
  2
LTYPE
 70
     9
  0
LTYPE
  2
CONTINUOUS
 70
    64
  3
Solid line
 72
    65
 73
     0
 40
0.000000
  0
LTYPE
  2
DASHED
 70
    64
  3
__ __ __ __ __ __ __ __ __ __ __ __ __ __ __
 72
    65
 73
     2
 40
0.000330
 49
0.000220
 49
-0.000110
  0
LTYPE
  2
HIDDEN
 70
    64
  3
 _ _ _ _ _ _ _ _ _ _ _ _ _ _ _ _ _ _ _ _ _ _
 72
    65
 73
     2
 40
0.000165
 49
0.000110
 49
-0.000055
  0
LTYPE
  2
CENTER
 70
    64
  3
____ _ ____ _ ____ _ ____ _ ____ _ ____ _ ____
 72
    65
 73
     4
 40
0.000880
 49
0.000550
 49
-0.000110
 49
0.000110
 49
-0.000110
  0
LTYPE
  2
PHANTOM
 70
    64
  3
_____ _ _ _____ _ _ _____ _ _ _____ _ _ ____
 72
    65
 73
     6
 40
0.001100
 49
0.000550
 49
-0.000110
 49
0.000110
 49
-0.000110
 49
0.000110
 49
-0.000110
  0
LTYPE
  2
DOT
 70
    64
  3
...............................................
 72
    65
 73
     2
 40
0.000110
 49
0.000000
 49
-0.000110
  0
LTYPE
  2
DASHDOT
 70
    64
  3
__ . __ . __ . __ . __ . __ . __ . __ . __ . __
 72
    65
 73
     4
 40
0.000440
 49
0.000220
 49
-0.000110
 49
0.000000
 49
-0.000110
  0
LTYPE
  2
BORDER
 70
    64
  3
__ __ . __ __ . __ __ . __ __ . __ __ . __ __
 72
    65
 73
     6
 40
0.000770
 49
0.000220
 49
-0.000110
 49
0.000220
 49
-0.000110
 49
0.000000
 49
-0.000110
  0
LTYPE
  2
DIVIDE
 70
    64
  3
__ . . __ . . __ . . __ . . __ . . __ . . __
 72
    65
 73
     6
 40
0.000550
 49
0.000220
 49
-0.000110
 49
0.000000
 49
-0.000110
 49
0.000000
 49
-0.000110
  0
LTYPE
  2
DOTDOT
 70
    64
  3
 . .  . .  . .  . .  . .  . . 
 72
    65
 73
     5
 40
0.000242
 49
-0.000110
 49
0.000000
 49
-0.000110
 49
0.000000
 49
-0.000110
  0
ENDTAB
  0
TABLE
  2
STYLE
 70
     2
  0
STYLE
 70
     0
  2
SN0
 40
0.000000
 41
0.000440
 50
0.000000
 71
     0
 42
0.000000
  3
ROMAND
  0
STYLE
 70
    68
  2
SV0
 40
0.000000
 41
0.000440
 50
0.000000
 71
     0
 42
0.000000
  3
ROMAND
  0
ENDTAB
  0
TABLE
  2
LAYER
 70
     3
  0
LAYER
  2
FOREGROUND
 70
    64
 62
     7
  6
CONTINUOUS
  0
LAYER
  2
BACKGROUND
 70
    65
 62
    -7
  6
CONTINUOUS
  0
LAYER
  2
0
 70
    64
 62
     7
  6
CONTINUOUS
  0
ENDTAB
  0
ENDSEC
  0
SECTION
  2
ENTITIES
  0
POLYLINE
  8
FOREGROUND
  6
CONTINUOUS
 66
     1
 40
0.000000
 41
0.000000
  0
VERTEX
  8
FOREGROUND
  6
CONTINUOUS
 10
0.000000
 20
4.183960
  0
VERTEX
  8
FOREGROUND
  6
CONTINUOUS
 10
8.499920
 20
4.183960
  0
VERTEX
  8
FOREGROUND
  6
CONTINUOUS
 10
8.499920
 20
-6.816040
  0
VERTEX
  8
FOREGROUND
  6
CONTINUOUS
 10
0.000000
 20
-6.816040
  0
VERTEX
  8
FOREGROUND
  6
CONTINUOUS
 10
0.000000
 20
4.183960
  0
SEQEND
  8
0
  0
POLYLINE
  8
FOREGROUND
  6
CONTINUOUS
 66
     1
 40
0.000000
 41
0.000000
  0
VERTEX
  8
FOREGROUND
  6
CONTINUOUS
 10
0.000000
 20
4.183960
  0
VERTEX
  8
FOREGROUND
  6
CONTINUOUS
 10
8.499920
 20
4.183960
  0
VERTEX
  8
FOREGROUND
  6
CONTINUOUS
 10
8.499920
 20
-6.816040
  0
VERTEX
  8
FOREGROUND
  6
CONTINUOUS
 10
0.000000
 20
-6.816040
  0
VERTEX
  8
FOREGROUND
  6
CONTINUOUS
 10
0.000000
 20
4.183960
  0
SEQEND
  8
0
  0
POLYLINE
  8
0
  6
CONTINUOUS
 66
     1
 40
0.014080
 41
0.014080
  0
VERTEX
  8
0
  6
CONTINUOUS
 10
3.719760
 20
3.457960
  0
VERTEX
  8
0
  6
CONTINUOUS
 10
3.722400
 20
3.476440
  0
VERTEX
  8
0
  6
CONTINUOUS
 10
3.731200
 20
3.508120
  0
VERTEX
  8
0
  6
CONTINUOUS
 10
3.744400
 20
3.532760
  0
VERTEX
  8
0
  6
CONTINUOUS
 10
3.751880
 20
3.542880
  0
VERTEX
  8
0
  6
CONTINUOUS
 10
3.769920
 20
3.558280
  0
VERTEX
  8
0
  6
CONTINUOUS
 10
3.790160
 20
3.568400
  0
VERTEX
  8
0
  6
CONTINUOUS
 10
3.801160
 20
3.571920
  0
VERTEX
  8
0
  6
CONTINUOUS
 10
3.824040
 20
3.575000
  0
VERTEX
  8
0
  6
CONTINUOUS
 10
3.848240
 20
3.574120
  0
VERTEX
  8
0
  6
CONTINUOUS
 10
3.873320
 20
3.569720
  0
VERTEX
  8
0
  6
CONTINUOUS
 10
3.910280
 20
3.558720
  0
VERTEX
  8
0
  6
CONTINUOUS
 10
3.955600
 20
3.537600
  0
VERTEX
  8
0
  6
CONTINUOUS
 10
3.993000
 20
3.513400
  0
VERTEX
  8
0
  6
CONTINUOUS
 10
4.017640
 20
3.491400
  0
VERTEX
  8
0
  6
CONTINUOUS
 10
4.055480
 20
3.453560
  0
VERTEX
  8
0
  6
CONTINUOUS
 10
4.097720
 20
3.422320
  0
VERTEX
  8
0
  6
CONTINUOUS
 10
4.132920
 20
3.402080
  0
VERTEX
  8
0
  6
CONTINUOUS
 10
4.173840
 20
3.384040
  0
VERTEX
  8
0
  6
CONTINUOUS
 10
4.196720
 20
3.376120
  0
VERTEX
  8
0
  6
CONTINUOUS
 10
4.247320
 20
3.363360
  0
VERTEX
  8
0
  6
CONTINUOUS
 10
4.304960
 20
3.355880
  0
VERTEX
  8
0
  6
CONTINUOUS
 10
4.317720
 20
3.356760
  0
VERTEX
  8
0
  6
CONTINUOUS
 10
4.326080
 20
3.362040
  0
VERTEX
  8
0
  6
CONTINUOUS
 10
4.330040
 20
3.366880
  0
VERTEX
  8
0
  6
CONTINUOUS
 10
4.334440
 20
3.380080
  0
VERTEX
  8
0
  6
CONTINUOUS
 10
4.338840
 20
3.411320
  0
VERTEX
  8
0
  6
CONTINUOUS
 10
4.344120
 20
3.424960
  0
VERTEX
  8
0
  6
CONTINUOUS
 10
4.357320
 20
3.441240
  0
VERTEX
  8
0
  6
CONTINUOUS
 10
4.374920
 20
3.452680
  0
VERTEX
  8
0
  6
CONTINUOUS
 10
4.395160
 20
3.458840
  0
VERTEX
  8
0
  6
CONTINUOUS
 10
4.402200
 20
3.459720
  0
VERTEX
  8
0
  6
CONTINUOUS
 10
4.424200
 20
3.458400
  0
VERTEX
  8
0
  6
CONTINUOUS
 10
4.445320
 20
3.451360
  0
VERTEX
  8
0
  6
CONTINUOUS
 10
4.458080
 20
3.443440
  0
VERTEX
  8
0
  6
CONTINUOUS
 10
4.474800
 20
3.426280
  0
VERTEX
  8
0
  6
CONTINUOUS
 10
4.486680
 20
3.402960
  0
VERTEX
  8
0
  6
CONTINUOUS
 10
4.491080
 20
3.384040
  0
VERTEX
  8
0
  6
CONTINUOUS
 10
4.492400
 20
3.355880
  0
VERTEX
  8
0
  6
CONTINUOUS
 10
4.634080
 20
3.355880
  0
VERTEX
  8
0
  6
CONTINUOUS
 10
4.634080
 20
3.268320
  0
VERTEX
  8
0
  6
CONTINUOUS
 10
6.069800
 20
3.268320
  0
VERTEX
  8
0
  6
CONTINUOUS
 10
6.069800
 20
3.214200
  0
VERTEX
  8
0
  6
CONTINUOUS
 10
6.871480
 20
3.214200
  0
VERTEX
  8
0
  6
CONTINUOUS
 10
6.871480
 20
3.147760
  0
VERTEX
  8
0
  6
CONTINUOUS
 10
6.931320
 20
3.146000
  0
VERTEX
  8
0
  6
CONTINUOUS
 10
6.981920
 20
3.141600
  0
VERTEX
  8
0
  6
CONTINUOUS
 10
7.024160
 20
3.133680
  0
VERTEX
  8
0
  6
CONTINUOUS
 10
7.058920
 20
3.122240
  0
VERTEX
  8
0
  6
CONTINUOUS
 10
7.087520
 20
3.107720
  0
VERTEX
  8
0
  6
CONTINUOUS
 10
7.110400
 20
3.089680
  0
VERTEX
  8
0
  6
CONTINUOUS
 10
7.123600
 20
3.075600
  0
VERTEX
  8
0
  6
CONTINUOUS
 10
7.135480
 20
3.060200
  0
VERTEX
  8
0
  6
CONTINUOUS
 10
7.146040
 20
3.043040
  0
VERTEX
  8
0
  6
CONTINUOUS
 10
7.164520
 20
3.003880
  0
VERTEX
  8
0
  6
CONTINUOUS
 10
7.182120
 20
2.958120
  0
VERTEX
  8
0
  6
CONTINUOUS
 10
7.304880
 20
2.958120
  0
VERTEX
  8
0
  6
CONTINUOUS
 10
7.304880
 20
2.737240
  0
VERTEX
  8
0
  6
CONTINUOUS
 10
3.259080
 20
2.737240
  0
VERTEX
  8
0
  6
CONTINUOUS
 10
3.259080
 20
3.582920
  0
VERTEX
  8
0
  6
CONTINUOUS
 10
3.638360
 20
3.582920
  0
VERTEX
  8
0
  6
CONTINUOUS
 10
3.638360
 20
3.455760
  0
VERTEX
  8
0
  6
CONTINUOUS
 10
3.715360
 20
3.455760
  0
VERTEX
  8
0
  6
CONTINUOUS
 10
3.719760
 20
3.457960
  0
SEQEND
  8
0
  0
SOLID
  8
0
 62
    15
 10
4.860680
 20
1.576960
 11
4.861120
 21
2.309560
 12
4.888840
 22
1.568600
 13
4.889280
 23
2.301200
  0
POLYLINE
  8
0
  6
CONTINUOUS
 66
     1
 40
0.000000
 41
0.000000
  0
VERTEX
  8
0
  6
CONTINUOUS
 10
4.860680
 20
1.576960
  0
VERTEX
  8
0
  6
CONTINUOUS
 10
4.861120
 20
2.309560
  0
VERTEX
  8
0
  6
CONTINUOUS
 10
4.889280
 20
2.301200
  0
VERTEX
  8
0
  6
CONTINUOUS
 10
4.888840
 20
1.568600
  0
VERTEX
  8
0
  6
CONTINUOUS
 10
4.860680
 20
1.576960
  0
SEQEND
  8
0
  0
SOLID
  8
0
 62
    15
 10
4.159320
 20
1.573440
 11
4.159760
 21
2.306040
 12
4.163280
 22
1.575640
 13
4.163720
 23
2.308240
  0
POLYLINE
  8
0
  6
CONTINUOUS
 66
     1
 40
0.000000
 41
0.000000
  0
VERTEX
  8
0
  6
CONTINUOUS
 10
4.159320
 20
1.573440
  0
VERTEX
  8
0
  6
CONTINUOUS
 10
4.159760
 20
2.306040
  0
VERTEX
  8
0
  6
CONTINUOUS
 10
4.163720
 20
2.308240
  0
VERTEX
  8
0
  6
CONTINUOUS
 10
4.163280
 20
1.575640
  0
VERTEX
  8
0
  6
CONTINUOUS
 10
4.159320
 20
1.573440
  0
SEQEND
  8
0
  0
SOLID
  8
0
 62
    15
 10
4.180880
 20
1.639000
 11
4.181320
 21
2.371600
 12
4.195840
 22
1.660560
 13
4.195840
 23
2.393160
  0
POLYLINE
  8
0
  6
CONTINUOUS
 66
     1
 40
0.000000
 41
0.000000
  0
VERTEX
  8
0
  6
CONTINUOUS
 10
4.180880
 20
1.639000
  0
VERTEX
  8
0
  6
CONTINUOUS
 10
4.181320
 20
2.371600
  0
VERTEX
  8
0
  6
CONTINUOUS
 10
4.195840
 20
2.393160
  0
VERTEX
  8
0
  6
CONTINUOUS
 10
4.195840
 20
1.660560
  0
VERTEX
  8
0
  6
CONTINUOUS
 10
4.180880
 20
1.639000
  0
SEQEND
  8
0
  0
SOLID
  8
0
 62
    15
 10
4.195840
 20
1.660560
 11
4.195840
 21
2.393160
 12
4.213440
 22
1.675960
 13
4.213880
 23
2.408560
  0
POLYLINE
  8
0
  6
CONTINUOUS
 66
     1
 40
0.000000
 41
0.000000
  0
VERTEX
  8
0
  6
CONTINUOUS
 10
4.195840
 20
1.660560
  0
VERTEX
  8
0
  6
CONTINUOUS
 10
4.195840
 20
2.393160
  0
VERTEX
  8
0
  6
CONTINUOUS
 10
4.213880
 20
2.408560
  0
VERTEX
  8
0
  6
CONTINUOUS
 10
4.213440
 20
1.675960
  0
VERTEX
  8
0
  6
CONTINUOUS
 10
4.195840
 20
1.660560
  0
SEQEND
  8
0
  0
SOLID
  8
0
 62
    15
 10
4.213440
 20
1.675960
 11
4.213880
 21
2.408560
 12
4.233680
 22
1.686080
 13
4.234120
 23
2.418680
  0
POLYLINE
  8
0
  6
CONTINUOUS
 66
     1
 40
0.000000
 41
0.000000
  0
VERTEX
  8
0
  6
CONTINUOUS
 10
4.213440
 20
1.675960
  0
VERTEX
  8
0
  6
CONTINUOUS
 10
4.213880
 20
2.408560
  0
VERTEX
  8
0
  6
CONTINUOUS
 10
4.234120
 20
2.418680
  0
VERTEX
  8
0
  6
CONTINUOUS
 10
4.233680
 20
1.686080
  0
VERTEX
  8
0
  6
CONTINUOUS
 10
4.213440
 20
1.675960
  0
SEQEND
  8
0
  0
SOLID
  8
0
 62
    15
 10
4.233680
 20
1.686080
 11
4.234120
 21
2.418680
 12
4.256120
 22
1.691360
 13
4.256560
 23
2.423960
  0
POLYLINE
  8
0
  6
CONTINUOUS
 66
     1
 40
0.000000
 41
0.000000
  0
VERTEX
  8
0
  6
CONTINUOUS
 10
4.233680
 20
1.686080
  0
VERTEX
  8
0
  6
CONTINUOUS
 10
4.234120
 20
2.418680
  0
VERTEX
  8
0
  6
CONTINUOUS
 10
4.256560
 20
2.423960
  0
VERTEX
  8
0
  6
CONTINUOUS
 10
4.256120
 20
1.691360
  0
VERTEX
  8
0
  6
CONTINUOUS
 10
4.233680
 20
1.686080
  0
SEQEND
  8
0
  0
SOLID
  8
0
 62
    15
 10
4.256120
 20
1.691360
 11
4.256560
 21
2.423960
 12
4.304520
 22
1.690040
 13
4.304960
 23
2.422640
  0
POLYLINE
  8
0
  6
CONTINUOUS
 66
     1
 40
0.000000
 41
0.000000
  0
VERTEX
  8
0
  6
CONTINUOUS
 10
4.256120
 20
1.691360
  0
VERTEX
  8
0
  6
CONTINUOUS
 10
4.256560
 20
2.423960
  0
VERTEX
  8
0
  6
CONTINUOUS
 10
4.304960
 20
2.422640
  0
VERTEX
  8
0
  6
CONTINUOUS
 10
4.304520
 20
1.690040
  0
VERTEX
  8
0
  6
CONTINUOUS
 10
4.256120
 20
1.691360
  0
SEQEND
  8
0
  0
SOLID
  8
0
 62
    15
 10
4.304520
 20
1.690040
 11
4.304960
 21
2.422640
 12
4.353800
 22
1.676400
 13
4.354240
 23
2.408560
  0
POLYLINE
  8
0
  6
CONTINUOUS
 66
     1
 40
0.000000
 41
0.000000
  0
VERTEX
  8
0
  6
CONTINUOUS
 10
4.304520
 20
1.690040
  0
VERTEX
  8
0
  6
CONTINUOUS
 10
4.304960
 20
2.422640
  0
VERTEX
  8
0
  6
CONTINUOUS
 10
4.354240
 20
2.408560
  0
VERTEX
  8
0
  6
CONTINUOUS
 10
4.353800
 20
1.676400
  0
VERTEX
  8
0
  6
CONTINUOUS
 10
4.304520
 20
1.690040
  0
SEQEND
  8
0
  0
SOLID
  8
0
 62
    15
 10
4.353800
 20
1.676400
 11
4.354240
 21
2.408560
 12
4.399560
 22
1.654840
 13
4.400000
 23
2.387440
  0
POLYLINE
  8
0
  6
CONTINUOUS
 66
     1
 40
0.000000
 41
0.000000
  0
VERTEX
  8
0
  6
CONTINUOUS
 10
4.353800
 20
1.676400
  0
VERTEX
  8
0
  6
CONTINUOUS
 10
4.354240
 20
2.408560
  0
VERTEX
  8
0
  6
CONTINUOUS
 10
4.400000
 20
2.387440
  0
VERTEX
  8
0
  6
CONTINUOUS
 10
4.399560
 20
1.654840
  0
VERTEX
  8
0
  6
CONTINUOUS
 10
4.353800
 20
1.676400
  0
SEQEND
  8
0
  0
SOLID
  8
0
 62
    15
 10
4.399560
 20
1.654840
 11
4.400000
 21
2.387440
 12
4.436960
 22
1.631080
 13
4.437400
 23
2.363680
  0
POLYLINE
  8
0
  6
CONTINUOUS
 66
     1
 40
0.000000
 41
0.000000
  0
VERTEX
  8
0
  6
CONTINUOUS
 10
4.399560
 20
1.654840
  0
VERTEX
  8
0
  6
CONTINUOUS
 10
4.400000
 20
2.387440
  0
VERTEX
  8
0
  6
CONTINUOUS
 10
4.437400
 20
2.363680
  0
VERTEX
  8
0
  6
CONTINUOUS
 10
4.436960
 20
1.631080
  0
VERTEX
  8
0
  6
CONTINUOUS
 10
4.399560
 20
1.654840
  0
SEQEND
  8
0
  0
SOLID
  8
0
 62
    15
 10
4.436960
 20
1.631080
 11
4.437400
 21
2.363680
 12
4.451040
 22
1.619200
 13
4.451480
 23
2.351800
  0
POLYLINE
  8
0
  6
CONTINUOUS
 66
     1
 40
0.000000
 41
0.000000
  0
VERTEX
  8
0
  6
CONTINUOUS
 10
4.436960
 20
1.631080
  0
VERTEX
  8
0
  6
CONTINUOUS
 10
4.437400
 20
2.363680
  0
VERTEX
  8
0
  6
CONTINUOUS
 10
4.451480
 20
2.351800
  0
VERTEX
  8
0
  6
CONTINUOUS
 10
4.451040
 20
1.619200
  0
VERTEX
  8
0
  6
CONTINUOUS
 10
4.436960
 20
1.631080
  0
SEQEND
  8
0
  0
SOLID
  8
0
 62
    15
 10
4.451040
 20
1.619200
 11
4.451480
 21
2.351800
 12
4.461160
 22
1.608640
 13
4.461600
 23
2.341240
  0
POLYLINE
  8
0
  6
CONTINUOUS
 66
     1
 40
0.000000
 41
0.000000
  0
VERTEX
  8
0
  6
CONTINUOUS
 10
4.451040
 20
1.619200
  0
VERTEX
  8
0
  6
CONTINUOUS
 10
4.451480
 20
2.351800
  0
VERTEX
  8
0
  6
CONTINUOUS
 10
4.461600
 20
2.341240
  0
VERTEX
  8
0
  6
CONTINUOUS
 10
4.461160
 20
1.608640
  0
VERTEX
  8
0
  6
CONTINUOUS
 10
4.451040
 20
1.619200
  0
SEQEND
  8
0
  0
SOLID
  8
0
 62
    15
 10
4.461160
 20
1.608640
 11
4.461600
 21
2.341240
 12
4.477880
 22
1.591040
 13
4.478320
 23
2.323640
  0
POLYLINE
  8
0
  6
CONTINUOUS
 66
     1
 40
0.000000
 41
0.000000
  0
VERTEX
  8
0
  6
CONTINUOUS
 10
4.461160
 20
1.608640
  0
VERTEX
  8
0
  6
CONTINUOUS
 10
4.461600
 20
2.341240
  0
VERTEX
  8
0
  6
CONTINUOUS
 10
4.478320
 20
2.323640
  0
VERTEX
  8
0
  6
CONTINUOUS
 10
4.477880
 20
1.591040
  0
VERTEX
  8
0
  6
CONTINUOUS
 10
4.461160
 20
1.608640
  0
SEQEND
  8
0
  0
SOLID
  8
0
 62
    15
 10
4.477880
 20
1.591040
 11
4.478320
 21
2.323640
 12
4.499440
 22
1.570800
 13
4.499440
 23
2.303400
  0
POLYLINE
  8
0
  6
CONTINUOUS
 66
     1
 40
0.000000
 41
0.000000
  0
VERTEX
  8
0
  6
CONTINUOUS
 10
4.477880
 20
1.591040
  0
VERTEX
  8
0
  6
CONTINUOUS
 10
4.478320
 20
2.323640
  0
VERTEX
  8
0
  6
CONTINUOUS
 10
4.499440
 20
2.303400
  0
VERTEX
  8
0
  6
CONTINUOUS
 10
4.499440
 20
1.570800
  0
VERTEX
  8
0
  6
CONTINUOUS
 10
4.477880
 20
1.591040
  0
SEQEND
  8
0
  0
SOLID
  8
0
 62
    15
 10
4.499440
 20
1.570800
 11
4.499440
 21
2.303400
 12
4.525840
 22
1.550120
 13
4.526280
 23
2.282720
  0
POLYLINE
  8
0
  6
CONTINUOUS
 66
     1
 40
0.000000
 41
0.000000
  0
VERTEX
  8
0
  6
CONTINUOUS
 10
4.499440
 20
1.570800
  0
VERTEX
  8
0
  6
CONTINUOUS
 10
4.499440
 20
2.303400
  0
VERTEX
  8
0
  6
CONTINUOUS
 10
4.526280
 20
2.282720
  0
VERTEX
  8
0
  6
CONTINUOUS
 10
4.525840
 20
1.550120
  0
VERTEX
  8
0
  6
CONTINUOUS
 10
4.499440
 20
1.570800
  0
SEQEND
  8
0
  0
SOLID
  8
0
 62
    15
 10
4.525840
 20
1.550120
 11
4.526280
 21
2.282720
 12
4.558400
 22
1.529440
 13
4.558400
 23
2.262040
  0
POLYLINE
  8
0
  6
CONTINUOUS
 66
     1
 40
0.000000
 41
0.000000
  0
VERTEX
  8
0
  6
CONTINUOUS
 10
4.525840
 20
1.550120
  0
VERTEX
  8
0
  6
CONTINUOUS
 10
4.526280
 20
2.282720
  0
VERTEX
  8
0
  6
CONTINUOUS
 10
4.558400
 20
2.262040
  0
VERTEX
  8
0
  6
CONTINUOUS
 10
4.558400
 20
1.529440
  0
VERTEX
  8
0
  6
CONTINUOUS
 10
4.525840
 20
1.550120
  0
SEQEND
  8
0
  0
SOLID
  8
0
 62
    15
 10
4.558400
 20
1.529440
 11
4.558400
 21
2.262040
 12
4.596240
 22
1.510080
 13
4.596680
 23
2.242680
  0
POLYLINE
  8
0
  6
CONTINUOUS
 66
     1
 40
0.000000
 41
0.000000
  0
VERTEX
  8
0
  6
CONTINUOUS
 10
4.558400
 20
1.529440
  0
VERTEX
  8
0
  6
CONTINUOUS
 10
4.558400
 20
2.262040
  0
VERTEX
  8
0
  6
CONTINUOUS
 10
4.596680
 20
2.242680
  0
VERTEX
  8
0
  6
CONTINUOUS
 10
4.596240
 20
1.510080
  0
VERTEX
  8
0
  6
CONTINUOUS
 10
4.558400
 20
1.529440
  0
SEQEND
  8
0
  0
SOLID
  8
0
 62
    15
 10
4.596240
 20
1.510080
 11
4.596680
 21
2.242680
 12
4.640680
 22
1.493800
 13
4.641120
 23
2.226400
  0
POLYLINE
  8
0
  6
CONTINUOUS
 66
     1
 40
0.000000
 41
0.000000
  0
VERTEX
  8
0
  6
CONTINUOUS
 10
4.596240
 20
1.510080
  0
VERTEX
  8
0
  6
CONTINUOUS
 10
4.596680
 20
2.242680
  0
VERTEX
  8
0
  6
CONTINUOUS
 10
4.641120
 20
2.226400
  0
VERTEX
  8
0
  6
CONTINUOUS
 10
4.640680
 20
1.493800
  0
VERTEX
  8
0
  6
CONTINUOUS
 10
4.596240
 20
1.510080
  0
SEQEND
  8
0
  0
SOLID
  8
0
 62
    15
 10
4.640680
 20
1.493800
 11
4.641120
 21
2.226400
 12
4.691280
 22
1.481040
 13
4.691720
 23
2.213640
  0
POLYLINE
  8
0
  6
CONTINUOUS
 66
     1
 40
0.000000
 41
0.000000
  0
VERTEX
  8
0
  6
CONTINUOUS
 10
4.640680
 20
1.493800
  0
VERTEX
  8
0
  6
CONTINUOUS
 10
4.641120
 20
2.226400
  0
VERTEX
  8
0
  6
CONTINUOUS
 10
4.691720
 20
2.213640
  0
VERTEX
  8
0
  6
CONTINUOUS
 10
4.691280
 20
1.481040
  0
VERTEX
  8
0
  6
CONTINUOUS
 10
4.640680
 20
1.493800
  0
SEQEND
  8
0
  0
SOLID
  8
0
 62
    15
 10
4.691280
 20
1.481040
 11
4.691720
 21
2.213640
 12
4.748920
 22
1.473560
 13
4.749360
 23
2.206160
  0
POLYLINE
  8
0
  6
CONTINUOUS
 66
     1
 40
0.000000
 41
0.000000
  0
VERTEX
  8
0
  6
CONTINUOUS
 10
4.691280
 20
1.481040
  0
VERTEX
  8
0
  6
CONTINUOUS
 10
4.691720
 20
2.213640
  0
VERTEX
  8
0
  6
CONTINUOUS
 10
4.749360
 20
2.206160
  0
VERTEX
  8
0
  6
CONTINUOUS
 10
4.748920
 20
1.473560
  0
VERTEX
  8
0
  6
CONTINUOUS
 10
4.691280
 20
1.481040
  0
SEQEND
  8
0
  0
SOLID
  8
0
 62
    15
 10
4.748920
 20
1.473560
 11
4.749360
 21
2.206160
 12
4.764760
 22
1.475760
 13
4.765200
 23
2.208360
  0
POLYLINE
  8
0
  6
CONTINUOUS
 66
     1
 40
0.000000
 41
0.000000
  0
VERTEX
  8
0
  6
CONTINUOUS
 10
4.748920
 20
1.473560
  0
VERTEX
  8
0
  6
CONTINUOUS
 10
4.749360
 20
2.206160
  0
VERTEX
  8
0
  6
CONTINUOUS
 10
4.765200
 20
2.208360
  0
VERTEX
  8
0
  6
CONTINUOUS
 10
4.764760
 20
1.475760
  0
VERTEX
  8
0
  6
CONTINUOUS
 10
4.748920
 20
1.473560
  0
SEQEND
  8
0
  0
SOLID
  8
0
 62
    15
 10
4.764760
 20
1.475760
 11
4.765200
 21
2.208360
 12
4.774000
 22
1.484560
 13
4.774000
 23
2.217160
  0
POLYLINE
  8
0
  6
CONTINUOUS
 66
     1
 40
0.000000
 41
0.000000
  0
VERTEX
  8
0
  6
CONTINUOUS
 10
4.764760
 20
1.475760
  0
VERTEX
  8
0
  6
CONTINUOUS
 10
4.765200
 20
2.208360
  0
VERTEX
  8
0
  6
CONTINUOUS
 10
4.774000
 20
2.217160
  0
VERTEX
  8
0
  6
CONTINUOUS
 10
4.774000
 20
1.484560
  0
VERTEX
  8
0
  6
CONTINUOUS
 10
4.764760
 20
1.475760
  0
SEQEND
  8
0
  0
SOLID
  8
0
 62
    15
 10
4.774000
 20
1.484560
 11
4.774000
 21
2.217160
 12
4.780160
 22
1.513160
 13
4.780600
 23
2.245760
  0
POLYLINE
  8
0
  6
CONTINUOUS
 66
     1
 40
0.000000
 41
0.000000
  0
VERTEX
  8
0
  6
CONTINUOUS
 10
4.774000
 20
1.484560
  0
VERTEX
  8
0
  6
CONTINUOUS
 10
4.774000
 20
2.217160
  0
VERTEX
  8
0
  6
CONTINUOUS
 10
4.780600
 20
2.245760
  0
VERTEX
  8
0
  6
CONTINUOUS
 10
4.780160
 20
1.513160
  0
VERTEX
  8
0
  6
CONTINUOUS
 10
4.774000
 20
1.484560
  0
SEQEND
  8
0
  0
SOLID
  8
0
 62
    15
 10
4.780160
 20
1.513160
 11
4.780600
 21
2.245760
 12
4.788080
 22
1.542640
 13
4.788520
 23
2.274800
  0
POLYLINE
  8
0
  6
CONTINUOUS
 66
     1
 40
0.000000
 41
0.000000
  0
VERTEX
  8
0
  6
CONTINUOUS
 10
4.780160
 20
1.513160
  0
VERTEX
  8
0
  6
CONTINUOUS
 10
4.780600
 20
2.245760
  0
VERTEX
  8
0
  6
CONTINUOUS
 10
4.788520
 20
2.274800
  0
VERTEX
  8
0
  6
CONTINUOUS
 10
4.788080
 20
1.542640
  0
VERTEX
  8
0
  6
CONTINUOUS
 10
4.780160
 20
1.513160
  0
SEQEND
  8
0
  0
SOLID
  8
0
 62
    15
 10
4.788080
 20
1.542640
 11
4.788520
 21
2.274800
 12
4.806560
 22
1.563320
 13
4.807000
 23
2.295920
  0
POLYLINE
  8
0
  6
CONTINUOUS
 66
     1
 40
0.000000
 41
0.000000
  0
VERTEX
  8
0
  6
CONTINUOUS
 10
4.788080
 20
1.542640
  0
VERTEX
  8
0
  6
CONTINUOUS
 10
4.788520
 20
2.274800
  0
VERTEX
  8
0
  6
CONTINUOUS
 10
4.807000
 20
2.295920
  0
VERTEX
  8
0
  6
CONTINUOUS
 10
4.806560
 20
1.563320
  0
VERTEX
  8
0
  6
CONTINUOUS
 10
4.788080
 20
1.542640
  0
SEQEND
  8
0
  0
SOLID
  8
0
 62
    15
 10
4.806560
 20
1.563320
 11
4.807000
 21
2.295920
 12
4.832080
 22
1.574760
 13
4.832080
 23
2.307360
  0
POLYLINE
  8
0
  6
CONTINUOUS
 66
     1
 40
0.000000
 41
0.000000
  0
VERTEX
  8
0
  6
CONTINUOUS
 10
4.806560
 20
1.563320
  0
VERTEX
  8
0
  6
CONTINUOUS
 10
4.807000
 20
2.295920
  0
VERTEX
  8
0
  6
CONTINUOUS
 10
4.832080
 20
2.307360
  0
VERTEX
  8
0
  6
CONTINUOUS
 10
4.832080
 20
1.574760
  0
VERTEX
  8
0
  6
CONTINUOUS
 10
4.806560
 20
1.563320
  0
SEQEND
  8
0
  0
SOLID
  8
0
 62
    15
 10
4.832080
 20
1.574760
 11
4.832080
 21
2.307360
 12
4.860680
 22
1.576960
 13
4.861120
 23
2.309560
  0
POLYLINE
  8
0
  6
CONTINUOUS
 66
     1
 40
0.000000
 41
0.000000
  0
VERTEX
  8
0
  6
CONTINUOUS
 10
4.832080
 20
1.574760
  0
VERTEX
  8
0
  6
CONTINUOUS
 10
4.832080
 20
2.307360
  0
VERTEX
  8
0
  6
CONTINUOUS
 10
4.861120
 20
2.309560
  0
VERTEX
  8
0
  6
CONTINUOUS
 10
4.860680
 20
1.576960
  0
VERTEX
  8
0
  6
CONTINUOUS
 10
4.832080
 20
1.574760
  0
SEQEND
  8
0
  0
SOLID
  8
0
 62
    15
 10
4.163280
 20
1.575640
 11
4.163720
 21
2.308240
 12
4.169880
 22
1.610840
 13
4.170320
 23
2.343440
  0
POLYLINE
  8
0
  6
CONTINUOUS
 66
     1
 40
0.000000
 41
0.000000
  0
VERTEX
  8
0
  6
CONTINUOUS
 10
4.163280
 20
1.575640
  0
VERTEX
  8
0
  6
CONTINUOUS
 10
4.163720
 20
2.308240
  0
VERTEX
  8
0
  6
CONTINUOUS
 10
4.170320
 20
2.343440
  0
VERTEX
  8
0
  6
CONTINUOUS
 10
4.169880
 20
1.610840
  0
VERTEX
  8
0
  6
CONTINUOUS
 10
4.163280
 20
1.575640
  0
SEQEND
  8
0
  0
SOLID
  8
0
 62
    15
 10
4.888840
 20
1.568600
 11
4.889280
 21
2.301200
 12
4.913480
 22
1.550120
 13
4.913920
 23
2.282720
  0
POLYLINE
  8
0
  6
CONTINUOUS
 66
     1
 40
0.000000
 41
0.000000
  0
VERTEX
  8
0
  6
CONTINUOUS
 10
4.888840
 20
1.568600
  0
VERTEX
  8
0
  6
CONTINUOUS
 10
4.889280
 20
2.301200
  0
VERTEX
  8
0
  6
CONTINUOUS
 10
4.913920
 20
2.282720
  0
VERTEX
  8
0
  6
CONTINUOUS
 10
4.913480
 20
1.550120
  0
VERTEX
  8
0
  6
CONTINUOUS
 10
4.888840
 20
1.568600
  0
SEQEND
  8
0
  0
SOLID
  8
0
 62
    15
 10
4.913480
 20
1.550120
 11
4.913920
 21
2.282720
 12
4.930640
 22
1.520640
 13
4.930640
 23
2.253240
  0
POLYLINE
  8
0
  6
CONTINUOUS
 66
     1
 40
0.000000
 41
0.000000
  0
VERTEX
  8
0
  6
CONTINUOUS
 10
4.913480
 20
1.550120
  0
VERTEX
  8
0
  6
CONTINUOUS
 10
4.913920
 20
2.282720
  0
VERTEX
  8
0
  6
CONTINUOUS
 10
4.930640
 20
2.253240
  0
VERTEX
  8
0
  6
CONTINUOUS
 10
4.930640
 20
1.520640
  0
VERTEX
  8
0
  6
CONTINUOUS
 10
4.913480
 20
1.550120
  0
SEQEND
  8
0
  0
SOLID
  8
0
 62
    15
 10
4.930640
 20
1.520640
 11
4.930640
 21
2.253240
 12
4.935040
 22
1.501720
 13
4.935480
 23
2.234320
  0
POLYLINE
  8
0
  6
CONTINUOUS
 66
     1
 40
0.000000
 41
0.000000
  0
VERTEX
  8
0
  6
CONTINUOUS
 10
4.930640
 20
1.520640
  0
VERTEX
  8
0
  6
CONTINUOUS
 10
4.930640
 20
2.253240
  0
VERTEX
  8
0
  6
CONTINUOUS
 10
4.935480
 20
2.234320
  0
VERTEX
  8
0
  6
CONTINUOUS
 10
4.935040
 20
1.501720
  0
VERTEX
  8
0
  6
CONTINUOUS
 10
4.930640
 20
1.520640
  0
SEQEND
  8
0
  0
SOLID
  8
0
 62
    15
 10
4.935040
 20
1.501720
 11
4.935480
 21
2.234320
 12
4.936360
 22
1.479720
 13
4.936800
 23
2.212320
  0
POLYLINE
  8
0
  6
CONTINUOUS
 66
     1
 40
0.000000
 41
0.000000
  0
VERTEX
  8
0
  6
CONTINUOUS
 10
4.935040
 20
1.501720
  0
VERTEX
  8
0
  6
CONTINUOUS
 10
4.935480
 20
2.234320
  0
VERTEX
  8
0
  6
CONTINUOUS
 10
4.936800
 20
2.212320
  0
VERTEX
  8
0
  6
CONTINUOUS
 10
4.936360
 20
1.479720
  0
VERTEX
  8
0
  6
CONTINUOUS
 10
4.935040
 20
1.501720
  0
SEQEND
  8
0
  0
SOLID
  8
0
 62
    15
 10
4.936360
 20
1.479720
 11
4.936800
 21
2.212320
 12
4.936360
 22
1.473560
 13
4.936800
 23
2.206160
  0
POLYLINE
  8
0
  6
CONTINUOUS
 66
     1
 40
0.000000
 41
0.000000
  0
VERTEX
  8
0
  6
CONTINUOUS
 10
4.936360
 20
1.479720
  0
VERTEX
  8
0
  6
CONTINUOUS
 10
4.936800
 20
2.212320
  0
VERTEX
  8
0
  6
CONTINUOUS
 10
4.936800
 20
2.206160
  0
VERTEX
  8
0
  6
CONTINUOUS
 10
4.936360
 20
1.473560
  0
VERTEX
  8
0
  6
CONTINUOUS
 10
4.936360
 20
1.479720
  0
SEQEND
  8
0
  0
SOLID
  8
0
 62
    15
 10
4.936360
 20
1.473560
 11
4.936800
 21
2.206160
 12
5.078040
 22
1.473560
 13
5.078480
 23
2.206160
  0
POLYLINE
  8
0
  6
CONTINUOUS
 66
     1
 40
0.000000
 41
0.000000
  0
VERTEX
  8
0
  6
CONTINUOUS
 10
4.936360
 20
1.473560
  0
VERTEX
  8
0
  6
CONTINUOUS
 10
4.936800
 20
2.206160
  0
VERTEX
  8
0
  6
CONTINUOUS
 10
5.078480
 20
2.206160
  0
VERTEX
  8
0
  6
CONTINUOUS
 10
5.078040
 20
1.473560
  0
VERTEX
  8
0
  6
CONTINUOUS
 10
4.936360
 20
1.473560
  0
SEQEND
  8
0
  0
SOLID
  8
0
 62
    15
 10
5.078040
 20
1.473560
 11
5.078480
 21
2.206160
 12
5.078040
 22
1.386000
 13
5.078480
 23
2.118600
  0
POLYLINE
  8
0
  6
CONTINUOUS
 66
     1
 40
0.000000
 41
0.000000
  0
VERTEX
  8
0
  6
CONTINUOUS
 10
5.078040
 20
1.473560
  0
VERTEX
  8
0
  6
CONTINUOUS
 10
5.078480
 20
2.206160
  0
VERTEX
  8
0
  6
CONTINUOUS
 10
5.078480
 20
2.118600
  0
VERTEX
  8
0
  6
CONTINUOUS
 10
5.078040
 20
1.386000
  0
VERTEX
  8
0
  6
CONTINUOUS
 10
5.078040
 20
1.473560
  0
SEQEND
  8
0
  0
SOLID
  8
0
 62
    15
 10
7.315440
 20
1.265000
 11
7.315880
 21
1.997600
 12
7.356360
 22
1.264560
 13
7.356800
 23
1.997160
  0
POLYLINE
  8
0
  6
CONTINUOUS
 66
     1
 40
0.000000
 41
0.000000
  0
VERTEX
  8
0
  6
CONTINUOUS
 10
7.315440
 20
1.265000
  0
VERTEX
  8
0
  6
CONTINUOUS
 10
7.315880
 20
1.997600
  0
VERTEX
  8
0
  6
CONTINUOUS
 10
7.356800
 20
1.997160
  0
VERTEX
  8
0
  6
CONTINUOUS
 10
7.356360
 20
1.264560
  0
VERTEX
  8
0
  6
CONTINUOUS
 10
7.315440
 20
1.265000
  0
SEQEND
  8
0
  0
SOLID
  8
0
 62
    15
 10
7.315440
 20
1.331880
 11
7.315880
 21
2.064480
 12
7.315440
 22
1.265000
 13
7.315880
 23
1.997600
  0
POLYLINE
  8
0
  6
CONTINUOUS
 66
     1
 40
0.000000
 41
0.000000
  0
VERTEX
  8
0
  6
CONTINUOUS
 10
7.315440
 20
1.331880
  0
VERTEX
  8
0
  6
CONTINUOUS
 10
7.315880
 20
2.064480
  0
VERTEX
  8
0
  6
CONTINUOUS
 10
7.315880
 20
1.997600
  0
VERTEX
  8
0
  6
CONTINUOUS
 10
7.315440
 20
1.265000
  0
VERTEX
  8
0
  6
CONTINUOUS
 10
7.315440
 20
1.331880
  0
SEQEND
  8
0
  0
SOLID
  8
0
 62
    15
 10
6.513320
 20
1.331880
 11
6.513760
 21
2.064480
 12
7.315440
 22
1.331880
 13
7.315880
 23
2.064480
  0
POLYLINE
  8
0
  6
CONTINUOUS
 66
     1
 40
0.000000
 41
0.000000
  0
VERTEX
  8
0
  6
CONTINUOUS
 10
6.513320
 20
1.331880
  0
VERTEX
  8
0
  6
CONTINUOUS
 10
6.513760
 20
2.064480
  0
VERTEX
  8
0
  6
CONTINUOUS
 10
7.315880
 20
2.064480
  0
VERTEX
  8
0
  6
CONTINUOUS
 10
7.315440
 20
1.331880
  0
VERTEX
  8
0
  6
CONTINUOUS
 10
6.513320
 20
1.331880
  0
SEQEND
  8
0
  0
SOLID
  8
0
 62
    15
 10
6.513320
 20
1.386000
 11
6.513760
 21
2.118600
 12
6.513320
 22
1.331880
 13
6.513760
 23
2.064480
  0
POLYLINE
  8
0
  6
CONTINUOUS
 66
     1
 40
0.000000
 41
0.000000
  0
VERTEX
  8
0
  6
CONTINUOUS
 10
6.513320
 20
1.386000
  0
VERTEX
  8
0
  6
CONTINUOUS
 10
6.513760
 20
2.118600
  0
VERTEX
  8
0
  6
CONTINUOUS
 10
6.513760
 20
2.064480
  0
VERTEX
  8
0
  6
CONTINUOUS
 10
6.513320
 20
1.331880
  0
VERTEX
  8
0
  6
CONTINUOUS
 10
6.513320
 20
1.386000
  0
SEQEND
  8
0
  0
SOLID
  8
0
 62
    15
 10
5.078040
 20
1.386000
 11
5.078480
 21
2.118600
 12
6.513320
 22
1.386000
 13
6.513760
 23
2.118600
  0
POLYLINE
  8
0
  6
CONTINUOUS
 66
     1
 40
0.000000
 41
0.000000
  0
VERTEX
  8
0
  6
CONTINUOUS
 10
5.078040
 20
1.386000
  0
VERTEX
  8
0
  6
CONTINUOUS
 10
5.078480
 20
2.118600
  0
VERTEX
  8
0
  6
CONTINUOUS
 10
6.513760
 20
2.118600
  0
VERTEX
  8
0
  6
CONTINUOUS
 10
6.513320
 20
1.386000
  0
VERTEX
  8
0
  6
CONTINUOUS
 10
5.078040
 20
1.386000
  0
SEQEND
  8
0
  0
SOLID
  8
0
 62
    15
 10
7.356360
 20
1.264560
 11
7.356800
 21
1.997160
 12
7.393320
 22
1.262360
 13
7.393760
 23
1.994960
  0
POLYLINE
  8
0
  6
CONTINUOUS
 66
     1
 40
0.000000
 41
0.000000
  0
VERTEX
  8
0
  6
CONTINUOUS
 10
7.356360
 20
1.264560
  0
VERTEX
  8
0
  6
CONTINUOUS
 10
7.356800
 20
1.997160
  0
VERTEX
  8
0
  6
CONTINUOUS
 10
7.393760
 20
1.994960
  0
VERTEX
  8
0
  6
CONTINUOUS
 10
7.393320
 20
1.262360
  0
VERTEX
  8
0
  6
CONTINUOUS
 10
7.356360
 20
1.264560
  0
SEQEND
  8
0
  0
SOLID
  8
0
 62
    15
 10
7.393320
 20
1.262360
 11
7.393760
 21
1.994960
 12
7.425880
 22
1.258840
 13
7.426320
 23
1.991440
  0
POLYLINE
  8
0
  6
CONTINUOUS
 66
     1
 40
0.000000
 41
0.000000
  0
VERTEX
  8
0
  6
CONTINUOUS
 10
7.393320
 20
1.262360
  0
VERTEX
  8
0
  6
CONTINUOUS
 10
7.393760
 20
1.994960
  0
VERTEX
  8
0
  6
CONTINUOUS
 10
7.426320
 20
1.991440
  0
VERTEX
  8
0
  6
CONTINUOUS
 10
7.425880
 20
1.258840
  0
VERTEX
  8
0
  6
CONTINUOUS
 10
7.393320
 20
1.262360
  0
SEQEND
  8
0
  0
SOLID
  8
0
 62
    15
 10
7.425880
 20
1.258840
 11
7.426320
 21
1.991440
 12
7.454920
 22
1.254000
 13
7.454920
 23
1.986600
  0
POLYLINE
  8
0
  6
CONTINUOUS
 66
     1
 40
0.000000
 41
0.000000
  0
VERTEX
  8
0
  6
CONTINUOUS
 10
7.425880
 20
1.258840
  0
VERTEX
  8
0
  6
CONTINUOUS
 10
7.426320
 20
1.991440
  0
VERTEX
  8
0
  6
CONTINUOUS
 10
7.454920
 20
1.986600
  0
VERTEX
  8
0
  6
CONTINUOUS
 10
7.454920
 20
1.254000
  0
VERTEX
  8
0
  6
CONTINUOUS
 10
7.425880
 20
1.258840
  0
SEQEND
  8
0
  0
SOLID
  8
0
 62
    15
 10
7.454920
 20
1.254000
 11
7.454920
 21
1.986600
 12
7.502880
 22
1.239920
 13
7.502880
 23
1.972520
  0
POLYLINE
  8
0
  6
CONTINUOUS
 66
     1
 40
0.000000
 41
0.000000
  0
VERTEX
  8
0
  6
CONTINUOUS
 10
7.454920
 20
1.254000
  0
VERTEX
  8
0
  6
CONTINUOUS
 10
7.454920
 20
1.986600
  0
VERTEX
  8
0
  6
CONTINUOUS
 10
7.502880
 20
1.972520
  0
VERTEX
  8
0
  6
CONTINUOUS
 10
7.502880
 20
1.239920
  0
VERTEX
  8
0
  6
CONTINUOUS
 10
7.454920
 20
1.254000
  0
SEQEND
  8
0
  0
SOLID
  8
0
 62
    15
 10
7.502880
 20
1.239920
 11
7.502880
 21
1.972520
 12
7.539400
 22
1.219680
 13
7.539840
 23
1.952280
  0
POLYLINE
  8
0
  6
CONTINUOUS
 66
     1
 40
0.000000
 41
0.000000
  0
VERTEX
  8
0
  6
CONTINUOUS
 10
7.502880
 20
1.239920
  0
VERTEX
  8
0
  6
CONTINUOUS
 10
7.502880
 20
1.972520
  0
VERTEX
  8
0
  6
CONTINUOUS
 10
7.539840
 20
1.952280
  0
VERTEX
  8
0
  6
CONTINUOUS
 10
7.539400
 20
1.219680
  0
VERTEX
  8
0
  6
CONTINUOUS
 10
7.502880
 20
1.239920
  0
SEQEND
  8
0
  0
SOLID
  8
0
 62
    15
 10
7.539400
 20
1.219680
 11
7.539840
 21
1.952280
 12
7.567560
 22
1.193280
 13
7.568000
 23
1.925880
  0
POLYLINE
  8
0
  6
CONTINUOUS
 66
     1
 40
0.000000
 41
0.000000
  0
VERTEX
  8
0
  6
CONTINUOUS
 10
7.539400
 20
1.219680
  0
VERTEX
  8
0
  6
CONTINUOUS
 10
7.539840
 20
1.952280
  0
VERTEX
  8
0
  6
CONTINUOUS
 10
7.568000
 20
1.925880
  0
VERTEX
  8
0
  6
CONTINUOUS
 10
7.567560
 20
1.193280
  0
VERTEX
  8
0
  6
CONTINUOUS
 10
7.539400
 20
1.219680
  0
SEQEND
  8
0
  0
SOLID
  8
0
 62
    15
 10
7.567560
 20
1.193280
 11
7.568000
 21
1.925880
 12
7.589560
 22
1.160720
 13
7.590000
 23
1.892880
  0
POLYLINE
  8
0
  6
CONTINUOUS
 66
     1
 40
0.000000
 41
0.000000
  0
VERTEX
  8
0
  6
CONTINUOUS
 10
7.567560
 20
1.193280
  0
VERTEX
  8
0
  6
CONTINUOUS
 10
7.568000
 20
1.925880
  0
VERTEX
  8
0
  6
CONTINUOUS
 10
7.590000
 20
1.892880
  0
VERTEX
  8
0
  6
CONTINUOUS
 10
7.589560
 20
1.160720
  0
VERTEX
  8
0
  6
CONTINUOUS
 10
7.567560
 20
1.193280
  0
SEQEND
  8
0
  0
SOLID
  8
0
 62
    15
 10
7.589560
 20
1.160720
 11
7.590000
 21
1.892880
 12
7.608480
 22
1.121560
 13
7.608480
 23
1.853720
  0
POLYLINE
  8
0
  6
CONTINUOUS
 66
     1
 40
0.000000
 41
0.000000
  0
VERTEX
  8
0
  6
CONTINUOUS
 10
7.589560
 20
1.160720
  0
VERTEX
  8
0
  6
CONTINUOUS
 10
7.590000
 20
1.892880
  0
VERTEX
  8
0
  6
CONTINUOUS
 10
7.608480
 20
1.853720
  0
VERTEX
  8
0
  6
CONTINUOUS
 10
7.608480
 20
1.121560
  0
VERTEX
  8
0
  6
CONTINUOUS
 10
7.589560
 20
1.160720
  0
SEQEND
  8
0
  0
SOLID
  8
0
 62
    15
 10
7.608480
 20
1.121560
 11
7.608480
 21
1.853720
 12
7.626080
 22
1.075360
 13
7.626080
 23
1.807960
  0
POLYLINE
  8
0
  6
CONTINUOUS
 66
     1
 40
0.000000
 41
0.000000
  0
VERTEX
  8
0
  6
CONTINUOUS
 10
7.608480
 20
1.121560
  0
VERTEX
  8
0
  6
CONTINUOUS
 10
7.608480
 20
1.853720
  0
VERTEX
  8
0
  6
CONTINUOUS
 10
7.626080
 20
1.807960
  0
VERTEX
  8
0
  6
CONTINUOUS
 10
7.626080
 20
1.075360
  0
VERTEX
  8
0
  6
CONTINUOUS
 10
7.608480
 20
1.121560
  0
SEQEND
  8
0
  0
SOLID
  8
0
 62
    15
 10
7.748840
 20
1.075360
 11
7.749280
 21
1.807960
 12
7.748840
 22
0.854480
 13
7.749280
 23
1.587080
  0
POLYLINE
  8
0
  6
CONTINUOUS
 66
     1
 40
0.000000
 41
0.000000
  0
VERTEX
  8
0
  6
CONTINUOUS
 10
7.748840
 20
1.075360
  0
VERTEX
  8
0
  6
CONTINUOUS
 10
7.749280
 20
1.807960
  0
VERTEX
  8
0
  6
CONTINUOUS
 10
7.749280
 20
1.587080
  0
VERTEX
  8
0
  6
CONTINUOUS
 10
7.748840
 20
0.854480
  0
VERTEX
  8
0
  6
CONTINUOUS
 10
7.748840
 20
1.075360
  0
SEQEND
  8
0
  0
SOLID
  8
0
 62
    15
 10
7.626080
 20
1.075360
 11
7.626080
 21
1.807960
 12
7.748840
 22
1.075360
 13
7.749280
 23
1.807960
  0
POLYLINE
  8
0
  6
CONTINUOUS
 66
     1
 40
0.000000
 41
0.000000
  0
VERTEX
  8
0
  6
CONTINUOUS
 10
7.626080
 20
1.075360
  0
VERTEX
  8
0
  6
CONTINUOUS
 10
7.626080
 20
1.807960
  0
VERTEX
  8
0
  6
CONTINUOUS
 10
7.749280
 20
1.807960
  0
VERTEX
  8
0
  6
CONTINUOUS
 10
7.748840
 20
1.075360
  0
VERTEX
  8
0
  6
CONTINUOUS
 10
7.626080
 20
1.075360
  0
SEQEND
  8
0
  0
SOLID
  8
0
 62
    15
 10
3.703040
 20
1.700600
 11
3.703480
 21
2.433200
 12
4.082320
 22
1.700600
 13
4.082320
 23
2.433200
  0
POLYLINE
  8
0
  6
CONTINUOUS
 66
     1
 40
0.000000
 41
0.000000
  0
VERTEX
  8
0
  6
CONTINUOUS
 10
3.703040
 20
1.700600
  0
VERTEX
  8
0
  6
CONTINUOUS
 10
3.703480
 20
2.433200
  0
VERTEX
  8
0
  6
CONTINUOUS
 10
4.082320
 20
2.433200
  0
VERTEX
  8
0
  6
CONTINUOUS
 10
4.082320
 20
1.700600
  0
VERTEX
  8
0
  6
CONTINUOUS
 10
3.703040
 20
1.700600
  0
SEQEND
  8
0
  0
SOLID
  8
0
 62
    15
 10
4.082320
 20
1.700600
 11
4.082320
 21
2.433200
 12
4.082320
 22
1.573440
 13
4.082320
 23
2.306040
  0
POLYLINE
  8
0
  6
CONTINUOUS
 66
     1
 40
0.000000
 41
0.000000
  0
VERTEX
  8
0
  6
CONTINUOUS
 10
4.082320
 20
1.700600
  0
VERTEX
  8
0
  6
CONTINUOUS
 10
4.082320
 20
2.433200
  0
VERTEX
  8
0
  6
CONTINUOUS
 10
4.082320
 20
2.306040
  0
VERTEX
  8
0
  6
CONTINUOUS
 10
4.082320
 20
1.573440
  0
VERTEX
  8
0
  6
CONTINUOUS
 10
4.082320
 20
1.700600
  0
SEQEND
  8
0
  0
SOLID
  8
0
 62
    15
 10
4.082320
 20
1.573440
 11
4.082320
 21
2.306040
 12
4.159320
 22
1.573440
 13
4.159760
 23
2.306040
  0
POLYLINE
  8
0
  6
CONTINUOUS
 66
     1
 40
0.000000
 41
0.000000
  0
VERTEX
  8
0
  6
CONTINUOUS
 10
4.082320
 20
1.573440
  0
VERTEX
  8
0
  6
CONTINUOUS
 10
4.082320
 20
2.306040
  0
VERTEX
  8
0
  6
CONTINUOUS
 10
4.159760
 20
2.306040
  0
VERTEX
  8
0
  6
CONTINUOUS
 10
4.159320
 20
1.573440
  0
VERTEX
  8
0
  6
CONTINUOUS
 10
4.082320
 20
1.573440
  0
SEQEND
  8
0
  0
SOLID
  8
0
 62
    15
 10
4.169880
 20
1.610840
 11
4.170320
 21
2.343440
 12
4.180880
 22
1.639000
 13
4.181320
 23
2.371600
  0
POLYLINE
  8
0
  6
CONTINUOUS
 66
     1
 40
0.000000
 41
0.000000
  0
VERTEX
  8
0
  6
CONTINUOUS
 10
4.169880
 20
1.610840
  0
VERTEX
  8
0
  6
CONTINUOUS
 10
4.170320
 20
2.343440
  0
VERTEX
  8
0
  6
CONTINUOUS
 10
4.181320
 20
2.371600
  0
VERTEX
  8
0
  6
CONTINUOUS
 10
4.180880
 20
1.639000
  0
VERTEX
  8
0
  6
CONTINUOUS
 10
4.169880
 20
1.610840
  0
SEQEND
  8
0
  0
POLYLINE
  8
0
  6
CONTINUOUS
 66
     1
 40
0.000000
 41
0.000000
  0
VERTEX
  8
0
  6
CONTINUOUS
 10
4.163280
 20
1.575640
  0
VERTEX
  8
0
  6
CONTINUOUS
 10
4.169880
 20
1.610840
  0
VERTEX
  8
0
  6
CONTINUOUS
 10
4.180880
 20
1.639000
  0
VERTEX
  8
0
  6
CONTINUOUS
 10
4.195840
 20
1.660560
  0
VERTEX
  8
0
  6
CONTINUOUS
 10
4.213440
 20
1.675960
  0
VERTEX
  8
0
  6
CONTINUOUS
 10
4.233680
 20
1.686080
  0
VERTEX
  8
0
  6
CONTINUOUS
 10
4.256120
 20
1.691360
  0
VERTEX
  8
0
  6
CONTINUOUS
 10
4.304520
 20
1.690040
  0
VERTEX
  8
0
  6
CONTINUOUS
 10
4.353800
 20
1.676400
  0
VERTEX
  8
0
  6
CONTINUOUS
 10
4.399560
 20
1.654840
  0
VERTEX
  8
0
  6
CONTINUOUS
 10
4.436960
 20
1.631080
  0
VERTEX
  8
0
  6
CONTINUOUS
 10
4.461160
 20
1.608640
  0
VERTEX
  8
0
  6
CONTINUOUS
 10
4.499440
 20
1.570800
  0
VERTEX
  8
0
  6
CONTINUOUS
 10
4.525840
 20
1.550120
  0
VERTEX
  8
0
  6
CONTINUOUS
 10
4.558400
 20
1.529440
  0
VERTEX
  8
0
  6
CONTINUOUS
 10
4.596240
 20
1.510080
  0
VERTEX
  8
0
  6
CONTINUOUS
 10
4.640680
 20
1.493800
  0
VERTEX
  8
0
  6
CONTINUOUS
 10
4.691280
 20
1.481040
  0
VERTEX
  8
0
  6
CONTINUOUS
 10
4.748920
 20
1.473560
  0
VERTEX
  8
0
  6
CONTINUOUS
 10
4.764760
 20
1.475760
  0
VERTEX
  8
0
  6
CONTINUOUS
 10
4.774000
 20
1.484560
  0
VERTEX
  8
0
  6
CONTINUOUS
 10
4.788080
 20
1.542640
  0
VERTEX
  8
0
  6
CONTINUOUS
 10
4.806560
 20
1.563320
  0
VERTEX
  8
0
  6
CONTINUOUS
 10
4.832080
 20
1.574760
  0
VERTEX
  8
0
  6
CONTINUOUS
 10
4.860680
 20
1.576960
  0
VERTEX
  8
0
  6
CONTINUOUS
 10
4.888840
 20
1.568600
  0
VERTEX
  8
0
  6
CONTINUOUS
 10
4.913480
 20
1.550120
  0
VERTEX
  8
0
  6
CONTINUOUS
 10
4.930640
 20
1.520640
  0
VERTEX
  8
0
  6
CONTINUOUS
 10
4.935040
 20
1.501720
  0
VERTEX
  8
0
  6
CONTINUOUS
 10
4.936360
 20
1.473560
  0
VERTEX
  8
0
  6
CONTINUOUS
 10
5.078040
 20
1.473560
  0
VERTEX
  8
0
  6
CONTINUOUS
 10
5.078040
 20
1.386000
  0
VERTEX
  8
0
  6
CONTINUOUS
 10
6.513320
 20
1.386000
  0
VERTEX
  8
0
  6
CONTINUOUS
 10
6.513320
 20
1.331880
  0
VERTEX
  8
0
  6
CONTINUOUS
 10
7.315440
 20
1.331880
  0
VERTEX
  8
0
  6
CONTINUOUS
 10
7.315440
 20
1.265000
  0
VERTEX
  8
0
  6
CONTINUOUS
 10
7.356360
 20
1.264560
  0
VERTEX
  8
0
  6
CONTINUOUS
 10
7.393320
 20
1.262360
  0
VERTEX
  8
0
  6
CONTINUOUS
 10
7.425880
 20
1.258840
  0
VERTEX
  8
0
  6
CONTINUOUS
 10
7.454920
 20
1.254000
  0
VERTEX
  8
0
  6
CONTINUOUS
 10
7.502880
 20
1.239920
  0
VERTEX
  8
0
  6
CONTINUOUS
 10
7.539400
 20
1.219680
  0
VERTEX
  8
0
  6
CONTINUOUS
 10
7.567560
 20
1.193280
  0
VERTEX
  8
0
  6
CONTINUOUS
 10
7.589560
 20
1.160720
  0
VERTEX
  8
0
  6
CONTINUOUS
 10
7.608480
 20
1.121560
  0
VERTEX
  8
0
  6
CONTINUOUS
 10
7.626080
 20
1.075360
  0
VERTEX
  8
0
  6
CONTINUOUS
 10
7.748840
 20
1.075360
  0
VERTEX
  8
0
  6
CONTINUOUS
 10
7.748840
 20
0.854480
  0
VERTEX
  8
0
  6
CONTINUOUS
 10
3.703040
 20
0.854480
  0
VERTEX
  8
0
  6
CONTINUOUS
 10
3.703040
 20
1.700600
  0
VERTEX
  8
0
  6
CONTINUOUS
 10
4.082320
 20
1.700600
  0
VERTEX
  8
0
  6
CONTINUOUS
 10
4.082320
 20
1.573440
  0
VERTEX
  8
0
  6
CONTINUOUS
 10
4.159320
 20
1.573440
  0
VERTEX
  8
0
  6
CONTINUOUS
 10
4.163280
 20
1.575640
  0
SEQEND
  8
0
  0
TEXT
  8
0
 10
5.431360
 20
0.615120
 40
0.138029
  1
BA  304
 41
1.000000
  7
SN0
 71
     0
 72
     5
 11
6.022394
 21
0.615120
  0
TEXT
  8
0
 10
5.229400
 20
0.423280
 40
0.138029
  1
3/4" x 4-1/16"
 41
1.000000
  7
SN0
 71
     0
 72
     5
 11
6.223793
 21
0.423280
  0
TEXT
  8
0
 10
7.688560
 20
3.652000
 40
0.138029
  1
case
 41
1.000000
  7
SN0
 71
     0
 72
     5
 11
8.039733
 21
3.652000
  0
TEXT
  8
0
 10
7.725520
 20
3.460600
 40
0.138029
  1
304
 41
1.000000
  7
SN0
 71
     0
 72
     5
 11
8.002964
 21
3.460600
  0
ENDSEC
  0
EOF
