  0
SECTION
  2
HEADER
  9
$ACADVER
  1
AC1006
  9
$EXTMIN
 10
2.963400
 20
4.635400
  9
$EXTMAX
 10
5.536520
 20
6.355800
  9
$LTSCALE
 40
0.044000
  9
$PDMODE
 70
    35
  9
$PDSIZE
 40
0.035200
  0
ENDSEC
  0
SECTION
  2
TABLES
  0
TABLE
  2
LTYPE
 70
     9
  0
LTYPE
  2
CONTINUOUS
 70
    64
  3
Solid line
 72
    65
 73
     0
 40
0.000000
  0
LTYPE
  2
DASHED
 70
    64
  3
__ __ __ __ __ __ __ __ __ __ __ __ __ __ __
 72
    65
 73
     2
 40
0.000330
 49
0.000220
 49
-0.000110
  0
LTYPE
  2
HIDDEN
 70
    64
  3
 _ _ _ _ _ _ _ _ _ _ _ _ _ _ _ _ _ _ _ _ _ _
 72
    65
 73
     2
 40
0.000165
 49
0.000110
 49
-0.000055
  0
LTYPE
  2
CENTER
 70
    64
  3
____ _ ____ _ ____ _ ____ _ ____ _ ____ _ ____
 72
    65
 73
     4
 40
0.000880
 49
0.000550
 49
-0.000110
 49
0.000110
 49
-0.000110
  0
LTYPE
  2
PHANTOM
 70
    64
  3
_____ _ _ _____ _ _ _____ _ _ _____ _ _ ____
 72
    65
 73
     6
 40
0.001100
 49
0.000550
 49
-0.000110
 49
0.000110
 49
-0.000110
 49
0.000110
 49
-0.000110
  0
LTYPE
  2
DOT
 70
    64
  3
...............................................
 72
    65
 73
     2
 40
0.000110
 49
0.000000
 49
-0.000110
  0
LTYPE
  2
DASHDOT
 70
    64
  3
__ . __ . __ . __ . __ . __ . __ . __ . __ . __
 72
    65
 73
     4
 40
0.000440
 49
0.000220
 49
-0.000110
 49
0.000000
 49
-0.000110
  0
LTYPE
  2
BORDER
 70
    64
  3
__ __ . __ __ . __ __ . __ __ . __ __ . __ __
 72
    65
 73
     6
 40
0.000770
 49
0.000220
 49
-0.000110
 49
0.000220
 49
-0.000110
 49
0.000000
 49
-0.000110
  0
LTYPE
  2
DIVIDE
 70
    64
  3
__ . . __ . . __ . . __ . . __ . . __ . . __
 72
    65
 73
     6
 40
0.000550
 49
0.000220
 49
-0.000110
 49
0.000000
 49
-0.000110
 49
0.000000
 49
-0.000110
  0
LTYPE
  2
DOTDOT
 70
    64
  3
 . .  . .  . .  . .  . .  . . 
 72
    65
 73
     5
 40
0.000242
 49
-0.000110
 49
0.000000
 49
-0.000110
 49
0.000000
 49
-0.000110
  0
ENDTAB
  0
TABLE
  2
STYLE
 70
     2
  0
STYLE
 70
     0
  2
SN0
 40
0.000000
 41
0.000440
 50
0.000000
 71
     0
 42
0.000000
  3
ROMAND
  0
STYLE
 70
    68
  2
SV0
 40
0.000000
 41
0.000440
 50
0.000000
 71
     0
 42
0.000000
  3
ROMAND
  0
ENDTAB
  0
TABLE
  2
LAYER
 70
     3
  0
LAYER
  2
FOREGROUND
 70
    64
 62
     7
  6
CONTINUOUS
  0
LAYER
  2
BACKGROUND
 70
    65
 62
    -7
  6
CONTINUOUS
  0
LAYER
  2
0
 70
    64
 62
     7
  6
CONTINUOUS
  0
ENDTAB
  0
ENDSEC
  0
SECTION
  2
ENTITIES
  0
POLYLINE
  8
FOREGROUND
  6
CONTINUOUS
 66
     1
 40
0.000000
 41
0.000000
  0
VERTEX
  8
FOREGROUND
  6
CONTINUOUS
 10
0.000000
 20
10.991200
  0
VERTEX
  8
FOREGROUND
  6
CONTINUOUS
 10
8.499920
 20
10.991200
  0
VERTEX
  8
FOREGROUND
  6
CONTINUOUS
 10
8.499920
 20
-0.008800
  0
VERTEX
  8
FOREGROUND
  6
CONTINUOUS
 10
0.000000
 20
-0.008800
  0
VERTEX
  8
FOREGROUND
  6
CONTINUOUS
 10
0.000000
 20
10.991200
  0
SEQEND
  8
0
  0
POLYLINE
  8
FOREGROUND
  6
CONTINUOUS
 66
     1
 40
0.000000
 41
0.000000
  0
VERTEX
  8
FOREGROUND
  6
CONTINUOUS
 10
0.000000
 20
10.991200
  0
VERTEX
  8
FOREGROUND
  6
CONTINUOUS
 10
8.499920
 20
10.991200
  0
VERTEX
  8
FOREGROUND
  6
CONTINUOUS
 10
8.499920
 20
-0.008800
  0
VERTEX
  8
FOREGROUND
  6
CONTINUOUS
 10
0.000000
 20
-0.008800
  0
VERTEX
  8
FOREGROUND
  6
CONTINUOUS
 10
0.000000
 20
10.991200
  0
SEQEND
  8
0
  0
TEXT
  8
0
 10
3.232680
 20
4.862440
 40
0.138107
  1
BA  303
 41
1.000000
  7
SN0
 71
     0
 72
     5
 11
3.822954
 21
4.862440
  0
TEXT
  8
0
 10
3.076920
 20
4.670600
 40
0.138107
  1
1/2" x 1-1/8"
 41
1.000000
  7
SN0
 71
     0
 72
     5
 11
3.977512
 21
4.670600
  0
SOLID
  8
0
 62
    15
 10
3.692480
 20
5.379880
 11
3.695560
 21
6.125240
 12
3.705680
 22
5.366240
 13
3.708760
 23
6.111160
  0
POLYLINE
  8
0
  6
CONTINUOUS
 66
     1
 40
0.000000
 41
0.000000
  0
VERTEX
  8
0
  6
CONTINUOUS
 10
3.692480
 20
5.379880
  0
VERTEX
  8
0
  6
CONTINUOUS
 10
3.695560
 20
6.125240
  0
VERTEX
  8
0
  6
CONTINUOUS
 10
3.708760
 20
6.111160
  0
VERTEX
  8
0
  6
CONTINUOUS
 10
3.705680
 20
5.366240
  0
VERTEX
  8
0
  6
CONTINUOUS
 10
3.692480
 20
5.379880
  0
SEQEND
  8
0
  0
SOLID
  8
0
 62
    15
 10
3.353680
 20
5.610000
 11
3.356320
 21
6.354920
 12
3.353680
 22
5.505720
 13
3.356320
 23
6.251080
  0
POLYLINE
  8
0
  6
CONTINUOUS
 66
     1
 40
0.000000
 41
0.000000
  0
VERTEX
  8
0
  6
CONTINUOUS
 10
3.353680
 20
5.610000
  0
VERTEX
  8
0
  6
CONTINUOUS
 10
3.356320
 20
6.354920
  0
VERTEX
  8
0
  6
CONTINUOUS
 10
3.356320
 20
6.251080
  0
VERTEX
  8
0
  6
CONTINUOUS
 10
3.353680
 20
5.505720
  0
VERTEX
  8
0
  6
CONTINUOUS
 10
3.353680
 20
5.610000
  0
SEQEND
  8
0
  0
SOLID
  8
0
 62
    15
 10
3.353680
 20
5.505720
 11
3.356320
 21
6.251080
 12
3.392400
 22
5.506160
 13
3.395480
 23
6.251080
  0
POLYLINE
  8
0
  6
CONTINUOUS
 66
     1
 40
0.000000
 41
0.000000
  0
VERTEX
  8
0
  6
CONTINUOUS
 10
3.353680
 20
5.505720
  0
VERTEX
  8
0
  6
CONTINUOUS
 10
3.356320
 20
6.251080
  0
VERTEX
  8
0
  6
CONTINUOUS
 10
3.395480
 20
6.251080
  0
VERTEX
  8
0
  6
CONTINUOUS
 10
3.392400
 20
5.506160
  0
VERTEX
  8
0
  6
CONTINUOUS
 10
3.353680
 20
5.505720
  0
SEQEND
  8
0
  0
SOLID
  8
0
 62
    15
 10
3.392400
 20
5.506160
 11
3.395480
 21
6.251080
 12
3.428040
 22
5.504400
 13
3.431120
 23
6.249760
  0
POLYLINE
  8
0
  6
CONTINUOUS
 66
     1
 40
0.000000
 41
0.000000
  0
VERTEX
  8
0
  6
CONTINUOUS
 10
3.392400
 20
5.506160
  0
VERTEX
  8
0
  6
CONTINUOUS
 10
3.395480
 20
6.251080
  0
VERTEX
  8
0
  6
CONTINUOUS
 10
3.431120
 20
6.249760
  0
VERTEX
  8
0
  6
CONTINUOUS
 10
3.428040
 20
5.504400
  0
VERTEX
  8
0
  6
CONTINUOUS
 10
3.392400
 20
5.506160
  0
SEQEND
  8
0
  0
SOLID
  8
0
 62
    15
 10
3.428040
 20
5.504400
 11
3.431120
 21
6.249760
 12
3.460600
 22
5.501320
 13
3.463680
 23
6.246680
  0
POLYLINE
  8
0
  6
CONTINUOUS
 66
     1
 40
0.000000
 41
0.000000
  0
VERTEX
  8
0
  6
CONTINUOUS
 10
3.428040
 20
5.504400
  0
VERTEX
  8
0
  6
CONTINUOUS
 10
3.431120
 20
6.249760
  0
VERTEX
  8
0
  6
CONTINUOUS
 10
3.463680
 20
6.246680
  0
VERTEX
  8
0
  6
CONTINUOUS
 10
3.460600
 20
5.501320
  0
VERTEX
  8
0
  6
CONTINUOUS
 10
3.428040
 20
5.504400
  0
SEQEND
  8
0
  0
SOLID
  8
0
 62
    15
 10
3.460600
 20
5.501320
 11
3.463680
 21
6.246680
 12
3.490080
 22
5.496920
 13
3.493160
 23
6.242280
  0
POLYLINE
  8
0
  6
CONTINUOUS
 66
     1
 40
0.000000
 41
0.000000
  0
VERTEX
  8
0
  6
CONTINUOUS
 10
3.460600
 20
5.501320
  0
VERTEX
  8
0
  6
CONTINUOUS
 10
3.463680
 20
6.246680
  0
VERTEX
  8
0
  6
CONTINUOUS
 10
3.493160
 20
6.242280
  0
VERTEX
  8
0
  6
CONTINUOUS
 10
3.490080
 20
5.496920
  0
VERTEX
  8
0
  6
CONTINUOUS
 10
3.460600
 20
5.501320
  0
SEQEND
  8
0
  0
SOLID
  8
0
 62
    15
 10
3.490080
 20
5.496920
 11
3.493160
 21
6.242280
 12
3.516920
 22
5.491200
 13
3.520000
 23
6.236120
  0
POLYLINE
  8
0
  6
CONTINUOUS
 66
     1
 40
0.000000
 41
0.000000
  0
VERTEX
  8
0
  6
CONTINUOUS
 10
3.490080
 20
5.496920
  0
VERTEX
  8
0
  6
CONTINUOUS
 10
3.493160
 20
6.242280
  0
VERTEX
  8
0
  6
CONTINUOUS
 10
3.520000
 20
6.236120
  0
VERTEX
  8
0
  6
CONTINUOUS
 10
3.516920
 20
5.491200
  0
VERTEX
  8
0
  6
CONTINUOUS
 10
3.490080
 20
5.496920
  0
SEQEND
  8
0
  0
SOLID
  8
0
 62
    15
 10
3.516920
 20
5.491200
 11
3.520000
 21
6.236120
 12
3.541560
 22
5.483720
 13
3.544640
 23
6.229080
  0
POLYLINE
  8
0
  6
CONTINUOUS
 66
     1
 40
0.000000
 41
0.000000
  0
VERTEX
  8
0
  6
CONTINUOUS
 10
3.516920
 20
5.491200
  0
VERTEX
  8
0
  6
CONTINUOUS
 10
3.520000
 20
6.236120
  0
VERTEX
  8
0
  6
CONTINUOUS
 10
3.544640
 20
6.229080
  0
VERTEX
  8
0
  6
CONTINUOUS
 10
3.541560
 20
5.483720
  0
VERTEX
  8
0
  6
CONTINUOUS
 10
3.516920
 20
5.491200
  0
SEQEND
  8
0
  0
SOLID
  8
0
 62
    15
 10
3.541560
 20
5.483720
 11
3.544640
 21
6.229080
 12
3.564000
 22
5.475360
 13
3.567080
 23
6.220720
  0
POLYLINE
  8
0
  6
CONTINUOUS
 66
     1
 40
0.000000
 41
0.000000
  0
VERTEX
  8
0
  6
CONTINUOUS
 10
3.541560
 20
5.483720
  0
VERTEX
  8
0
  6
CONTINUOUS
 10
3.544640
 20
6.229080
  0
VERTEX
  8
0
  6
CONTINUOUS
 10
3.567080
 20
6.220720
  0
VERTEX
  8
0
  6
CONTINUOUS
 10
3.564000
 20
5.475360
  0
VERTEX
  8
0
  6
CONTINUOUS
 10
3.541560
 20
5.483720
  0
SEQEND
  8
0
  0
SOLID
  8
0
 62
    15
 10
3.564000
 20
5.475360
 11
3.567080
 21
6.220720
 12
3.584240
 22
5.466120
 13
3.587320
 23
6.211040
  0
POLYLINE
  8
0
  6
CONTINUOUS
 66
     1
 40
0.000000
 41
0.000000
  0
VERTEX
  8
0
  6
CONTINUOUS
 10
3.564000
 20
5.475360
  0
VERTEX
  8
0
  6
CONTINUOUS
 10
3.567080
 20
6.220720
  0
VERTEX
  8
0
  6
CONTINUOUS
 10
3.587320
 20
6.211040
  0
VERTEX
  8
0
  6
CONTINUOUS
 10
3.584240
 20
5.466120
  0
VERTEX
  8
0
  6
CONTINUOUS
 10
3.564000
 20
5.475360
  0
SEQEND
  8
0
  0
SOLID
  8
0
 62
    15
 10
3.584240
 20
5.466120
 11
3.587320
 21
6.211040
 12
3.620320
 22
5.444560
 13
3.623400
 23
6.189480
  0
POLYLINE
  8
0
  6
CONTINUOUS
 66
     1
 40
0.000000
 41
0.000000
  0
VERTEX
  8
0
  6
CONTINUOUS
 10
3.584240
 20
5.466120
  0
VERTEX
  8
0
  6
CONTINUOUS
 10
3.587320
 20
6.211040
  0
VERTEX
  8
0
  6
CONTINUOUS
 10
3.623400
 20
6.189480
  0
VERTEX
  8
0
  6
CONTINUOUS
 10
3.620320
 20
5.444560
  0
VERTEX
  8
0
  6
CONTINUOUS
 10
3.584240
 20
5.466120
  0
SEQEND
  8
0
  0
SOLID
  8
0
 62
    15
 10
3.620320
 20
5.444560
 11
3.623400
 21
6.189480
 12
3.651120
 22
5.419920
 13
3.654200
 23
6.165280
  0
POLYLINE
  8
0
  6
CONTINUOUS
 66
     1
 40
0.000000
 41
0.000000
  0
VERTEX
  8
0
  6
CONTINUOUS
 10
3.620320
 20
5.444560
  0
VERTEX
  8
0
  6
CONTINUOUS
 10
3.623400
 20
6.189480
  0
VERTEX
  8
0
  6
CONTINUOUS
 10
3.654200
 20
6.165280
  0
VERTEX
  8
0
  6
CONTINUOUS
 10
3.651120
 20
5.419920
  0
VERTEX
  8
0
  6
CONTINUOUS
 10
3.620320
 20
5.444560
  0
SEQEND
  8
0
  0
SOLID
  8
0
 62
    15
 10
3.651120
 20
5.419920
 11
3.654200
 21
6.165280
 12
3.679280
 22
5.393520
 13
3.682360
 23
6.138880
  0
POLYLINE
  8
0
  6
CONTINUOUS
 66
     1
 40
0.000000
 41
0.000000
  0
VERTEX
  8
0
  6
CONTINUOUS
 10
3.651120
 20
5.419920
  0
VERTEX
  8
0
  6
CONTINUOUS
 10
3.654200
 20
6.165280
  0
VERTEX
  8
0
  6
CONTINUOUS
 10
3.682360
 20
6.138880
  0
VERTEX
  8
0
  6
CONTINUOUS
 10
3.679280
 20
5.393520
  0
VERTEX
  8
0
  6
CONTINUOUS
 10
3.651120
 20
5.419920
  0
SEQEND
  8
0
  0
SOLID
  8
0
 62
    15
 10
3.679280
 20
5.393520
 11
3.682360
 21
6.138880
 12
3.692480
 22
5.379880
 13
3.695560
 23
6.125240
  0
POLYLINE
  8
0
  6
CONTINUOUS
 66
     1
 40
0.000000
 41
0.000000
  0
VERTEX
  8
0
  6
CONTINUOUS
 10
3.679280
 20
5.393520
  0
VERTEX
  8
0
  6
CONTINUOUS
 10
3.682360
 20
6.138880
  0
VERTEX
  8
0
  6
CONTINUOUS
 10
3.695560
 20
6.125240
  0
VERTEX
  8
0
  6
CONTINUOUS
 10
3.692480
 20
5.379880
  0
VERTEX
  8
0
  6
CONTINUOUS
 10
3.679280
 20
5.393520
  0
SEQEND
  8
0
  0
SOLID
  8
0
 62
    15
 10
2.963840
 20
5.610000
 11
2.966920
 21
6.354920
 12
3.353680
 22
5.610000
 13
3.356320
 23
6.354920
  0
POLYLINE
  8
0
  6
CONTINUOUS
 66
     1
 40
0.000000
 41
0.000000
  0
VERTEX
  8
0
  6
CONTINUOUS
 10
2.963840
 20
5.610000
  0
VERTEX
  8
0
  6
CONTINUOUS
 10
2.966920
 20
6.354920
  0
VERTEX
  8
0
  6
CONTINUOUS
 10
3.356320
 20
6.354920
  0
VERTEX
  8
0
  6
CONTINUOUS
 10
3.353680
 20
5.610000
  0
VERTEX
  8
0
  6
CONTINUOUS
 10
2.963840
 20
5.610000
  0
SEQEND
  8
0
  0
SOLID
  8
0
 62
    15
 10
3.705680
 20
5.366240
 11
3.708760
 21
6.111160
 12
3.732520
 22
5.338520
 13
3.735600
 23
6.083880
  0
POLYLINE
  8
0
  6
CONTINUOUS
 66
     1
 40
0.000000
 41
0.000000
  0
VERTEX
  8
0
  6
CONTINUOUS
 10
3.705680
 20
5.366240
  0
VERTEX
  8
0
  6
CONTINUOUS
 10
3.708760
 20
6.111160
  0
VERTEX
  8
0
  6
CONTINUOUS
 10
3.735600
 20
6.083880
  0
VERTEX
  8
0
  6
CONTINUOUS
 10
3.732520
 20
5.338520
  0
VERTEX
  8
0
  6
CONTINUOUS
 10
3.705680
 20
5.366240
  0
SEQEND
  8
0
  0
SOLID
  8
0
 62
    15
 10
3.732520
 20
5.338520
 11
3.735600
 21
6.083880
 12
3.761560
 22
5.311680
 13
3.764640
 23
6.056600
  0
POLYLINE
  8
0
  6
CONTINUOUS
 66
     1
 40
0.000000
 41
0.000000
  0
VERTEX
  8
0
  6
CONTINUOUS
 10
3.732520
 20
5.338520
  0
VERTEX
  8
0
  6
CONTINUOUS
 10
3.735600
 20
6.083880
  0
VERTEX
  8
0
  6
CONTINUOUS
 10
3.764640
 20
6.056600
  0
VERTEX
  8
0
  6
CONTINUOUS
 10
3.761560
 20
5.311680
  0
VERTEX
  8
0
  6
CONTINUOUS
 10
3.732520
 20
5.338520
  0
SEQEND
  8
0
  0
SOLID
  8
0
 62
    15
 10
3.761560
 20
5.311680
 11
3.764640
 21
6.056600
 12
3.795000
 22
5.286160
 13
3.798080
 23
6.031080
  0
POLYLINE
  8
0
  6
CONTINUOUS
 66
     1
 40
0.000000
 41
0.000000
  0
VERTEX
  8
0
  6
CONTINUOUS
 10
3.761560
 20
5.311680
  0
VERTEX
  8
0
  6
CONTINUOUS
 10
3.764640
 20
6.056600
  0
VERTEX
  8
0
  6
CONTINUOUS
 10
3.798080
 20
6.031080
  0
VERTEX
  8
0
  6
CONTINUOUS
 10
3.795000
 20
5.286160
  0
VERTEX
  8
0
  6
CONTINUOUS
 10
3.761560
 20
5.311680
  0
SEQEND
  8
0
  0
SOLID
  8
0
 62
    15
 10
3.795000
 20
5.286160
 11
3.798080
 21
6.031080
 12
3.834600
 22
5.263280
 13
3.837680
 23
6.008200
  0
POLYLINE
  8
0
  6
CONTINUOUS
 66
     1
 40
0.000000
 41
0.000000
  0
VERTEX
  8
0
  6
CONTINUOUS
 10
3.795000
 20
5.286160
  0
VERTEX
  8
0
  6
CONTINUOUS
 10
3.798080
 20
6.031080
  0
VERTEX
  8
0
  6
CONTINUOUS
 10
3.837680
 20
6.008200
  0
VERTEX
  8
0
  6
CONTINUOUS
 10
3.834600
 20
5.263280
  0
VERTEX
  8
0
  6
CONTINUOUS
 10
3.795000
 20
5.286160
  0
SEQEND
  8
0
  0
SOLID
  8
0
 62
    15
 10
3.834600
 20
5.263280
 11
3.837680
 21
6.008200
 12
3.857040
 22
5.252720
 13
3.860120
 23
5.998080
  0
POLYLINE
  8
0
  6
CONTINUOUS
 66
     1
 40
0.000000
 41
0.000000
  0
VERTEX
  8
0
  6
CONTINUOUS
 10
3.834600
 20
5.263280
  0
VERTEX
  8
0
  6
CONTINUOUS
 10
3.837680
 20
6.008200
  0
VERTEX
  8
0
  6
CONTINUOUS
 10
3.860120
 20
5.998080
  0
VERTEX
  8
0
  6
CONTINUOUS
 10
3.857040
 20
5.252720
  0
VERTEX
  8
0
  6
CONTINUOUS
 10
3.834600
 20
5.263280
  0
SEQEND
  8
0
  0
SOLID
  8
0
 62
    15
 10
3.857040
 20
5.252720
 11
3.860120
 21
5.998080
 12
3.881680
 22
5.243480
 13
3.884760
 23
5.988840
  0
POLYLINE
  8
0
  6
CONTINUOUS
 66
     1
 40
0.000000
 41
0.000000
  0
VERTEX
  8
0
  6
CONTINUOUS
 10
3.857040
 20
5.252720
  0
VERTEX
  8
0
  6
CONTINUOUS
 10
3.860120
 20
5.998080
  0
VERTEX
  8
0
  6
CONTINUOUS
 10
3.884760
 20
5.988840
  0
VERTEX
  8
0
  6
CONTINUOUS
 10
3.881680
 20
5.243480
  0
VERTEX
  8
0
  6
CONTINUOUS
 10
3.857040
 20
5.252720
  0
SEQEND
  8
0
  0
SOLID
  8
0
 62
    15
 10
3.881680
 20
5.243480
 11
3.884760
 21
5.988840
 12
3.908960
 22
5.235560
 13
3.912040
 23
5.980480
  0
POLYLINE
  8
0
  6
CONTINUOUS
 66
     1
 40
0.000000
 41
0.000000
  0
VERTEX
  8
0
  6
CONTINUOUS
 10
3.881680
 20
5.243480
  0
VERTEX
  8
0
  6
CONTINUOUS
 10
3.884760
 20
5.988840
  0
VERTEX
  8
0
  6
CONTINUOUS
 10
3.912040
 20
5.980480
  0
VERTEX
  8
0
  6
CONTINUOUS
 10
3.908960
 20
5.235560
  0
VERTEX
  8
0
  6
CONTINUOUS
 10
3.881680
 20
5.243480
  0
SEQEND
  8
0
  0
SOLID
  8
0
 62
    15
 10
3.908960
 20
5.235560
 11
3.912040
 21
5.980480
 12
3.938880
 22
5.228520
 13
3.941520
 23
5.973440
  0
POLYLINE
  8
0
  6
CONTINUOUS
 66
     1
 40
0.000000
 41
0.000000
  0
VERTEX
  8
0
  6
CONTINUOUS
 10
3.908960
 20
5.235560
  0
VERTEX
  8
0
  6
CONTINUOUS
 10
3.912040
 20
5.980480
  0
VERTEX
  8
0
  6
CONTINUOUS
 10
3.941520
 20
5.973440
  0
VERTEX
  8
0
  6
CONTINUOUS
 10
3.938880
 20
5.228520
  0
VERTEX
  8
0
  6
CONTINUOUS
 10
3.908960
 20
5.235560
  0
SEQEND
  8
0
  0
SOLID
  8
0
 62
    15
 10
3.938880
 20
5.228520
 11
3.941520
 21
5.973440
 12
3.971440
 22
5.222360
 13
3.974520
 23
5.967720
  0
POLYLINE
  8
0
  6
CONTINUOUS
 66
     1
 40
0.000000
 41
0.000000
  0
VERTEX
  8
0
  6
CONTINUOUS
 10
3.938880
 20
5.228520
  0
VERTEX
  8
0
  6
CONTINUOUS
 10
3.941520
 20
5.973440
  0
VERTEX
  8
0
  6
CONTINUOUS
 10
3.974520
 20
5.967720
  0
VERTEX
  8
0
  6
CONTINUOUS
 10
3.971440
 20
5.222360
  0
VERTEX
  8
0
  6
CONTINUOUS
 10
3.938880
 20
5.228520
  0
SEQEND
  8
0
  0
SOLID
  8
0
 62
    15
 10
3.971440
 20
5.222360
 11
3.974520
 21
5.967720
 12
4.007080
 22
5.217960
 13
4.010160
 23
5.963320
  0
POLYLINE
  8
0
  6
CONTINUOUS
 66
     1
 40
0.000000
 41
0.000000
  0
VERTEX
  8
0
  6
CONTINUOUS
 10
3.971440
 20
5.222360
  0
VERTEX
  8
0
  6
CONTINUOUS
 10
3.974520
 20
5.967720
  0
VERTEX
  8
0
  6
CONTINUOUS
 10
4.010160
 20
5.963320
  0
VERTEX
  8
0
  6
CONTINUOUS
 10
4.007080
 20
5.217960
  0
VERTEX
  8
0
  6
CONTINUOUS
 10
3.971440
 20
5.222360
  0
SEQEND
  8
0
  0
SOLID
  8
0
 62
    15
 10
4.007080
 20
5.217960
 11
4.010160
 21
5.963320
 12
4.046240
 22
5.215320
 13
4.049320
 23
5.960680
  0
POLYLINE
  8
0
  6
CONTINUOUS
 66
     1
 40
0.000000
 41
0.000000
  0
VERTEX
  8
0
  6
CONTINUOUS
 10
4.007080
 20
5.217960
  0
VERTEX
  8
0
  6
CONTINUOUS
 10
4.010160
 20
5.963320
  0
VERTEX
  8
0
  6
CONTINUOUS
 10
4.049320
 20
5.960680
  0
VERTEX
  8
0
  6
CONTINUOUS
 10
4.046240
 20
5.215320
  0
VERTEX
  8
0
  6
CONTINUOUS
 10
4.007080
 20
5.217960
  0
SEQEND
  8
0
  0
SOLID
  8
0
 62
    15
 10
4.091120
 20
5.214000
 11
4.094200
 21
5.959360
 12
4.091120
 22
5.126440
 13
4.094200
 23
5.871800
  0
POLYLINE
  8
0
  6
CONTINUOUS
 66
     1
 40
0.000000
 41
0.000000
  0
VERTEX
  8
0
  6
CONTINUOUS
 10
4.091120
 20
5.214000
  0
VERTEX
  8
0
  6
CONTINUOUS
 10
4.094200
 20
5.959360
  0
VERTEX
  8
0
  6
CONTINUOUS
 10
4.094200
 20
5.871800
  0
VERTEX
  8
0
  6
CONTINUOUS
 10
4.091120
 20
5.126440
  0
VERTEX
  8
0
  6
CONTINUOUS
 10
4.091120
 20
5.214000
  0
SEQEND
  8
0
  0
SOLID
  8
0
 62
    15
 10
4.046240
 20
5.215320
 11
4.049320
 21
5.960680
 12
4.091120
 22
5.214000
 13
4.094200
 23
5.959360
  0
POLYLINE
  8
0
  6
CONTINUOUS
 66
     1
 40
0.000000
 41
0.000000
  0
VERTEX
  8
0
  6
CONTINUOUS
 10
4.046240
 20
5.215320
  0
VERTEX
  8
0
  6
CONTINUOUS
 10
4.049320
 20
5.960680
  0
VERTEX
  8
0
  6
CONTINUOUS
 10
4.094200
 20
5.959360
  0
VERTEX
  8
0
  6
CONTINUOUS
 10
4.091120
 20
5.214000
  0
VERTEX
  8
0
  6
CONTINUOUS
 10
4.046240
 20
5.215320
  0
SEQEND
  8
0
  0
POLYLINE
  8
0
  6
CONTINUOUS
 66
     1
 40
0.000000
 41
0.000000
  0
VERTEX
  8
0
  6
CONTINUOUS
 10
2.963840
 20
5.126440
  0
VERTEX
  8
0
  6
CONTINUOUS
 10
2.963840
 20
5.610000
  0
VERTEX
  8
0
  6
CONTINUOUS
 10
3.353680
 20
5.610000
  0
VERTEX
  8
0
  6
CONTINUOUS
 10
3.353680
 20
5.505720
  0
VERTEX
  8
0
  6
CONTINUOUS
 10
3.392400
 20
5.506160
  0
VERTEX
  8
0
  6
CONTINUOUS
 10
3.428040
 20
5.504400
  0
VERTEX
  8
0
  6
CONTINUOUS
 10
3.460600
 20
5.501320
  0
VERTEX
  8
0
  6
CONTINUOUS
 10
3.490080
 20
5.496920
  0
VERTEX
  8
0
  6
CONTINUOUS
 10
3.516920
 20
5.491200
  0
VERTEX
  8
0
  6
CONTINUOUS
 10
3.541560
 20
5.483720
  0
VERTEX
  8
0
  6
CONTINUOUS
 10
3.564000
 20
5.475360
  0
VERTEX
  8
0
  6
CONTINUOUS
 10
3.584240
 20
5.466120
  0
VERTEX
  8
0
  6
CONTINUOUS
 10
3.620320
 20
5.444560
  0
VERTEX
  8
0
  6
CONTINUOUS
 10
3.651120
 20
5.419920
  0
VERTEX
  8
0
  6
CONTINUOUS
 10
3.679280
 20
5.393520
  0
VERTEX
  8
0
  6
CONTINUOUS
 10
3.692480
 20
5.379880
  0
VERTEX
  8
0
  6
CONTINUOUS
 10
3.705680
 20
5.366240
  0
VERTEX
  8
0
  6
CONTINUOUS
 10
3.732520
 20
5.338520
  0
VERTEX
  8
0
  6
CONTINUOUS
 10
3.761560
 20
5.311680
  0
VERTEX
  8
0
  6
CONTINUOUS
 10
3.795000
 20
5.286160
  0
VERTEX
  8
0
  6
CONTINUOUS
 10
3.834600
 20
5.263280
  0
VERTEX
  8
0
  6
CONTINUOUS
 10
3.857040
 20
5.252720
  0
VERTEX
  8
0
  6
CONTINUOUS
 10
3.881680
 20
5.243480
  0
VERTEX
  8
0
  6
CONTINUOUS
 10
3.908960
 20
5.235560
  0
VERTEX
  8
0
  6
CONTINUOUS
 10
3.938880
 20
5.228520
  0
VERTEX
  8
0
  6
CONTINUOUS
 10
3.971440
 20
5.222360
  0
VERTEX
  8
0
  6
CONTINUOUS
 10
4.007080
 20
5.217960
  0
VERTEX
  8
0
  6
CONTINUOUS
 10
4.046240
 20
5.215320
  0
VERTEX
  8
0
  6
CONTINUOUS
 10
4.091120
 20
5.214000
  0
VERTEX
  8
0
  6
CONTINUOUS
 10
4.091120
 20
5.126440
  0
VERTEX
  8
0
  6
CONTINUOUS
 10
2.968240
 20
5.126440
  0
VERTEX
  8
0
  6
CONTINUOUS
 10
2.963840
 20
5.126440
  0
SEQEND
  8
0
  0
POLYLINE
  8
0
  6
CONTINUOUS
 66
     1
 40
0.014080
 41
0.014080
  0
VERTEX
  8
0
  6
CONTINUOUS
 10
4.402200
 20
5.179240
  0
VERTEX
  8
0
  6
CONTINUOUS
 10
4.402200
 20
5.662360
  0
VERTEX
  8
0
  6
CONTINUOUS
 10
4.791600
 20
5.662360
  0
VERTEX
  8
0
  6
CONTINUOUS
 10
4.791600
 20
5.558520
  0
VERTEX
  8
0
  6
CONTINUOUS
 10
4.811400
 20
5.558960
  0
VERTEX
  8
0
  6
CONTINUOUS
 10
4.830320
 20
5.558960
  0
VERTEX
  8
0
  6
CONTINUOUS
 10
4.848800
 20
5.558080
  0
VERTEX
  8
0
  6
CONTINUOUS
 10
4.865960
 20
5.557200
  0
VERTEX
  8
0
  6
CONTINUOUS
 10
4.882680
 20
5.555880
  0
VERTEX
  8
0
  6
CONTINUOUS
 10
4.898520
 20
5.554120
  0
VERTEX
  8
0
  6
CONTINUOUS
 10
4.913480
 20
5.552360
  0
VERTEX
  8
0
  6
CONTINUOUS
 10
4.928000
 20
5.549720
  0
VERTEX
  8
0
  6
CONTINUOUS
 10
4.942080
 20
5.547080
  0
VERTEX
  8
0
  6
CONTINUOUS
 10
4.955280
 20
5.543560
  0
VERTEX
  8
0
  6
CONTINUOUS
 10
4.967600
 20
5.540480
  0
VERTEX
  8
0
  6
CONTINUOUS
 10
4.979920
 20
5.536520
  0
VERTEX
  8
0
  6
CONTINUOUS
 10
5.001920
 20
5.528160
  0
VERTEX
  8
0
  6
CONTINUOUS
 10
5.022600
 20
5.518480
  0
VERTEX
  8
0
  6
CONTINUOUS
 10
5.041520
 20
5.508360
  0
VERTEX
  8
0
  6
CONTINUOUS
 10
5.058680
 20
5.496920
  0
VERTEX
  8
0
  6
CONTINUOUS
 10
5.074520
 20
5.485040
  0
VERTEX
  8
0
  6
CONTINUOUS
 10
5.089480
 20
5.472720
  0
VERTEX
  8
0
  6
CONTINUOUS
 10
5.103560
 20
5.459520
  0
VERTEX
  8
0
  6
CONTINUOUS
 10
5.117200
 20
5.446320
  0
VERTEX
  8
0
  6
CONTINUOUS
 10
5.143600
 20
5.418600
  0
VERTEX
  8
0
  6
CONTINUOUS
 10
5.170880
 20
5.390880
  0
VERTEX
  8
0
  6
CONTINUOUS
 10
5.184960
 20
5.377240
  0
VERTEX
  8
0
  6
CONTINUOUS
 10
5.199920
 20
5.364040
  0
VERTEX
  8
0
  6
CONTINUOUS
 10
5.216200
 20
5.351280
  0
VERTEX
  8
0
  6
CONTINUOUS
 10
5.233360
 20
5.338520
  0
VERTEX
  8
0
  6
CONTINUOUS
 10
5.252280
 20
5.327080
  0
VERTEX
  8
0
  6
CONTINUOUS
 10
5.272960
 20
5.315640
  0
VERTEX
  8
0
  6
CONTINUOUS
 10
5.295400
 20
5.305520
  0
VERTEX
  8
0
  6
CONTINUOUS
 10
5.307280
 20
5.300680
  0
VERTEX
  8
0
  6
CONTINUOUS
 10
5.320040
 20
5.296280
  0
VERTEX
  8
0
  6
CONTINUOUS
 10
5.333240
 20
5.291880
  0
VERTEX
  8
0
  6
CONTINUOUS
 10
5.347320
 20
5.287920
  0
VERTEX
  8
0
  6
CONTINUOUS
 10
5.361840
 20
5.284400
  0
VERTEX
  8
0
  6
CONTINUOUS
 10
5.376800
 20
5.280880
  0
VERTEX
  8
0
  6
CONTINUOUS
 10
5.393080
 20
5.277800
  0
VERTEX
  8
0
  6
CONTINUOUS
 10
5.409800
 20
5.275160
  0
VERTEX
  8
0
  6
CONTINUOUS
 10
5.426960
 20
5.272960
  0
VERTEX
  8
0
  6
CONTINUOUS
 10
5.445440
 20
5.270760
  0
VERTEX
  8
0
  6
CONTINUOUS
 10
5.464800
 20
5.269440
  0
VERTEX
  8
0
  6
CONTINUOUS
 10
5.484600
 20
5.268120
  0
VERTEX
  8
0
  6
CONTINUOUS
 10
5.505280
 20
5.267240
  0
VERTEX
  8
0
  6
CONTINUOUS
 10
5.527280
 20
5.266800
  0
VERTEX
  8
0
  6
CONTINUOUS
 10
5.529040
 20
5.266800
  0
VERTEX
  8
0
  6
CONTINUOUS
 10
5.529040
 20
5.179240
  0
VERTEX
  8
0
  6
CONTINUOUS
 10
4.402200
 20
5.179240
  0
SEQEND
  8
0
  0
TEXT
  8
0
 10
4.653880
 20
4.933720
 40
0.138107
  1
BA  303
 41
1.000000
  7
SN0
 71
     0
 72
     5
 11
5.244154
 21
4.933720
  0
TEXT
  8
0
 10
4.497680
 20
4.741880
 40
0.138107
  1
1/2" x 1-1/8"
 41
1.000000
  7
SN0
 71
     0
 72
     5
 11
5.398272
 21
4.741880
  0
ENDSEC
  0
EOF
