  0
SECTION
  2
HEADER
  9
$ACADVER
  1
AC1006
  9
$EXTMIN
 10
3.701720
 20
0.400400
  9
$EXTMAX
 10
7.108200
 20
3.169320
  9
$LTSCALE
 40
0.044000
  9
$PDMODE
 70
    35
  9
$PDSIZE
 40
0.035200
  0
ENDSEC
  0
SECTION
  2
TABLES
  0
TABLE
  2
LTYPE
 70
     9
  0
LTYPE
  2
CONTINUOUS
 70
    64
  3
Solid line
 72
    65
 73
     0
 40
0.000000
  0
LTYPE
  2
DASHED
 70
    64
  3
__ __ __ __ __ __ __ __ __ __ __ __ __ __ __
 72
    65
 73
     2
 40
0.000330
 49
0.000220
 49
-0.000110
  0
LTYPE
  2
HIDDEN
 70
    64
  3
 _ _ _ _ _ _ _ _ _ _ _ _ _ _ _ _ _ _ _ _ _ _
 72
    65
 73
     2
 40
0.000165
 49
0.000110
 49
-0.000055
  0
LTYPE
  2
CENTER
 70
    64
  3
____ _ ____ _ ____ _ ____ _ ____ _ ____ _ ____
 72
    65
 73
     4
 40
0.000880
 49
0.000550
 49
-0.000110
 49
0.000110
 49
-0.000110
  0
LTYPE
  2
PHANTOM
 70
    64
  3
_____ _ _ _____ _ _ _____ _ _ _____ _ _ ____
 72
    65
 73
     6
 40
0.001100
 49
0.000550
 49
-0.000110
 49
0.000110
 49
-0.000110
 49
0.000110
 49
-0.000110
  0
LTYPE
  2
DOT
 70
    64
  3
...............................................
 72
    65
 73
     2
 40
0.000110
 49
0.000000
 49
-0.000110
  0
LTYPE
  2
DASHDOT
 70
    64
  3
__ . __ . __ . __ . __ . __ . __ . __ . __ . __
 72
    65
 73
     4
 40
0.000440
 49
0.000220
 49
-0.000110
 49
0.000000
 49
-0.000110
  0
LTYPE
  2
BORDER
 70
    64
  3
__ __ . __ __ . __ __ . __ __ . __ __ . __ __
 72
    65
 73
     6
 40
0.000770
 49
0.000220
 49
-0.000110
 49
0.000220
 49
-0.000110
 49
0.000000
 49
-0.000110
  0
LTYPE
  2
DIVIDE
 70
    64
  3
__ . . __ . . __ . . __ . . __ . . __ . . __
 72
    65
 73
     6
 40
0.000550
 49
0.000220
 49
-0.000110
 49
0.000000
 49
-0.000110
 49
0.000000
 49
-0.000110
  0
LTYPE
  2
DOTDOT
 70
    64
  3
 . .  . .  . .  . .  . .  . . 
 72
    65
 73
     5
 40
0.000242
 49
-0.000110
 49
0.000000
 49
-0.000110
 49
0.000000
 49
-0.000110
  0
ENDTAB
  0
TABLE
  2
STYLE
 70
     2
  0
STYLE
 70
     0
  2
SN0
 40
0.000000
 41
0.000440
 50
0.000000
 71
     0
 42
0.000000
  3
ROMAND
  0
STYLE
 70
    68
  2
SV0
 40
0.000000
 41
0.000440
 50
0.000000
 71
     0
 42
0.000000
  3
ROMAND
  0
ENDTAB
  0
TABLE
  2
LAYER
 70
     3
  0
LAYER
  2
FOREGROUND
 70
    64
 62
     7
  6
CONTINUOUS
  0
LAYER
  2
BACKGROUND
 70
    65
 62
    -7
  6
CONTINUOUS
  0
LAYER
  2
0
 70
    64
 62
     7
  6
CONTINUOUS
  0
ENDTAB
  0
ENDSEC
  0
SECTION
  2
ENTITIES
  0
POLYLINE
  8
FOREGROUND
  6
CONTINUOUS
 66
     1
 40
0.000000
 41
0.000000
  0
VERTEX
  8
FOREGROUND
  6
CONTINUOUS
 10
0.000000
 20
3.569720
  0
VERTEX
  8
FOREGROUND
  6
CONTINUOUS
 10
8.499920
 20
3.569720
  0
VERTEX
  8
FOREGROUND
  6
CONTINUOUS
 10
8.499920
 20
-7.430280
  0
VERTEX
  8
FOREGROUND
  6
CONTINUOUS
 10
0.000000
 20
-7.430280
  0
VERTEX
  8
FOREGROUND
  6
CONTINUOUS
 10
0.000000
 20
3.569720
  0
SEQEND
  8
0
  0
POLYLINE
  8
FOREGROUND
  6
CONTINUOUS
 66
     1
 40
0.000000
 41
0.000000
  0
VERTEX
  8
FOREGROUND
  6
CONTINUOUS
 10
0.000000
 20
3.569720
  0
VERTEX
  8
FOREGROUND
  6
CONTINUOUS
 10
8.499920
 20
3.569720
  0
VERTEX
  8
FOREGROUND
  6
CONTINUOUS
 10
8.499920
 20
-7.430280
  0
VERTEX
  8
FOREGROUND
  6
CONTINUOUS
 10
0.000000
 20
-7.430280
  0
VERTEX
  8
FOREGROUND
  6
CONTINUOUS
 10
0.000000
 20
3.569720
  0
SEQEND
  8
0
  0
POLYLINE
  8
0
  6
CONTINUOUS
 66
     1
 40
0.014080
 41
0.014080
  0
VERTEX
  8
0
  6
CONTINUOUS
 10
6.530920
 20
3.159640
  0
VERTEX
  8
0
  6
CONTINUOUS
 10
5.984880
 20
3.159640
  0
VERTEX
  8
0
  6
CONTINUOUS
 10
5.984880
 20
1.294920
  0
VERTEX
  8
0
  6
CONTINUOUS
 10
6.224680
 20
1.294920
  0
VERTEX
  8
0
  6
CONTINUOUS
 10
6.222920
 20
1.384240
  0
VERTEX
  8
0
  6
CONTINUOUS
 10
6.225560
 20
1.465200
  0
VERTEX
  8
0
  6
CONTINUOUS
 10
6.230400
 20
1.514480
  0
VERTEX
  8
0
  6
CONTINUOUS
 10
6.238320
 20
1.559800
  0
VERTEX
  8
0
  6
CONTINUOUS
 10
6.243160
 20
1.581360
  0
VERTEX
  8
0
  6
CONTINUOUS
 10
6.256360
 20
1.620960
  0
VERTEX
  8
0
  6
CONTINUOUS
 10
6.264280
 20
1.639880
  0
VERTEX
  8
0
  6
CONTINUOUS
 10
6.283640
 20
1.674200
  0
VERTEX
  8
0
  6
CONTINUOUS
 10
6.294640
 20
1.690040
  0
VERTEX
  8
0
  6
CONTINUOUS
 10
6.321040
 20
1.719080
  0
VERTEX
  8
0
  6
CONTINUOUS
 10
6.352280
 20
1.744600
  0
VERTEX
  8
0
  6
CONTINUOUS
 10
6.369880
 20
1.756040
  0
VERTEX
  8
0
  6
CONTINUOUS
 10
6.409920
 20
1.775840
  0
VERTEX
  8
0
  6
CONTINUOUS
 10
6.455680
 20
1.792560
  0
VERTEX
  8
0
  6
CONTINUOUS
 10
6.508480
 20
1.805760
  0
VERTEX
  8
0
  6
CONTINUOUS
 10
6.567880
 20
1.815440
  0
VERTEX
  8
0
  6
CONTINUOUS
 10
6.600440
 20
1.819400
  0
VERTEX
  8
0
  6
CONTINUOUS
 10
6.634760
 20
1.822040
  0
VERTEX
  8
0
  6
CONTINUOUS
 10
6.634760
 20
2.047320
  0
VERTEX
  8
0
  6
CONTINUOUS
 10
6.639160
 20
2.047320
  0
VERTEX
  8
0
  6
CONTINUOUS
 10
6.699440
 20
2.060520
  0
VERTEX
  8
0
  6
CONTINUOUS
 10
6.755320
 20
2.078560
  0
VERTEX
  8
0
  6
CONTINUOUS
 10
6.807240
 20
2.101440
  0
VERTEX
  8
0
  6
CONTINUOUS
 10
6.854760
 20
2.127840
  0
VERTEX
  8
0
  6
CONTINUOUS
 10
6.897880
 20
2.158640
  0
VERTEX
  8
0
  6
CONTINUOUS
 10
6.937040
 20
2.192520
  0
VERTEX
  8
0
  6
CONTINUOUS
 10
6.971800
 20
2.229920
  0
VERTEX
  8
0
  6
CONTINUOUS
 10
7.002160
 20
2.269520
  0
VERTEX
  8
0
  6
CONTINUOUS
 10
7.028560
 20
2.312200
  0
VERTEX
  8
0
  6
CONTINUOUS
 10
7.051000
 20
2.356640
  0
VERTEX
  8
0
  6
CONTINUOUS
 10
7.069040
 20
2.402840
  0
VERTEX
  8
0
  6
CONTINUOUS
 10
7.083120
 20
2.450360
  0
VERTEX
  8
0
  6
CONTINUOUS
 10
7.093240
 20
2.498760
  0
VERTEX
  8
0
  6
CONTINUOUS
 10
7.098960
 20
2.548040
  0
VERTEX
  8
0
  6
CONTINUOUS
 10
7.100720
 20
2.597760
  0
VERTEX
  8
0
  6
CONTINUOUS
 10
7.098520
 20
2.647480
  0
VERTEX
  8
0
  6
CONTINUOUS
 10
7.096320
 20
2.672120
  0
VERTEX
  8
0
  6
CONTINUOUS
 10
7.087960
 20
2.721400
  0
VERTEX
  8
0
  6
CONTINUOUS
 10
7.075640
 20
2.769360
  0
VERTEX
  8
0
  6
CONTINUOUS
 10
7.059800
 20
2.816440
  0
VERTEX
  8
0
  6
CONTINUOUS
 10
7.040000
 20
2.861760
  0
VERTEX
  8
0
  6
CONTINUOUS
 10
7.015800
 20
2.905320
  0
VERTEX
  8
0
  6
CONTINUOUS
 10
6.988080
 20
2.946680
  0
VERTEX
  8
0
  6
CONTINUOUS
 10
6.956400
 20
2.985400
  0
VERTEX
  8
0
  6
CONTINUOUS
 10
6.921200
 20
3.021480
  0
VERTEX
  8
0
  6
CONTINUOUS
 10
6.882040
 20
3.054040
  0
VERTEX
  8
0
  6
CONTINUOUS
 10
6.838920
 20
3.082640
  0
VERTEX
  8
0
  6
CONTINUOUS
 10
6.791840
 20
3.107720
  0
VERTEX
  8
0
  6
CONTINUOUS
 10
6.741240
 20
3.128400
  0
VERTEX
  8
0
  6
CONTINUOUS
 10
6.714400
 20
3.137200
  0
VERTEX
  8
0
  6
CONTINUOUS
 10
6.658520
 20
3.150400
  0
VERTEX
  8
0
  6
CONTINUOUS
 10
6.598680
 20
3.158760
  0
VERTEX
  8
0
  6
CONTINUOUS
 10
6.534880
 20
3.161840
  0
VERTEX
  8
0
  6
CONTINUOUS
 10
6.530920
 20
3.159640
  0
SEQEND
  8
0
  0
SOLID
  8
0
 62
    15
 10
4.087600
 20
1.321320
 11
4.736160
 21
1.678600
 12
4.053720
 22
1.297560
 13
4.702280
 23
1.654840
  0
POLYLINE
  8
0
  6
CONTINUOUS
 66
     1
 40
0.000000
 41
0.000000
  0
VERTEX
  8
0
  6
CONTINUOUS
 10
4.087600
 20
1.321320
  0
VERTEX
  8
0
  6
CONTINUOUS
 10
4.736160
 20
1.678600
  0
VERTEX
  8
0
  6
CONTINUOUS
 10
4.702280
 20
1.654840
  0
VERTEX
  8
0
  6
CONTINUOUS
 10
4.053720
 20
1.297560
  0
VERTEX
  8
0
  6
CONTINUOUS
 10
4.087600
 20
1.321320
  0
SEQEND
  8
0
  0
SOLID
  8
0
 62
    15
 10
4.315960
 20
2.724040
 11
4.964520
 21
3.081320
 12
4.376240
 22
2.715680
 13
5.024800
 23
3.072960
  0
POLYLINE
  8
0
  6
CONTINUOUS
 66
     1
 40
0.000000
 41
0.000000
  0
VERTEX
  8
0
  6
CONTINUOUS
 10
4.315960
 20
2.724040
  0
VERTEX
  8
0
  6
CONTINUOUS
 10
4.964520
 20
3.081320
  0
VERTEX
  8
0
  6
CONTINUOUS
 10
5.024800
 20
3.072960
  0
VERTEX
  8
0
  6
CONTINUOUS
 10
4.376240
 20
2.715680
  0
VERTEX
  8
0
  6
CONTINUOUS
 10
4.315960
 20
2.724040
  0
SEQEND
  8
0
  0
SOLID
  8
0
 62
    15
 10
4.376240
 20
2.715680
 11
5.024800
 21
3.072960
 12
4.432120
 22
2.702040
 13
5.080680
 23
3.059760
  0
POLYLINE
  8
0
  6
CONTINUOUS
 66
     1
 40
0.000000
 41
0.000000
  0
VERTEX
  8
0
  6
CONTINUOUS
 10
4.376240
 20
2.715680
  0
VERTEX
  8
0
  6
CONTINUOUS
 10
5.024800
 20
3.072960
  0
VERTEX
  8
0
  6
CONTINUOUS
 10
5.080680
 20
3.059760
  0
VERTEX
  8
0
  6
CONTINUOUS
 10
4.432120
 20
2.702040
  0
VERTEX
  8
0
  6
CONTINUOUS
 10
4.376240
 20
2.715680
  0
SEQEND
  8
0
  0
SOLID
  8
0
 62
    15
 10
4.432120
 20
2.702040
 11
5.080680
 21
3.059760
 12
4.484920
 22
2.683560
 13
5.133480
 23
3.041280
  0
POLYLINE
  8
0
  6
CONTINUOUS
 66
     1
 40
0.000000
 41
0.000000
  0
VERTEX
  8
0
  6
CONTINUOUS
 10
4.432120
 20
2.702040
  0
VERTEX
  8
0
  6
CONTINUOUS
 10
5.080680
 20
3.059760
  0
VERTEX
  8
0
  6
CONTINUOUS
 10
5.133480
 20
3.041280
  0
VERTEX
  8
0
  6
CONTINUOUS
 10
4.484920
 20
2.683560
  0
VERTEX
  8
0
  6
CONTINUOUS
 10
4.432120
 20
2.702040
  0
SEQEND
  8
0
  0
SOLID
  8
0
 62
    15
 10
4.484920
 20
2.683560
 11
5.133480
 21
3.041280
 12
4.533320
 22
2.661120
 13
5.181880
 23
3.018400
  0
POLYLINE
  8
0
  6
CONTINUOUS
 66
     1
 40
0.000000
 41
0.000000
  0
VERTEX
  8
0
  6
CONTINUOUS
 10
4.484920
 20
2.683560
  0
VERTEX
  8
0
  6
CONTINUOUS
 10
5.133480
 20
3.041280
  0
VERTEX
  8
0
  6
CONTINUOUS
 10
5.181880
 20
3.018400
  0
VERTEX
  8
0
  6
CONTINUOUS
 10
4.533320
 20
2.661120
  0
VERTEX
  8
0
  6
CONTINUOUS
 10
4.484920
 20
2.683560
  0
SEQEND
  8
0
  0
SOLID
  8
0
 62
    15
 10
4.533320
 20
2.661120
 11
5.181880
 21
3.018400
 12
4.578640
 22
2.633840
 13
5.227200
 23
2.991120
  0
POLYLINE
  8
0
  6
CONTINUOUS
 66
     1
 40
0.000000
 41
0.000000
  0
VERTEX
  8
0
  6
CONTINUOUS
 10
4.533320
 20
2.661120
  0
VERTEX
  8
0
  6
CONTINUOUS
 10
5.181880
 20
3.018400
  0
VERTEX
  8
0
  6
CONTINUOUS
 10
5.227200
 20
2.991120
  0
VERTEX
  8
0
  6
CONTINUOUS
 10
4.578640
 20
2.633840
  0
VERTEX
  8
0
  6
CONTINUOUS
 10
4.533320
 20
2.661120
  0
SEQEND
  8
0
  0
SOLID
  8
0
 62
    15
 10
4.578640
 20
2.633840
 11
5.227200
 21
2.991120
 12
4.656960
 22
2.568720
 13
5.305520
 23
2.926440
  0
POLYLINE
  8
0
  6
CONTINUOUS
 66
     1
 40
0.000000
 41
0.000000
  0
VERTEX
  8
0
  6
CONTINUOUS
 10
4.578640
 20
2.633840
  0
VERTEX
  8
0
  6
CONTINUOUS
 10
5.227200
 20
2.991120
  0
VERTEX
  8
0
  6
CONTINUOUS
 10
5.305520
 20
2.926440
  0
VERTEX
  8
0
  6
CONTINUOUS
 10
4.656960
 20
2.568720
  0
VERTEX
  8
0
  6
CONTINUOUS
 10
4.578640
 20
2.633840
  0
SEQEND
  8
0
  0
SOLID
  8
0
 62
    15
 10
4.656960
 20
2.568720
 11
5.305520
 21
2.926440
 12
4.720320
 22
2.491720
 13
5.368880
 23
2.849000
  0
POLYLINE
  8
0
  6
CONTINUOUS
 66
     1
 40
0.000000
 41
0.000000
  0
VERTEX
  8
0
  6
CONTINUOUS
 10
4.656960
 20
2.568720
  0
VERTEX
  8
0
  6
CONTINUOUS
 10
5.305520
 20
2.926440
  0
VERTEX
  8
0
  6
CONTINUOUS
 10
5.368880
 20
2.849000
  0
VERTEX
  8
0
  6
CONTINUOUS
 10
4.720320
 20
2.491720
  0
VERTEX
  8
0
  6
CONTINUOUS
 10
4.656960
 20
2.568720
  0
SEQEND
  8
0
  0
SOLID
  8
0
 62
    15
 10
4.720320
 20
2.491720
 11
5.368880
 21
2.849000
 12
4.767840
 22
2.404600
 13
5.416400
 23
2.761880
  0
POLYLINE
  8
0
  6
CONTINUOUS
 66
     1
 40
0.000000
 41
0.000000
  0
VERTEX
  8
0
  6
CONTINUOUS
 10
4.720320
 20
2.491720
  0
VERTEX
  8
0
  6
CONTINUOUS
 10
5.368880
 20
2.849000
  0
VERTEX
  8
0
  6
CONTINUOUS
 10
5.416400
 20
2.761880
  0
VERTEX
  8
0
  6
CONTINUOUS
 10
4.767840
 20
2.404600
  0
VERTEX
  8
0
  6
CONTINUOUS
 10
4.720320
 20
2.491720
  0
SEQEND
  8
0
  0
SOLID
  8
0
 62
    15
 10
4.767840
 20
2.404600
 11
5.416400
 21
2.761880
 12
4.799960
 22
2.310440
 13
5.448520
 23
2.668160
  0
POLYLINE
  8
0
  6
CONTINUOUS
 66
     1
 40
0.000000
 41
0.000000
  0
VERTEX
  8
0
  6
CONTINUOUS
 10
4.767840
 20
2.404600
  0
VERTEX
  8
0
  6
CONTINUOUS
 10
5.416400
 20
2.761880
  0
VERTEX
  8
0
  6
CONTINUOUS
 10
5.448520
 20
2.668160
  0
VERTEX
  8
0
  6
CONTINUOUS
 10
4.799960
 20
2.310440
  0
VERTEX
  8
0
  6
CONTINUOUS
 10
4.767840
 20
2.404600
  0
SEQEND
  8
0
  0
SOLID
  8
0
 62
    15
 10
4.799960
 20
2.310440
 11
5.448520
 21
2.668160
 12
4.816240
 22
2.212760
 13
5.464800
 23
2.570040
  0
POLYLINE
  8
0
  6
CONTINUOUS
 66
     1
 40
0.000000
 41
0.000000
  0
VERTEX
  8
0
  6
CONTINUOUS
 10
4.799960
 20
2.310440
  0
VERTEX
  8
0
  6
CONTINUOUS
 10
5.448520
 20
2.668160
  0
VERTEX
  8
0
  6
CONTINUOUS
 10
5.464800
 20
2.570040
  0
VERTEX
  8
0
  6
CONTINUOUS
 10
4.816240
 20
2.212760
  0
VERTEX
  8
0
  6
CONTINUOUS
 10
4.799960
 20
2.310440
  0
SEQEND
  8
0
  0
SOLID
  8
0
 62
    15
 10
4.816240
 20
2.212760
 11
5.464800
 21
2.570040
 12
4.816680
 22
2.113320
 13
5.465240
 23
2.470600
  0
POLYLINE
  8
0
  6
CONTINUOUS
 66
     1
 40
0.000000
 41
0.000000
  0
VERTEX
  8
0
  6
CONTINUOUS
 10
4.816240
 20
2.212760
  0
VERTEX
  8
0
  6
CONTINUOUS
 10
5.464800
 20
2.570040
  0
VERTEX
  8
0
  6
CONTINUOUS
 10
5.465240
 20
2.470600
  0
VERTEX
  8
0
  6
CONTINUOUS
 10
4.816680
 20
2.113320
  0
VERTEX
  8
0
  6
CONTINUOUS
 10
4.816240
 20
2.212760
  0
SEQEND
  8
0
  0
SOLID
  8
0
 62
    15
 10
4.816680
 20
2.113320
 11
5.465240
 21
2.470600
 12
4.800840
 22
2.015200
 13
5.449400
 23
2.372920
  0
POLYLINE
  8
0
  6
CONTINUOUS
 66
     1
 40
0.000000
 41
0.000000
  0
VERTEX
  8
0
  6
CONTINUOUS
 10
4.816680
 20
2.113320
  0
VERTEX
  8
0
  6
CONTINUOUS
 10
5.465240
 20
2.470600
  0
VERTEX
  8
0
  6
CONTINUOUS
 10
5.449400
 20
2.372920
  0
VERTEX
  8
0
  6
CONTINUOUS
 10
4.800840
 20
2.015200
  0
VERTEX
  8
0
  6
CONTINUOUS
 10
4.816680
 20
2.113320
  0
SEQEND
  8
0
  0
SOLID
  8
0
 62
    15
 10
4.800840
 20
2.015200
 11
5.449400
 21
2.372920
 12
4.768720
 22
1.921480
 13
5.417280
 23
2.279200
  0
POLYLINE
  8
0
  6
CONTINUOUS
 66
     1
 40
0.000000
 41
0.000000
  0
VERTEX
  8
0
  6
CONTINUOUS
 10
4.800840
 20
2.015200
  0
VERTEX
  8
0
  6
CONTINUOUS
 10
5.449400
 20
2.372920
  0
VERTEX
  8
0
  6
CONTINUOUS
 10
5.417280
 20
2.279200
  0
VERTEX
  8
0
  6
CONTINUOUS
 10
4.768720
 20
1.921480
  0
VERTEX
  8
0
  6
CONTINUOUS
 10
4.800840
 20
2.015200
  0
SEQEND
  8
0
  0
SOLID
  8
0
 62
    15
 10
4.768720
 20
1.921480
 11
5.417280
 21
2.279200
 12
4.719880
 22
1.834800
 13
5.368440
 23
2.192080
  0
POLYLINE
  8
0
  6
CONTINUOUS
 66
     1
 40
0.000000
 41
0.000000
  0
VERTEX
  8
0
  6
CONTINUOUS
 10
4.768720
 20
1.921480
  0
VERTEX
  8
0
  6
CONTINUOUS
 10
5.417280
 20
2.279200
  0
VERTEX
  8
0
  6
CONTINUOUS
 10
5.368440
 20
2.192080
  0
VERTEX
  8
0
  6
CONTINUOUS
 10
4.719880
 20
1.834800
  0
VERTEX
  8
0
  6
CONTINUOUS
 10
4.768720
 20
1.921480
  0
SEQEND
  8
0
  0
SOLID
  8
0
 62
    15
 10
3.702600
 20
2.724920
 11
4.351160
 21
3.082200
 12
4.248200
 22
2.724920
 13
4.896760
 23
3.082200
  0
POLYLINE
  8
0
  6
CONTINUOUS
 66
     1
 40
0.000000
 41
0.000000
  0
VERTEX
  8
0
  6
CONTINUOUS
 10
3.702600
 20
2.724920
  0
VERTEX
  8
0
  6
CONTINUOUS
 10
4.351160
 20
3.082200
  0
VERTEX
  8
0
  6
CONTINUOUS
 10
4.896760
 20
3.082200
  0
VERTEX
  8
0
  6
CONTINUOUS
 10
4.248200
 20
2.724920
  0
VERTEX
  8
0
  6
CONTINUOUS
 10
3.702600
 20
2.724920
  0
SEQEND
  8
0
  0
SOLID
  8
0
 62
    15
 10
4.053720
 20
1.297560
 11
4.702280
 21
1.654840
 12
4.025120
 22
1.270280
 13
4.673680
 23
1.627560
  0
POLYLINE
  8
0
  6
CONTINUOUS
 66
     1
 40
0.000000
 41
0.000000
  0
VERTEX
  8
0
  6
CONTINUOUS
 10
4.053720
 20
1.297560
  0
VERTEX
  8
0
  6
CONTINUOUS
 10
4.702280
 20
1.654840
  0
VERTEX
  8
0
  6
CONTINUOUS
 10
4.673680
 20
1.627560
  0
VERTEX
  8
0
  6
CONTINUOUS
 10
4.025120
 20
1.270280
  0
VERTEX
  8
0
  6
CONTINUOUS
 10
4.053720
 20
1.297560
  0
SEQEND
  8
0
  0
SOLID
  8
0
 62
    15
 10
4.025120
 20
1.270280
 11
4.673680
 21
1.627560
 12
4.001360
 22
1.239480
 13
4.649920
 23
1.596760
  0
POLYLINE
  8
0
  6
CONTINUOUS
 66
     1
 40
0.000000
 41
0.000000
  0
VERTEX
  8
0
  6
CONTINUOUS
 10
4.025120
 20
1.270280
  0
VERTEX
  8
0
  6
CONTINUOUS
 10
4.673680
 20
1.627560
  0
VERTEX
  8
0
  6
CONTINUOUS
 10
4.649920
 20
1.596760
  0
VERTEX
  8
0
  6
CONTINUOUS
 10
4.001360
 20
1.239480
  0
VERTEX
  8
0
  6
CONTINUOUS
 10
4.025120
 20
1.270280
  0
SEQEND
  8
0
  0
SOLID
  8
0
 62
    15
 10
4.001360
 20
1.239480
 11
4.649920
 21
1.596760
 12
3.982000
 22
1.205160
 13
4.630560
 23
1.562440
  0
POLYLINE
  8
0
  6
CONTINUOUS
 66
     1
 40
0.000000
 41
0.000000
  0
VERTEX
  8
0
  6
CONTINUOUS
 10
4.001360
 20
1.239480
  0
VERTEX
  8
0
  6
CONTINUOUS
 10
4.649920
 20
1.596760
  0
VERTEX
  8
0
  6
CONTINUOUS
 10
4.630560
 20
1.562440
  0
VERTEX
  8
0
  6
CONTINUOUS
 10
3.982000
 20
1.205160
  0
VERTEX
  8
0
  6
CONTINUOUS
 10
4.001360
 20
1.239480
  0
SEQEND
  8
0
  0
SOLID
  8
0
 62
    15
 10
3.982000
 20
1.205160
 11
4.630560
 21
1.562440
 12
3.967040
 22
1.166880
 13
4.615600
 23
1.524160
  0
POLYLINE
  8
0
  6
CONTINUOUS
 66
     1
 40
0.000000
 41
0.000000
  0
VERTEX
  8
0
  6
CONTINUOUS
 10
3.982000
 20
1.205160
  0
VERTEX
  8
0
  6
CONTINUOUS
 10
4.630560
 20
1.562440
  0
VERTEX
  8
0
  6
CONTINUOUS
 10
4.615600
 20
1.524160
  0
VERTEX
  8
0
  6
CONTINUOUS
 10
3.967040
 20
1.166880
  0
VERTEX
  8
0
  6
CONTINUOUS
 10
3.982000
 20
1.205160
  0
SEQEND
  8
0
  0
SOLID
  8
0
 62
    15
 10
4.352480
 20
1.612600
 11
5.001040
 21
1.969880
 12
4.352480
 22
1.387320
 13
5.001040
 23
1.744600
  0
POLYLINE
  8
0
  6
CONTINUOUS
 66
     1
 40
0.000000
 41
0.000000
  0
VERTEX
  8
0
  6
CONTINUOUS
 10
4.352480
 20
1.612600
  0
VERTEX
  8
0
  6
CONTINUOUS
 10
5.001040
 20
1.969880
  0
VERTEX
  8
0
  6
CONTINUOUS
 10
5.001040
 20
1.744600
  0
VERTEX
  8
0
  6
CONTINUOUS
 10
4.352480
 20
1.387320
  0
VERTEX
  8
0
  6
CONTINUOUS
 10
4.352480
 20
1.612600
  0
SEQEND
  8
0
  0
SOLID
  8
0
 62
    15
 10
4.572040
 20
1.693120
 11
5.221040
 21
2.050400
 12
4.524960
 22
1.666280
 13
5.173520
 23
2.024000
  0
POLYLINE
  8
0
  6
CONTINUOUS
 66
     1
 40
0.000000
 41
0.000000
  0
VERTEX
  8
0
  6
CONTINUOUS
 10
4.572040
 20
1.693120
  0
VERTEX
  8
0
  6
CONTINUOUS
 10
5.221040
 20
2.050400
  0
VERTEX
  8
0
  6
CONTINUOUS
 10
5.173520
 20
2.024000
  0
VERTEX
  8
0
  6
CONTINUOUS
 10
4.524960
 20
1.666280
  0
VERTEX
  8
0
  6
CONTINUOUS
 10
4.572040
 20
1.693120
  0
SEQEND
  8
0
  0
SOLID
  8
0
 62
    15
 10
4.615600
 20
1.723920
 11
5.264160
 21
2.081200
 12
4.572040
 22
1.693120
 13
5.221040
 23
2.050400
  0
POLYLINE
  8
0
  6
CONTINUOUS
 66
     1
 40
0.000000
 41
0.000000
  0
VERTEX
  8
0
  6
CONTINUOUS
 10
4.615600
 20
1.723920
  0
VERTEX
  8
0
  6
CONTINUOUS
 10
5.264160
 20
2.081200
  0
VERTEX
  8
0
  6
CONTINUOUS
 10
5.221040
 20
2.050400
  0
VERTEX
  8
0
  6
CONTINUOUS
 10
4.572040
 20
1.693120
  0
VERTEX
  8
0
  6
CONTINUOUS
 10
4.615600
 20
1.723920
  0
SEQEND
  8
0
  0
SOLID
  8
0
 62
    15
 10
4.719880
 20
1.834800
 11
5.368440
 21
2.192080
 12
4.654320
 22
1.757800
 13
5.302880
 23
2.115080
  0
POLYLINE
  8
0
  6
CONTINUOUS
 66
     1
 40
0.000000
 41
0.000000
  0
VERTEX
  8
0
  6
CONTINUOUS
 10
4.719880
 20
1.834800
  0
VERTEX
  8
0
  6
CONTINUOUS
 10
5.368440
 20
2.192080
  0
VERTEX
  8
0
  6
CONTINUOUS
 10
5.302880
 20
2.115080
  0
VERTEX
  8
0
  6
CONTINUOUS
 10
4.654320
 20
1.757800
  0
VERTEX
  8
0
  6
CONTINUOUS
 10
4.719880
 20
1.834800
  0
SEQEND
  8
0
  0
SOLID
  8
0
 62
    15
 10
4.654320
 20
1.757800
 11
5.302880
 21
2.115080
 12
4.615600
 22
1.723920
 13
5.264160
 23
2.081200
  0
POLYLINE
  8
0
  6
CONTINUOUS
 66
     1
 40
0.000000
 41
0.000000
  0
VERTEX
  8
0
  6
CONTINUOUS
 10
4.654320
 20
1.757800
  0
VERTEX
  8
0
  6
CONTINUOUS
 10
5.302880
 20
2.115080
  0
VERTEX
  8
0
  6
CONTINUOUS
 10
5.264160
 20
2.081200
  0
VERTEX
  8
0
  6
CONTINUOUS
 10
4.615600
 20
1.723920
  0
VERTEX
  8
0
  6
CONTINUOUS
 10
4.654320
 20
1.757800
  0
SEQEND
  8
0
  0
SOLID
  8
0
 62
    15
 10
3.967040
 20
1.166880
 11
4.615600
 21
1.524160
 12
3.948120
 22
1.079760
 13
4.596680
 23
1.437040
  0
POLYLINE
  8
0
  6
CONTINUOUS
 66
     1
 40
0.000000
 41
0.000000
  0
VERTEX
  8
0
  6
CONTINUOUS
 10
3.967040
 20
1.166880
  0
VERTEX
  8
0
  6
CONTINUOUS
 10
4.615600
 20
1.524160
  0
VERTEX
  8
0
  6
CONTINUOUS
 10
4.596680
 20
1.437040
  0
VERTEX
  8
0
  6
CONTINUOUS
 10
3.948120
 20
1.079760
  0
VERTEX
  8
0
  6
CONTINUOUS
 10
3.967040
 20
1.166880
  0
SEQEND
  8
0
  0
SOLID
  8
0
 62
    15
 10
3.948120
 20
1.079760
 11
4.596680
 21
1.437040
 12
3.940640
 22
0.977680
 13
4.589200
 23
1.334960
  0
POLYLINE
  8
0
  6
CONTINUOUS
 66
     1
 40
0.000000
 41
0.000000
  0
VERTEX
  8
0
  6
CONTINUOUS
 10
3.948120
 20
1.079760
  0
VERTEX
  8
0
  6
CONTINUOUS
 10
4.596680
 20
1.437040
  0
VERTEX
  8
0
  6
CONTINUOUS
 10
4.589200
 20
1.334960
  0
VERTEX
  8
0
  6
CONTINUOUS
 10
3.940640
 20
0.977680
  0
VERTEX
  8
0
  6
CONTINUOUS
 10
3.948120
 20
1.079760
  0
SEQEND
  8
0
  0
SOLID
  8
0
 62
    15
 10
3.940640
 20
0.977680
 11
4.589200
 21
1.334960
 12
3.941960
 22
0.860200
 13
4.590520
 23
1.217920
  0
POLYLINE
  8
0
  6
CONTINUOUS
 66
     1
 40
0.000000
 41
0.000000
  0
VERTEX
  8
0
  6
CONTINUOUS
 10
3.940640
 20
0.977680
  0
VERTEX
  8
0
  6
CONTINUOUS
 10
4.589200
 20
1.334960
  0
VERTEX
  8
0
  6
CONTINUOUS
 10
4.590520
 20
1.217920
  0
VERTEX
  8
0
  6
CONTINUOUS
 10
3.941960
 20
0.860200
  0
VERTEX
  8
0
  6
CONTINUOUS
 10
3.940640
 20
0.977680
  0
SEQEND
  8
0
  0
SOLID
  8
0
 62
    15
 10
4.248200
 20
2.724920
 11
4.896760
 21
3.082200
 12
4.252600
 22
2.727120
 13
4.901160
 23
3.084400
  0
POLYLINE
  8
0
  6
CONTINUOUS
 66
     1
 40
0.000000
 41
0.000000
  0
VERTEX
  8
0
  6
CONTINUOUS
 10
4.248200
 20
2.724920
  0
VERTEX
  8
0
  6
CONTINUOUS
 10
4.896760
 20
3.082200
  0
VERTEX
  8
0
  6
CONTINUOUS
 10
4.901160
 20
3.084400
  0
VERTEX
  8
0
  6
CONTINUOUS
 10
4.252600
 20
2.727120
  0
VERTEX
  8
0
  6
CONTINUOUS
 10
4.248200
 20
2.724920
  0
SEQEND
  8
0
  0
SOLID
  8
0
 62
    15
 10
4.252600
 20
2.727120
 11
4.901160
 21
3.084400
 12
4.315960
 22
2.724040
 13
4.964520
 23
3.081320
  0
POLYLINE
  8
0
  6
CONTINUOUS
 66
     1
 40
0.000000
 41
0.000000
  0
VERTEX
  8
0
  6
CONTINUOUS
 10
4.252600
 20
2.727120
  0
VERTEX
  8
0
  6
CONTINUOUS
 10
4.901160
 20
3.084400
  0
VERTEX
  8
0
  6
CONTINUOUS
 10
4.964520
 20
3.081320
  0
VERTEX
  8
0
  6
CONTINUOUS
 10
4.315960
 20
2.724040
  0
VERTEX
  8
0
  6
CONTINUOUS
 10
4.252600
 20
2.727120
  0
SEQEND
  8
0
  0
POLYLINE
  8
0
  6
CONTINUOUS
 66
     1
 40
0.000000
 41
0.000000
  0
VERTEX
  8
0
  6
CONTINUOUS
 10
4.252600
 20
2.727120
  0
VERTEX
  8
0
  6
CONTINUOUS
 10
4.315960
 20
2.724040
  0
VERTEX
  8
0
  6
CONTINUOUS
 10
4.376240
 20
2.715680
  0
VERTEX
  8
0
  6
CONTINUOUS
 10
4.432120
 20
2.702040
  0
VERTEX
  8
0
  6
CONTINUOUS
 10
4.484920
 20
2.683560
  0
VERTEX
  8
0
  6
CONTINUOUS
 10
4.533320
 20
2.661120
  0
VERTEX
  8
0
  6
CONTINUOUS
 10
4.578640
 20
2.633840
  0
VERTEX
  8
0
  6
CONTINUOUS
 10
4.656960
 20
2.568720
  0
VERTEX
  8
0
  6
CONTINUOUS
 10
4.720320
 20
2.491720
  0
VERTEX
  8
0
  6
CONTINUOUS
 10
4.767840
 20
2.404600
  0
VERTEX
  8
0
  6
CONTINUOUS
 10
4.799960
 20
2.310440
  0
VERTEX
  8
0
  6
CONTINUOUS
 10
4.816240
 20
2.212760
  0
VERTEX
  8
0
  6
CONTINUOUS
 10
4.816680
 20
2.113320
  0
VERTEX
  8
0
  6
CONTINUOUS
 10
4.800840
 20
2.015200
  0
VERTEX
  8
0
  6
CONTINUOUS
 10
4.768720
 20
1.921480
  0
VERTEX
  8
0
  6
CONTINUOUS
 10
4.719880
 20
1.834800
  0
VERTEX
  8
0
  6
CONTINUOUS
 10
4.654320
 20
1.757800
  0
VERTEX
  8
0
  6
CONTINUOUS
 10
4.615600
 20
1.723920
  0
VERTEX
  8
0
  6
CONTINUOUS
 10
4.572040
 20
1.693120
  0
VERTEX
  8
0
  6
CONTINUOUS
 10
4.524960
 20
1.666280
  0
VERTEX
  8
0
  6
CONTINUOUS
 10
4.473040
 20
1.643840
  0
VERTEX
  8
0
  6
CONTINUOUS
 10
4.417160
 20
1.625800
  0
VERTEX
  8
0
  6
CONTINUOUS
 10
4.356880
 20
1.612600
  0
VERTEX
  8
0
  6
CONTINUOUS
 10
4.352480
 20
1.612600
  0
VERTEX
  8
0
  6
CONTINUOUS
 10
4.352480
 20
1.387320
  0
VERTEX
  8
0
  6
CONTINUOUS
 10
4.285600
 20
1.381160
  0
VERTEX
  8
0
  6
CONTINUOUS
 10
4.226200
 20
1.371040
  0
VERTEX
  8
0
  6
CONTINUOUS
 10
4.173400
 20
1.357840
  0
VERTEX
  8
0
  6
CONTINUOUS
 10
4.127640
 20
1.341120
  0
VERTEX
  8
0
  6
CONTINUOUS
 10
4.087600
 20
1.321320
  0
VERTEX
  8
0
  6
CONTINUOUS
 10
4.053720
 20
1.297560
  0
VERTEX
  8
0
  6
CONTINUOUS
 10
4.025120
 20
1.270280
  0
VERTEX
  8
0
  6
CONTINUOUS
 10
4.001360
 20
1.239480
  0
VERTEX
  8
0
  6
CONTINUOUS
 10
3.982000
 20
1.205160
  0
VERTEX
  8
0
  6
CONTINUOUS
 10
3.967040
 20
1.166880
  0
VERTEX
  8
0
  6
CONTINUOUS
 10
3.948120
 20
1.079760
  0
VERTEX
  8
0
  6
CONTINUOUS
 10
3.940640
 20
0.977680
  0
VERTEX
  8
0
  6
CONTINUOUS
 10
3.941960
 20
0.860200
  0
VERTEX
  8
0
  6
CONTINUOUS
 10
3.702600
 20
0.860200
  0
VERTEX
  8
0
  6
CONTINUOUS
 10
3.702600
 20
2.724920
  0
VERTEX
  8
0
  6
CONTINUOUS
 10
4.248200
 20
2.724920
  0
VERTEX
  8
0
  6
CONTINUOUS
 10
4.252600
 20
2.727120
  0
SEQEND
  8
0
  0
TEXT
  8
0
 10
4.288680
 20
0.634920
 40
0.138024
  1
BA  302
 41
1.000000
  7
SN0
 71
     0
 72
     5
 11
4.878512
 21
0.634920
  0
TEXT
  8
0
 10
4.059000
 20
0.443080
 40
0.138024
  1
1-1/8" x 1-7/8"
 41
1.000000
  7
SN0
 71
     0
 72
     5
 11
5.105982
 21
0.443080
  0
ENDSEC
  0
EOF
