  0
SECTION
  2
HEADER
  9
$ACADVER
  1
AC1006
  9
$EXTMIN
 10
0.488840
 20
0.422840
  9
$EXTMAX
 10
8.126800
 20
9.876240
  9
$LTSCALE
 40
0.044000
  9
$PDMODE
 70
    35
  9
$PDSIZE
 40
0.035200
  0
ENDSEC
  0
SECTION
  2
TABLES
  0
TABLE
  2
LTYPE
 70
     9
  0
LTYPE
  2
CONTINUOUS
 70
    64
  3
Solid line
 72
    65
 73
     0
 40
0.000000
  0
LTYPE
  2
DASHED
 70
    64
  3
__ __ __ __ __ __ __ __ __ __ __ __ __ __ __
 72
    65
 73
     2
 40
0.000330
 49
0.000220
 49
-0.000110
  0
LTYPE
  2
HIDDEN
 70
    64
  3
 _ _ _ _ _ _ _ _ _ _ _ _ _ _ _ _ _ _ _ _ _ _
 72
    65
 73
     2
 40
0.000165
 49
0.000110
 49
-0.000055
  0
LTYPE
  2
CENTER
 70
    64
  3
____ _ ____ _ ____ _ ____ _ ____ _ ____ _ ____
 72
    65
 73
     4
 40
0.000880
 49
0.000550
 49
-0.000110
 49
0.000110
 49
-0.000110
  0
LTYPE
  2
PHANTOM
 70
    64
  3
_____ _ _ _____ _ _ _____ _ _ _____ _ _ ____
 72
    65
 73
     6
 40
0.001100
 49
0.000550
 49
-0.000110
 49
0.000110
 49
-0.000110
 49
0.000110
 49
-0.000110
  0
LTYPE
  2
DOT
 70
    64
  3
...............................................
 72
    65
 73
     2
 40
0.000110
 49
0.000000
 49
-0.000110
  0
LTYPE
  2
DASHDOT
 70
    64
  3
__ . __ . __ . __ . __ . __ . __ . __ . __ . __
 72
    65
 73
     4
 40
0.000440
 49
0.000220
 49
-0.000110
 49
0.000000
 49
-0.000110
  0
LTYPE
  2
BORDER
 70
    64
  3
__ __ . __ __ . __ __ . __ __ . __ __ . __ __
 72
    65
 73
     6
 40
0.000770
 49
0.000220
 49
-0.000110
 49
0.000220
 49
-0.000110
 49
0.000000
 49
-0.000110
  0
LTYPE
  2
DIVIDE
 70
    64
  3
__ . . __ . . __ . . __ . . __ . . __ . . __
 72
    65
 73
     6
 40
0.000550
 49
0.000220
 49
-0.000110
 49
0.000000
 49
-0.000110
 49
0.000000
 49
-0.000110
  0
LTYPE
  2
DOTDOT
 70
    64
  3
 . .  . .  . .  . .  . .  . . 
 72
    65
 73
     5
 40
0.000242
 49
-0.000110
 49
0.000000
 49
-0.000110
 49
0.000000
 49
-0.000110
  0
ENDTAB
  0
TABLE
  2
STYLE
 70
     4
  0
STYLE
 70
     0
  2
SN0
 40
0.000000
 41
0.000440
 50
0.000000
 71
     0
 42
0.000000
  3
ROMAND
  0
STYLE
 70
    68
  2
SV0
 40
0.000000
 41
0.000440
 50
0.000000
 71
     0
 42
0.000000
  3
ROMAND
  0
STYLE
 70
     0
  2
SN1
 40
0.000000
 41
0.000440
 50
0.000000
 71
     0
 42
0.000000
  3
SCRIPTS
  0
STYLE
 70
    68
  2
SV1
 40
0.000000
 41
0.000440
 50
0.000000
 71
     0
 42
0.000000
  3
SCRIPTS
  0
ENDTAB
  0
TABLE
  2
LAYER
 70
     3
  0
LAYER
  2
FOREGROUND
 70
    64
 62
     7
  6
CONTINUOUS
  0
LAYER
  2
BACKGROUND
 70
    65
 62
    -7
  6
CONTINUOUS
  0
LAYER
  2
0
 70
    64
 62
     7
  6
CONTINUOUS
  0
ENDTAB
  0
ENDSEC
  0
SECTION
  2
ENTITIES
  0
POLYLINE
  8
FOREGROUND
  6
CONTINUOUS
 66
     1
 40
0.000000
 41
0.000000
  0
VERTEX
  8
FOREGROUND
  6
CONTINUOUS
 10
0.000000
 20
10.299080
  0
VERTEX
  8
FOREGROUND
  6
CONTINUOUS
 10
8.499920
 20
10.299080
  0
VERTEX
  8
FOREGROUND
  6
CONTINUOUS
 10
8.499920
 20
-0.700920
  0
VERTEX
  8
FOREGROUND
  6
CONTINUOUS
 10
0.000000
 20
-0.700920
  0
VERTEX
  8
FOREGROUND
  6
CONTINUOUS
 10
0.000000
 20
10.299080
  0
SEQEND
  8
0
  0
POLYLINE
  8
FOREGROUND
  6
CONTINUOUS
 66
     1
 40
0.000000
 41
0.000000
  0
VERTEX
  8
FOREGROUND
  6
CONTINUOUS
 10
0.000000
 20
10.299080
  0
VERTEX
  8
FOREGROUND
  6
CONTINUOUS
 10
8.499920
 20
10.299080
  0
VERTEX
  8
FOREGROUND
  6
CONTINUOUS
 10
8.499920
 20
-0.700920
  0
VERTEX
  8
FOREGROUND
  6
CONTINUOUS
 10
0.000000
 20
-0.700920
  0
VERTEX
  8
FOREGROUND
  6
CONTINUOUS
 10
0.000000
 20
10.299080
  0
SEQEND
  8
0
  0
POLYLINE
  8
0
  6
CONTINUOUS
 66
     1
 40
0.000000
 41
0.000000
  0
VERTEX
  8
0
  6
CONTINUOUS
 10
7.141200
 20
1.316920
  0
VERTEX
  8
0
  6
CONTINUOUS
 10
7.378360
 20
1.316920
  0
VERTEX
  8
0
  6
CONTINUOUS
 10
7.384520
 20
1.314720
  0
VERTEX
  8
0
  6
CONTINUOUS
 10
7.388480
 20
1.477960
  0
VERTEX
  8
0
  6
CONTINUOUS
 10
7.396400
 20
1.631520
  0
VERTEX
  8
0
  6
CONTINUOUS
 10
7.407840
 20
1.776280
  0
VERTEX
  8
0
  6
CONTINUOUS
 10
7.422360
 20
1.911800
  0
VERTEX
  8
0
  6
CONTINUOUS
 10
7.439960
 20
2.039400
  0
VERTEX
  8
0
  6
CONTINUOUS
 10
7.460200
 20
2.159520
  0
VERTEX
  8
0
  6
CONTINUOUS
 10
7.483080
 20
2.272160
  0
VERTEX
  8
0
  6
CONTINUOUS
 10
7.507720
 20
2.378640
  0
VERTEX
  8
0
  6
CONTINUOUS
 10
7.548640
 20
2.526920
  0
VERTEX
  8
0
  6
CONTINUOUS
 10
7.593520
 20
2.662880
  0
VERTEX
  8
0
  6
CONTINUOUS
 10
7.640600
 20
2.789160
  0
VERTEX
  8
0
  6
CONTINUOUS
 10
7.689880
 20
2.907080
  0
VERTEX
  8
0
  6
CONTINUOUS
 10
7.757200
 20
3.054040
  0
VERTEX
  8
0
  6
CONTINUOUS
 10
7.888760
 20
3.329480
  0
VERTEX
  8
0
  6
CONTINUOUS
 10
7.920000
 20
3.397680
  0
VERTEX
  8
0
  6
CONTINUOUS
 10
7.977640
 20
3.536280
  0
VERTEX
  8
0
  6
CONTINUOUS
 10
8.004040
 20
3.608440
  0
VERTEX
  8
0
  6
CONTINUOUS
 10
8.039680
 20
3.720200
  0
VERTEX
  8
0
  6
CONTINUOUS
 10
8.070040
 20
3.839440
  0
VERTEX
  8
0
  6
CONTINUOUS
 10
8.093800
 20
3.967040
  0
VERTEX
  8
0
  6
CONTINUOUS
 10
8.105680
 20
4.057680
  0
VERTEX
  8
0
  6
CONTINUOUS
 10
8.114480
 20
4.153600
  0
VERTEX
  8
0
  6
CONTINUOUS
 10
8.119320
 20
4.255240
  0
VERTEX
  8
0
  6
CONTINUOUS
 10
8.120200
 20
4.308480
  0
VERTEX
  8
0
  6
CONTINUOUS
 10
8.118000
 20
4.321240
  0
VERTEX
  8
0
  6
CONTINUOUS
 10
8.117120
 20
4.374480
  0
VERTEX
  8
0
  6
CONTINUOUS
 10
8.112280
 20
4.476120
  0
VERTEX
  8
0
  6
CONTINUOUS
 10
8.103480
 20
4.572040
  0
VERTEX
  8
0
  6
CONTINUOUS
 10
8.091600
 20
4.662680
  0
VERTEX
  8
0
  6
CONTINUOUS
 10
8.076640
 20
4.748920
  0
VERTEX
  8
0
  6
CONTINUOUS
 10
8.058600
 20
4.830760
  0
VERTEX
  8
0
  6
CONTINUOUS
 10
8.026480
 20
4.947360
  0
VERTEX
  8
0
  6
CONTINUOUS
 10
7.989080
 20
5.057800
  0
VERTEX
  8
0
  6
CONTINUOUS
 10
7.947720
 20
5.163400
  0
VERTEX
  8
0
  6
CONTINUOUS
 10
7.887000
 20
5.300240
  0
VERTEX
  8
0
  6
CONTINUOUS
 10
7.721560
 20
5.647840
  0
VERTEX
  8
0
  6
CONTINUOUS
 10
7.655120
 20
5.800520
  0
VERTEX
  8
0
  6
CONTINUOUS
 10
7.607160
 20
5.923720
  0
VERTEX
  8
0
  6
CONTINUOUS
 10
7.576360
 20
6.010840
  0
VERTEX
  8
0
  6
CONTINUOUS
 10
7.546880
 20
6.102800
  0
VERTEX
  8
0
  6
CONTINUOUS
 10
7.505960
 20
6.251080
  0
VERTEX
  8
0
  6
CONTINUOUS
 10
7.480880
 20
6.357560
  0
VERTEX
  8
0
  6
CONTINUOUS
 10
7.447880
 20
6.529160
  0
VERTEX
  8
0
  6
CONTINUOUS
 10
7.428960
 20
6.653240
  0
VERTEX
  8
0
  6
CONTINUOUS
 10
7.412680
 20
6.784800
  0
VERTEX
  8
0
  6
CONTINUOUS
 10
7.397280
 20
6.961240
  0
VERTEX
  8
0
  6
CONTINUOUS
 10
7.388480
 20
7.112160
  0
VERTEX
  8
0
  6
CONTINUOUS
 10
7.383200
 20
7.273200
  0
VERTEX
  8
0
  6
CONTINUOUS
 10
7.382760
 20
7.315000
  0
VERTEX
  8
0
  6
CONTINUOUS
 10
7.132840
 20
7.315000
  0
VERTEX
  8
0
  6
CONTINUOUS
 10
7.132840
 20
7.312800
  0
VERTEX
  8
0
  6
CONTINUOUS
 10
7.131520
 20
7.357680
  0
VERTEX
  8
0
  6
CONTINUOUS
 10
7.128440
 20
7.401680
  0
VERTEX
  8
0
  6
CONTINUOUS
 10
7.122720
 20
7.445240
  0
VERTEX
  8
0
  6
CONTINUOUS
 10
7.115240
 20
7.488360
  0
VERTEX
  8
0
  6
CONTINUOUS
 10
7.105560
 20
7.531040
  0
VERTEX
  8
0
  6
CONTINUOUS
 10
7.094120
 20
7.572840
  0
VERTEX
  8
0
  6
CONTINUOUS
 10
7.080480
 20
7.613760
  0
VERTEX
  8
0
  6
CONTINUOUS
 10
7.047480
 20
7.692960
  0
VERTEX
  8
0
  6
CONTINUOUS
 10
7.007440
 20
7.768200
  0
VERTEX
  8
0
  6
CONTINUOUS
 10
6.985000
 20
7.804280
  0
VERTEX
  8
0
  6
CONTINUOUS
 10
6.960800
 20
7.839040
  0
VERTEX
  8
0
  6
CONTINUOUS
 10
6.908000
 20
7.905040
  0
VERTEX
  8
0
  6
CONTINUOUS
 10
6.849040
 20
7.965760
  0
VERTEX
  8
0
  6
CONTINUOUS
 10
6.817800
 20
7.993920
  0
VERTEX
  8
0
  6
CONTINUOUS
 10
6.784800
 20
8.020760
  0
VERTEX
  8
0
  6
CONTINUOUS
 10
6.750920
 20
8.045840
  0
VERTEX
  8
0
  6
CONTINUOUS
 10
6.679200
 20
8.091160
  0
VERTEX
  8
0
  6
CONTINUOUS
 10
6.642240
 20
8.110960
  0
VERTEX
  8
0
  6
CONTINUOUS
 10
6.603520
 20
8.129000
  0
VERTEX
  8
0
  6
CONTINUOUS
 10
6.564360
 20
8.145280
  0
VERTEX
  8
0
  6
CONTINUOUS
 10
6.523880
 20
8.159360
  0
VERTEX
  8
0
  6
CONTINUOUS
 10
6.482960
 20
8.171680
  0
VERTEX
  8
0
  6
CONTINUOUS
 10
6.440720
 20
8.181800
  0
VERTEX
  8
0
  6
CONTINUOUS
 10
6.398040
 20
8.189720
  0
VERTEX
  8
0
  6
CONTINUOUS
 10
6.354920
 20
8.195440
  0
VERTEX
  8
0
  6
CONTINUOUS
 10
6.310480
 20
8.198960
  0
VERTEX
  8
0
  6
CONTINUOUS
 10
6.266040
 20
8.200280
  0
VERTEX
  8
0
  6
CONTINUOUS
 10
6.221600
 20
8.198960
  0
VERTEX
  8
0
  6
CONTINUOUS
 10
6.177160
 20
8.195440
  0
VERTEX
  8
0
  6
CONTINUOUS
 10
6.134040
 20
8.189720
  0
VERTEX
  8
0
  6
CONTINUOUS
 10
6.090920
 20
8.181800
  0
VERTEX
  8
0
  6
CONTINUOUS
 10
6.049120
 20
8.171680
  0
VERTEX
  8
0
  6
CONTINUOUS
 10
6.007760
 20
8.159800
  0
VERTEX
  8
0
  6
CONTINUOUS
 10
5.927680
 20
8.129440
  0
VERTEX
  8
0
  6
CONTINUOUS
 10
5.889400
 20
8.111400
  0
VERTEX
  8
0
  6
CONTINUOUS
 10
5.851560
 20
8.091600
  0
VERTEX
  8
0
  6
CONTINUOUS
 10
5.779840
 20
8.046720
  0
VERTEX
  8
0
  6
CONTINUOUS
 10
5.745960
 20
8.021640
  0
VERTEX
  8
0
  6
CONTINUOUS
 10
5.681280
 20
7.967080
  0
VERTEX
  8
0
  6
CONTINUOUS
 10
5.621880
 20
7.906360
  0
VERTEX
  8
0
  6
CONTINUOUS
 10
5.594600
 20
7.874240
  0
VERTEX
  8
0
  6
CONTINUOUS
 10
5.568640
 20
7.840360
  0
VERTEX
  8
0
  6
CONTINUOUS
 10
5.521560
 20
7.769520
  0
VERTEX
  8
0
  6
CONTINUOUS
 10
5.481520
 20
7.694720
  0
VERTEX
  8
0
  6
CONTINUOUS
 10
5.463920
 20
7.655560
  0
VERTEX
  8
0
  6
CONTINUOUS
 10
5.434440
 20
7.574600
  0
VERTEX
  8
0
  6
CONTINUOUS
 10
5.412880
 20
7.490560
  0
VERTEX
  8
0
  6
CONTINUOUS
 10
5.405400
 20
7.447440
  0
VERTEX
  8
0
  6
CONTINUOUS
 10
5.399680
 20
7.403880
  0
VERTEX
  8
0
  6
CONTINUOUS
 10
5.396600
 20
7.359880
  0
VERTEX
  8
0
  6
CONTINUOUS
 10
5.395280
 20
7.315000
  0
VERTEX
  8
0
  6
CONTINUOUS
 10
5.138760
 20
7.315000
  0
VERTEX
  8
0
  6
CONTINUOUS
 10
5.138760
 20
6.820880
  0
VERTEX
  8
0
  6
CONTINUOUS
 10
4.609880
 20
6.820880
  0
VERTEX
  8
0
  6
CONTINUOUS
 10
4.609880
 20
6.014800
  0
VERTEX
  8
0
  6
CONTINUOUS
 10
4.611640
 20
6.012600
  0
VERTEX
  8
0
  6
CONTINUOUS
 10
5.395280
 20
6.012600
  0
VERTEX
  8
0
  6
CONTINUOUS
 10
5.392640
 20
6.006000
  0
VERTEX
  8
0
  6
CONTINUOUS
 10
5.392640
 20
2.615360
  0
VERTEX
  8
0
  6
CONTINUOUS
 10
4.613840
 20
2.617120
  0
VERTEX
  8
0
  6
CONTINUOUS
 10
4.611640
 20
2.614920
  0
VERTEX
  8
0
  6
CONTINUOUS
 10
4.611640
 20
1.808400
  0
VERTEX
  8
0
  6
CONTINUOUS
 10
5.140960
 20
1.808400
  0
VERTEX
  8
0
  6
CONTINUOUS
 10
5.140960
 20
1.319120
  0
VERTEX
  8
0
  6
CONTINUOUS
 10
5.395280
 20
1.319120
  0
VERTEX
  8
0
  6
CONTINUOUS
 10
5.396600
 20
1.274240
  0
VERTEX
  8
0
  6
CONTINUOUS
 10
5.399680
 20
1.230240
  0
VERTEX
  8
0
  6
CONTINUOUS
 10
5.405400
 20
1.186240
  0
VERTEX
  8
0
  6
CONTINUOUS
 10
5.413320
 20
1.143120
  0
VERTEX
  8
0
  6
CONTINUOUS
 10
5.423000
 20
1.100880
  0
VERTEX
  8
0
  6
CONTINUOUS
 10
5.434880
 20
1.059080
  0
VERTEX
  8
0
  6
CONTINUOUS
 10
5.448520
 20
1.018160
  0
VERTEX
  8
0
  6
CONTINUOUS
 10
5.464360
 20
0.978120
  0
VERTEX
  8
0
  6
CONTINUOUS
 10
5.481960
 20
0.938520
  0
VERTEX
  8
0
  6
CONTINUOUS
 10
5.501320
 20
0.900240
  0
VERTEX
  8
0
  6
CONTINUOUS
 10
5.522440
 20
0.863280
  0
VERTEX
  8
0
  6
CONTINUOUS
 10
5.569520
 20
0.792000
  0
VERTEX
  8
0
  6
CONTINUOUS
 10
5.595480
 20
0.758120
  0
VERTEX
  8
0
  6
CONTINUOUS
 10
5.623200
 20
0.725560
  0
VERTEX
  8
0
  6
CONTINUOUS
 10
5.682600
 20
0.664840
  0
VERTEX
  8
0
  6
CONTINUOUS
 10
5.747280
 20
0.609840
  0
VERTEX
  8
0
  6
CONTINUOUS
 10
5.816800
 20
0.561000
  0
VERTEX
  8
0
  6
CONTINUOUS
 10
5.891160
 20
0.519200
  0
VERTEX
  8
0
  6
CONTINUOUS
 10
5.929880
 20
0.501160
  0
VERTEX
  8
0
  6
CONTINUOUS
 10
5.969480
 20
0.484880
  0
VERTEX
  8
0
  6
CONTINUOUS
 10
6.009960
 20
0.470360
  0
VERTEX
  8
0
  6
CONTINUOUS
 10
6.050880
 20
0.458040
  0
VERTEX
  8
0
  6
CONTINUOUS
 10
6.093120
 20
0.447920
  0
VERTEX
  8
0
  6
CONTINUOUS
 10
6.135800
 20
0.440000
  0
VERTEX
  8
0
  6
CONTINUOUS
 10
6.179360
 20
0.434280
  0
VERTEX
  8
0
  6
CONTINUOUS
 10
6.223360
 20
0.430760
  0
VERTEX
  8
0
  6
CONTINUOUS
 10
6.268240
 20
0.429440
  0
VERTEX
  8
0
  6
CONTINUOUS
 10
6.312680
 20
0.430760
  0
VERTEX
  8
0
  6
CONTINUOUS
 10
6.356680
 20
0.434280
  0
VERTEX
  8
0
  6
CONTINUOUS
 10
6.400240
 20
0.440000
  0
VERTEX
  8
0
  6
CONTINUOUS
 10
6.442920
 20
0.447920
  0
VERTEX
  8
0
  6
CONTINUOUS
 10
6.484720
 20
0.458040
  0
VERTEX
  8
0
  6
CONTINUOUS
 10
6.525640
 20
0.470360
  0
VERTEX
  8
0
  6
CONTINUOUS
 10
6.565680
 20
0.484440
  0
VERTEX
  8
0
  6
CONTINUOUS
 10
6.604840
 20
0.500720
  0
VERTEX
  8
0
  6
CONTINUOUS
 10
6.643120
 20
0.518760
  0
VERTEX
  8
0
  6
CONTINUOUS
 10
6.680080
 20
0.538560
  0
VERTEX
  8
0
  6
CONTINUOUS
 10
6.750920
 20
0.583880
  0
VERTEX
  8
0
  6
CONTINUOUS
 10
6.784800
 20
0.608960
  0
VERTEX
  8
0
  6
CONTINUOUS
 10
6.848160
 20
0.663960
  0
VERTEX
  8
0
  6
CONTINUOUS
 10
6.878080
 20
0.693440
  0
VERTEX
  8
0
  6
CONTINUOUS
 10
6.933520
 20
0.756800
  0
VERTEX
  8
0
  6
CONTINUOUS
 10
6.982800
 20
0.825440
  0
VERTEX
  8
0
  6
CONTINUOUS
 10
7.025480
 20
0.898920
  0
VERTEX
  8
0
  6
CONTINUOUS
 10
7.044400
 20
0.936760
  0
VERTEX
  8
0
  6
CONTINUOUS
 10
7.061560
 20
0.975920
  0
VERTEX
  8
0
  6
CONTINUOUS
 10
7.090160
 20
1.056880
  0
VERTEX
  8
0
  6
CONTINUOUS
 10
7.101600
 20
1.098680
  0
VERTEX
  8
0
  6
CONTINUOUS
 10
7.111280
 20
1.141360
  0
VERTEX
  8
0
  6
CONTINUOUS
 10
7.118760
 20
1.184480
  0
VERTEX
  8
0
  6
CONTINUOUS
 10
7.124040
 20
1.228040
  0
VERTEX
  8
0
  6
CONTINUOUS
 10
7.127120
 20
1.272040
  0
VERTEX
  8
0
  6
CONTINUOUS
 10
7.128440
 20
1.316920
  0
VERTEX
  8
0
  6
CONTINUOUS
 10
7.141200
 20
1.316920
  0
SEQEND
  8
0
  0
TEXT
  8
0
 10
7.102040
 20
9.725320
 40
0.138222
  1
hand rail
 41
1.000000
  7
SN0
 71
     0
 72
     5
 11
7.740617
 21
9.725320
  0
TEXT
  8
0
 10
6.912840
 20
9.533480
 40
0.138222
  1
283, 301, 313
 41
1.000000
  7
SN0
 71
     0
 72
     5
 11
7.931917
 21
9.533480
  0
SOLID
  8
0
 62
    15
 10
1.614800
 20
7.253400
 11
1.103960
 21
7.754560
 12
1.662320
 22
7.472520
 13
1.151480
 23
7.973680
  0
POLYLINE
  8
0
  6
CONTINUOUS
 66
     1
 40
0.000000
 41
0.000000
  0
VERTEX
  8
0
  6
CONTINUOUS
 10
1.614800
 20
7.253400
  0
VERTEX
  8
0
  6
CONTINUOUS
 10
1.103960
 20
7.754560
  0
VERTEX
  8
0
  6
CONTINUOUS
 10
1.151480
 20
7.973680
  0
VERTEX
  8
0
  6
CONTINUOUS
 10
1.662320
 20
7.472520
  0
VERTEX
  8
0
  6
CONTINUOUS
 10
1.614800
 20
7.253400
  0
SEQEND
  8
0
  0
SOLID
  8
0
 62
    15
 10
1.723920
 20
2.634280
 11
1.213080
 21
3.135440
 12
1.697960
 22
2.914120
 13
1.187120
 23
3.415280
  0
POLYLINE
  8
0
  6
CONTINUOUS
 66
     1
 40
0.000000
 41
0.000000
  0
VERTEX
  8
0
  6
CONTINUOUS
 10
1.723920
 20
2.634280
  0
VERTEX
  8
0
  6
CONTINUOUS
 10
1.213080
 20
3.135440
  0
VERTEX
  8
0
  6
CONTINUOUS
 10
1.187120
 20
3.415280
  0
VERTEX
  8
0
  6
CONTINUOUS
 10
1.697960
 20
2.914120
  0
VERTEX
  8
0
  6
CONTINUOUS
 10
1.723920
 20
2.634280
  0
SEQEND
  8
0
  0
SOLID
  8
0
 62
    15
 10
1.697960
 20
2.914120
 11
1.187120
 21
3.415280
 12
1.660120
 22
3.161840
 13
1.149280
 23
3.663000
  0
POLYLINE
  8
0
  6
CONTINUOUS
 66
     1
 40
0.000000
 41
0.000000
  0
VERTEX
  8
0
  6
CONTINUOUS
 10
1.697960
 20
2.914120
  0
VERTEX
  8
0
  6
CONTINUOUS
 10
1.187120
 20
3.415280
  0
VERTEX
  8
0
  6
CONTINUOUS
 10
1.149280
 20
3.663000
  0
VERTEX
  8
0
  6
CONTINUOUS
 10
1.660120
 20
3.161840
  0
VERTEX
  8
0
  6
CONTINUOUS
 10
1.697960
 20
2.914120
  0
SEQEND
  8
0
  0
SOLID
  8
0
 62
    15
 10
1.660120
 20
3.161840
 11
1.149280
 21
3.663000
 12
1.612600
 22
3.380960
 13
1.101760
 23
3.882120
  0
POLYLINE
  8
0
  6
CONTINUOUS
 66
     1
 40
0.000000
 41
0.000000
  0
VERTEX
  8
0
  6
CONTINUOUS
 10
1.660120
 20
3.161840
  0
VERTEX
  8
0
  6
CONTINUOUS
 10
1.149280
 20
3.663000
  0
VERTEX
  8
0
  6
CONTINUOUS
 10
1.101760
 20
3.882120
  0
VERTEX
  8
0
  6
CONTINUOUS
 10
1.612600
 20
3.380960
  0
VERTEX
  8
0
  6
CONTINUOUS
 10
1.660120
 20
3.161840
  0
SEQEND
  8
0
  0
SOLID
  8
0
 62
    15
 10
1.612600
 20
3.380960
 11
1.101760
 21
3.882120
 12
1.557160
 22
3.575440
 13
1.046320
 23
4.077040
  0
POLYLINE
  8
0
  6
CONTINUOUS
 66
     1
 40
0.000000
 41
0.000000
  0
VERTEX
  8
0
  6
CONTINUOUS
 10
1.612600
 20
3.380960
  0
VERTEX
  8
0
  6
CONTINUOUS
 10
1.101760
 20
3.882120
  0
VERTEX
  8
0
  6
CONTINUOUS
 10
1.046320
 20
4.077040
  0
VERTEX
  8
0
  6
CONTINUOUS
 10
1.557160
 20
3.575440
  0
VERTEX
  8
0
  6
CONTINUOUS
 10
1.612600
 20
3.380960
  0
SEQEND
  8
0
  0
SOLID
  8
0
 62
    15
 10
1.557160
 20
3.575440
 11
1.046320
 21
4.077040
 12
1.496000
 22
3.750120
 13
0.984720
 23
4.251720
  0
POLYLINE
  8
0
  6
CONTINUOUS
 66
     1
 40
0.000000
 41
0.000000
  0
VERTEX
  8
0
  6
CONTINUOUS
 10
1.557160
 20
3.575440
  0
VERTEX
  8
0
  6
CONTINUOUS
 10
1.046320
 20
4.077040
  0
VERTEX
  8
0
  6
CONTINUOUS
 10
0.984720
 20
4.251720
  0
VERTEX
  8
0
  6
CONTINUOUS
 10
1.496000
 20
3.750120
  0
VERTEX
  8
0
  6
CONTINUOUS
 10
1.557160
 20
3.575440
  0
SEQEND
  8
0
  0
SOLID
  8
0
 62
    15
 10
1.496000
 20
3.750120
 11
0.984720
 21
4.251720
 12
1.363560
 22
4.056360
 13
0.852720
 23
4.557520
  0
POLYLINE
  8
0
  6
CONTINUOUS
 66
     1
 40
0.000000
 41
0.000000
  0
VERTEX
  8
0
  6
CONTINUOUS
 10
1.496000
 20
3.750120
  0
VERTEX
  8
0
  6
CONTINUOUS
 10
0.984720
 20
4.251720
  0
VERTEX
  8
0
  6
CONTINUOUS
 10
0.852720
 20
4.557520
  0
VERTEX
  8
0
  6
CONTINUOUS
 10
1.363560
 20
4.056360
  0
VERTEX
  8
0
  6
CONTINUOUS
 10
1.496000
 20
3.750120
  0
SEQEND
  8
0
  0
SOLID
  8
0
 62
    15
 10
1.363560
 20
4.056360
 11
0.852720
 21
4.557520
 12
1.231560
 22
4.331800
 13
0.720720
 23
4.832960
  0
POLYLINE
  8
0
  6
CONTINUOUS
 66
     1
 40
0.000000
 41
0.000000
  0
VERTEX
  8
0
  6
CONTINUOUS
 10
1.363560
 20
4.056360
  0
VERTEX
  8
0
  6
CONTINUOUS
 10
0.852720
 20
4.557520
  0
VERTEX
  8
0
  6
CONTINUOUS
 10
0.720720
 20
4.832960
  0
VERTEX
  8
0
  6
CONTINUOUS
 10
1.231560
 20
4.331800
  0
VERTEX
  8
0
  6
CONTINUOUS
 10
1.363560
 20
4.056360
  0
SEQEND
  8
0
  0
SOLID
  8
0
 62
    15
 10
1.231560
 20
4.331800
 11
0.720720
 21
4.832960
 12
1.116720
 22
4.610320
 13
0.605440
 23
5.111920
  0
POLYLINE
  8
0
  6
CONTINUOUS
 66
     1
 40
0.000000
 41
0.000000
  0
VERTEX
  8
0
  6
CONTINUOUS
 10
1.231560
 20
4.331800
  0
VERTEX
  8
0
  6
CONTINUOUS
 10
0.720720
 20
4.832960
  0
VERTEX
  8
0
  6
CONTINUOUS
 10
0.605440
 20
5.111920
  0
VERTEX
  8
0
  6
CONTINUOUS
 10
1.116720
 20
4.610320
  0
VERTEX
  8
0
  6
CONTINUOUS
 10
1.231560
 20
4.331800
  0
SEQEND
  8
0
  0
SOLID
  8
0
 62
    15
 10
1.116720
 20
4.610320
 11
0.605440
 21
5.111920
 12
1.070080
 22
4.761680
 13
0.559240
 23
5.262840
  0
POLYLINE
  8
0
  6
CONTINUOUS
 66
     1
 40
0.000000
 41
0.000000
  0
VERTEX
  8
0
  6
CONTINUOUS
 10
1.116720
 20
4.610320
  0
VERTEX
  8
0
  6
CONTINUOUS
 10
0.605440
 20
5.111920
  0
VERTEX
  8
0
  6
CONTINUOUS
 10
0.559240
 20
5.262840
  0
VERTEX
  8
0
  6
CONTINUOUS
 10
1.070080
 20
4.761680
  0
VERTEX
  8
0
  6
CONTINUOUS
 10
1.116720
 20
4.610320
  0
SEQEND
  8
0
  0
SOLID
  8
0
 62
    15
 10
1.070080
 20
4.761680
 11
0.559240
 21
5.262840
 12
1.034000
 22
4.925800
 13
0.523160
 23
5.426960
  0
POLYLINE
  8
0
  6
CONTINUOUS
 66
     1
 40
0.000000
 41
0.000000
  0
VERTEX
  8
0
  6
CONTINUOUS
 10
1.070080
 20
4.761680
  0
VERTEX
  8
0
  6
CONTINUOUS
 10
0.559240
 20
5.262840
  0
VERTEX
  8
0
  6
CONTINUOUS
 10
0.523160
 20
5.426960
  0
VERTEX
  8
0
  6
CONTINUOUS
 10
1.034000
 20
4.925800
  0
VERTEX
  8
0
  6
CONTINUOUS
 10
1.070080
 20
4.761680
  0
SEQEND
  8
0
  0
SOLID
  8
0
 62
    15
 10
1.034000
 20
4.925800
 11
0.523160
 21
5.426960
 12
1.010240
 22
5.107520
 13
0.499400
 23
5.608680
  0
POLYLINE
  8
0
  6
CONTINUOUS
 66
     1
 40
0.000000
 41
0.000000
  0
VERTEX
  8
0
  6
CONTINUOUS
 10
1.034000
 20
4.925800
  0
VERTEX
  8
0
  6
CONTINUOUS
 10
0.523160
 20
5.426960
  0
VERTEX
  8
0
  6
CONTINUOUS
 10
0.499400
 20
5.608680
  0
VERTEX
  8
0
  6
CONTINUOUS
 10
1.010240
 20
5.107520
  0
VERTEX
  8
0
  6
CONTINUOUS
 10
1.034000
 20
4.925800
  0
SEQEND
  8
0
  0
SOLID
  8
0
 62
    15
 10
1.010240
 20
5.107520
 11
0.499400
 21
5.608680
 12
1.000560
 22
5.310800
 13
0.489720
 23
5.812400
  0
POLYLINE
  8
0
  6
CONTINUOUS
 66
     1
 40
0.000000
 41
0.000000
  0
VERTEX
  8
0
  6
CONTINUOUS
 10
1.010240
 20
5.107520
  0
VERTEX
  8
0
  6
CONTINUOUS
 10
0.499400
 20
5.608680
  0
VERTEX
  8
0
  6
CONTINUOUS
 10
0.489720
 20
5.812400
  0
VERTEX
  8
0
  6
CONTINUOUS
 10
1.000560
 20
5.310800
  0
VERTEX
  8
0
  6
CONTINUOUS
 10
1.010240
 20
5.107520
  0
SEQEND
  8
0
  0
SOLID
  8
0
 62
    15
 10
1.000560
 20
5.310800
 11
0.489720
 21
5.812400
 12
1.002320
 22
5.323560
 13
0.491480
 23
5.824720
  0
POLYLINE
  8
0
  6
CONTINUOUS
 66
     1
 40
0.000000
 41
0.000000
  0
VERTEX
  8
0
  6
CONTINUOUS
 10
1.000560
 20
5.310800
  0
VERTEX
  8
0
  6
CONTINUOUS
 10
0.489720
 20
5.812400
  0
VERTEX
  8
0
  6
CONTINUOUS
 10
0.491480
 20
5.824720
  0
VERTEX
  8
0
  6
CONTINUOUS
 10
1.002320
 20
5.323560
  0
VERTEX
  8
0
  6
CONTINUOUS
 10
1.000560
 20
5.310800
  0
SEQEND
  8
0
  0
SOLID
  8
0
 62
    15
 10
1.002320
 20
5.323560
 11
0.491480
 21
5.824720
 12
1.012000
 22
5.526840
 13
0.501160
 23
6.028000
  0
POLYLINE
  8
0
  6
CONTINUOUS
 66
     1
 40
0.000000
 41
0.000000
  0
VERTEX
  8
0
  6
CONTINUOUS
 10
1.002320
 20
5.323560
  0
VERTEX
  8
0
  6
CONTINUOUS
 10
0.491480
 20
5.824720
  0
VERTEX
  8
0
  6
CONTINUOUS
 10
0.501160
 20
6.028000
  0
VERTEX
  8
0
  6
CONTINUOUS
 10
1.012000
 20
5.526840
  0
VERTEX
  8
0
  6
CONTINUOUS
 10
1.002320
 20
5.323560
  0
SEQEND
  8
0
  0
SOLID
  8
0
 62
    15
 10
1.012000
 20
5.526840
 11
0.501160
 21
6.028000
 12
1.036200
 22
5.708560
 13
0.525360
 23
6.209720
  0
POLYLINE
  8
0
  6
CONTINUOUS
 66
     1
 40
0.000000
 41
0.000000
  0
VERTEX
  8
0
  6
CONTINUOUS
 10
1.012000
 20
5.526840
  0
VERTEX
  8
0
  6
CONTINUOUS
 10
0.501160
 20
6.028000
  0
VERTEX
  8
0
  6
CONTINUOUS
 10
0.525360
 20
6.209720
  0
VERTEX
  8
0
  6
CONTINUOUS
 10
1.036200
 20
5.708560
  0
VERTEX
  8
0
  6
CONTINUOUS
 10
1.012000
 20
5.526840
  0
SEQEND
  8
0
  0
SOLID
  8
0
 62
    15
 10
1.036200
 20
5.708560
 11
0.525360
 21
6.209720
 12
1.072280
 22
5.872680
 13
0.561440
 23
6.374280
  0
POLYLINE
  8
0
  6
CONTINUOUS
 66
     1
 40
0.000000
 41
0.000000
  0
VERTEX
  8
0
  6
CONTINUOUS
 10
1.036200
 20
5.708560
  0
VERTEX
  8
0
  6
CONTINUOUS
 10
0.525360
 20
6.209720
  0
VERTEX
  8
0
  6
CONTINUOUS
 10
0.561440
 20
6.374280
  0
VERTEX
  8
0
  6
CONTINUOUS
 10
1.072280
 20
5.872680
  0
VERTEX
  8
0
  6
CONTINUOUS
 10
1.036200
 20
5.708560
  0
SEQEND
  8
0
  0
SOLID
  8
0
 62
    15
 10
1.072280
 20
5.872680
 11
0.561440
 21
6.374280
 12
1.118480
 22
6.024040
 13
0.607640
 23
6.525200
  0
POLYLINE
  8
0
  6
CONTINUOUS
 66
     1
 40
0.000000
 41
0.000000
  0
VERTEX
  8
0
  6
CONTINUOUS
 10
1.072280
 20
5.872680
  0
VERTEX
  8
0
  6
CONTINUOUS
 10
0.561440
 20
6.374280
  0
VERTEX
  8
0
  6
CONTINUOUS
 10
0.607640
 20
6.525200
  0
VERTEX
  8
0
  6
CONTINUOUS
 10
1.118480
 20
6.024040
  0
VERTEX
  8
0
  6
CONTINUOUS
 10
1.072280
 20
5.872680
  0
SEQEND
  8
0
  0
SOLID
  8
0
 62
    15
 10
1.118480
 20
6.024040
 11
0.607640
 21
6.525200
 12
1.233760
 22
6.302560
 13
0.722920
 23
6.803720
  0
POLYLINE
  8
0
  6
CONTINUOUS
 66
     1
 40
0.000000
 41
0.000000
  0
VERTEX
  8
0
  6
CONTINUOUS
 10
1.118480
 20
6.024040
  0
VERTEX
  8
0
  6
CONTINUOUS
 10
0.607640
 20
6.525200
  0
VERTEX
  8
0
  6
CONTINUOUS
 10
0.722920
 20
6.803720
  0
VERTEX
  8
0
  6
CONTINUOUS
 10
1.233760
 20
6.302560
  0
VERTEX
  8
0
  6
CONTINUOUS
 10
1.118480
 20
6.024040
  0
SEQEND
  8
0
  0
SOLID
  8
0
 62
    15
 10
1.233760
 20
6.302560
 11
0.722920
 21
6.803720
 12
1.365320
 22
6.578000
 13
0.854480
 23
7.079160
  0
POLYLINE
  8
0
  6
CONTINUOUS
 66
     1
 40
0.000000
 41
0.000000
  0
VERTEX
  8
0
  6
CONTINUOUS
 10
1.233760
 20
6.302560
  0
VERTEX
  8
0
  6
CONTINUOUS
 10
0.722920
 20
6.803720
  0
VERTEX
  8
0
  6
CONTINUOUS
 10
0.854480
 20
7.079160
  0
VERTEX
  8
0
  6
CONTINUOUS
 10
1.365320
 20
6.578000
  0
VERTEX
  8
0
  6
CONTINUOUS
 10
1.233760
 20
6.302560
  0
SEQEND
  8
0
  0
SOLID
  8
0
 62
    15
 10
1.365320
 20
6.578000
 11
0.854480
 21
7.079160
 12
1.497760
 22
6.883800
 13
0.986920
 23
7.384960
  0
POLYLINE
  8
0
  6
CONTINUOUS
 66
     1
 40
0.000000
 41
0.000000
  0
VERTEX
  8
0
  6
CONTINUOUS
 10
1.365320
 20
6.578000
  0
VERTEX
  8
0
  6
CONTINUOUS
 10
0.854480
 20
7.079160
  0
VERTEX
  8
0
  6
CONTINUOUS
 10
0.986920
 20
7.384960
  0
VERTEX
  8
0
  6
CONTINUOUS
 10
1.497760
 20
6.883800
  0
VERTEX
  8
0
  6
CONTINUOUS
 10
1.365320
 20
6.578000
  0
SEQEND
  8
0
  0
SOLID
  8
0
 62
    15
 10
1.497760
 20
6.883800
 11
0.986920
 21
7.384960
 12
1.559360
 22
7.058480
 13
1.048520
 23
7.560080
  0
POLYLINE
  8
0
  6
CONTINUOUS
 66
     1
 40
0.000000
 41
0.000000
  0
VERTEX
  8
0
  6
CONTINUOUS
 10
1.497760
 20
6.883800
  0
VERTEX
  8
0
  6
CONTINUOUS
 10
0.986920
 20
7.384960
  0
VERTEX
  8
0
  6
CONTINUOUS
 10
1.048520
 20
7.560080
  0
VERTEX
  8
0
  6
CONTINUOUS
 10
1.559360
 20
7.058480
  0
VERTEX
  8
0
  6
CONTINUOUS
 10
1.497760
 20
6.883800
  0
SEQEND
  8
0
  0
SOLID
  8
0
 62
    15
 10
1.559360
 20
7.058480
 11
1.048520
 21
7.560080
 12
1.614800
 22
7.253400
 13
1.103960
 23
7.754560
  0
POLYLINE
  8
0
  6
CONTINUOUS
 66
     1
 40
0.000000
 41
0.000000
  0
VERTEX
  8
0
  6
CONTINUOUS
 10
1.559360
 20
7.058480
  0
VERTEX
  8
0
  6
CONTINUOUS
 10
1.048520
 20
7.560080
  0
VERTEX
  8
0
  6
CONTINUOUS
 10
1.103960
 20
7.754560
  0
VERTEX
  8
0
  6
CONTINUOUS
 10
1.614800
 20
7.253400
  0
VERTEX
  8
0
  6
CONTINUOUS
 10
1.559360
 20
7.058480
  0
SEQEND
  8
0
  0
SOLID
  8
0
 62
    15
 10
2.059200
 20
1.978240
 11
1.548360
 21
2.479840
 12
2.009480
 22
2.143680
 13
1.498640
 23
2.644840
  0
POLYLINE
  8
0
  6
CONTINUOUS
 66
     1
 40
0.000000
 41
0.000000
  0
VERTEX
  8
0
  6
CONTINUOUS
 10
2.059200
 20
1.978240
  0
VERTEX
  8
0
  6
CONTINUOUS
 10
1.548360
 20
2.479840
  0
VERTEX
  8
0
  6
CONTINUOUS
 10
1.498640
 20
2.644840
  0
VERTEX
  8
0
  6
CONTINUOUS
 10
2.009480
 20
2.143680
  0
VERTEX
  8
0
  6
CONTINUOUS
 10
2.059200
 20
1.978240
  0
SEQEND
  8
0
  0
SOLID
  8
0
 62
    15
 10
1.662320
 20
7.472520
 11
1.151480
 21
7.973680
 12
1.700160
 22
7.720240
 13
1.189320
 23
8.221400
  0
POLYLINE
  8
0
  6
CONTINUOUS
 66
     1
 40
0.000000
 41
0.000000
  0
VERTEX
  8
0
  6
CONTINUOUS
 10
1.662320
 20
7.472520
  0
VERTEX
  8
0
  6
CONTINUOUS
 10
1.151480
 20
7.973680
  0
VERTEX
  8
0
  6
CONTINUOUS
 10
1.189320
 20
8.221400
  0
VERTEX
  8
0
  6
CONTINUOUS
 10
1.700160
 20
7.720240
  0
VERTEX
  8
0
  6
CONTINUOUS
 10
1.662320
 20
7.472520
  0
SEQEND
  8
0
  0
SOLID
  8
0
 62
    15
 10
1.700160
 20
7.720240
 11
1.189320
 21
8.221400
 12
1.726120
 22
8.000080
 13
1.214840
 23
8.501680
  0
POLYLINE
  8
0
  6
CONTINUOUS
 66
     1
 40
0.000000
 41
0.000000
  0
VERTEX
  8
0
  6
CONTINUOUS
 10
1.700160
 20
7.720240
  0
VERTEX
  8
0
  6
CONTINUOUS
 10
1.189320
 20
8.221400
  0
VERTEX
  8
0
  6
CONTINUOUS
 10
1.214840
 20
8.501680
  0
VERTEX
  8
0
  6
CONTINUOUS
 10
1.726120
 20
8.000080
  0
VERTEX
  8
0
  6
CONTINUOUS
 10
1.700160
 20
7.720240
  0
SEQEND
  8
0
  0
SOLID
  8
0
 62
    15
 10
1.987920
 20
8.315120
 11
1.477080
 21
8.816280
 12
2.005520
 22
8.490680
 13
1.494680
 23
8.991840
  0
POLYLINE
  8
0
  6
CONTINUOUS
 66
     1
 40
0.000000
 41
0.000000
  0
VERTEX
  8
0
  6
CONTINUOUS
 10
1.987920
 20
8.315120
  0
VERTEX
  8
0
  6
CONTINUOUS
 10
1.477080
 20
8.816280
  0
VERTEX
  8
0
  6
CONTINUOUS
 10
1.494680
 20
8.991840
  0
VERTEX
  8
0
  6
CONTINUOUS
 10
2.005520
 20
8.490680
  0
VERTEX
  8
0
  6
CONTINUOUS
 10
1.987920
 20
8.315120
  0
SEQEND
  8
0
  0
SOLID
  8
0
 62
    15
 10
1.738000
 20
8.317320
 11
1.227160
 21
8.818480
 12
1.987920
 22
8.317320
 13
1.477080
 23
8.818480
  0
POLYLINE
  8
0
  6
CONTINUOUS
 66
     1
 40
0.000000
 41
0.000000
  0
VERTEX
  8
0
  6
CONTINUOUS
 10
1.738000
 20
8.317320
  0
VERTEX
  8
0
  6
CONTINUOUS
 10
1.227160
 20
8.818480
  0
VERTEX
  8
0
  6
CONTINUOUS
 10
1.477080
 20
8.818480
  0
VERTEX
  8
0
  6
CONTINUOUS
 10
1.987920
 20
8.317320
  0
VERTEX
  8
0
  6
CONTINUOUS
 10
1.738000
 20
8.317320
  0
SEQEND
  8
0
  0
SOLID
  8
0
 62
    15
 10
1.726120
 20
8.000080
 11
1.214840
 21
8.501680
 12
1.738000
 22
8.317320
 13
1.227160
 23
8.818480
  0
POLYLINE
  8
0
  6
CONTINUOUS
 66
     1
 40
0.000000
 41
0.000000
  0
VERTEX
  8
0
  6
CONTINUOUS
 10
1.726120
 20
8.000080
  0
VERTEX
  8
0
  6
CONTINUOUS
 10
1.214840
 20
8.501680
  0
VERTEX
  8
0
  6
CONTINUOUS
 10
1.227160
 20
8.818480
  0
VERTEX
  8
0
  6
CONTINUOUS
 10
1.738000
 20
8.317320
  0
VERTEX
  8
0
  6
CONTINUOUS
 10
1.726120
 20
8.000080
  0
SEQEND
  8
0
  0
SOLID
  8
0
 62
    15
 10
2.005520
 20
8.490680
 11
1.494680
 21
8.991840
 12
2.056120
 22
8.655680
 13
1.544840
 23
9.157280
  0
POLYLINE
  8
0
  6
CONTINUOUS
 66
     1
 40
0.000000
 41
0.000000
  0
VERTEX
  8
0
  6
CONTINUOUS
 10
2.005520
 20
8.490680
  0
VERTEX
  8
0
  6
CONTINUOUS
 10
1.494680
 20
8.991840
  0
VERTEX
  8
0
  6
CONTINUOUS
 10
1.544840
 20
9.157280
  0
VERTEX
  8
0
  6
CONTINUOUS
 10
2.056120
 20
8.655680
  0
VERTEX
  8
0
  6
CONTINUOUS
 10
2.005520
 20
8.490680
  0
SEQEND
  8
0
  0
SOLID
  8
0
 62
    15
 10
2.056120
 20
8.655680
 11
1.544840
 21
9.157280
 12
2.135760
 22
8.806600
 13
1.624920
 23
9.307760
  0
POLYLINE
  8
0
  6
CONTINUOUS
 66
     1
 40
0.000000
 41
0.000000
  0
VERTEX
  8
0
  6
CONTINUOUS
 10
2.056120
 20
8.655680
  0
VERTEX
  8
0
  6
CONTINUOUS
 10
1.544840
 20
9.157280
  0
VERTEX
  8
0
  6
CONTINUOUS
 10
1.624920
 20
9.307760
  0
VERTEX
  8
0
  6
CONTINUOUS
 10
2.135760
 20
8.806600
  0
VERTEX
  8
0
  6
CONTINUOUS
 10
2.056120
 20
8.655680
  0
SEQEND
  8
0
  0
SOLID
  8
0
 62
    15
 10
2.241360
 20
8.938600
 11
1.730520
 21
9.439760
 12
2.369840
 22
9.048160
 13
1.859000
 23
9.549320
  0
POLYLINE
  8
0
  6
CONTINUOUS
 66
     1
 40
0.000000
 41
0.000000
  0
VERTEX
  8
0
  6
CONTINUOUS
 10
2.241360
 20
8.938600
  0
VERTEX
  8
0
  6
CONTINUOUS
 10
1.730520
 20
9.439760
  0
VERTEX
  8
0
  6
CONTINUOUS
 10
1.859000
 20
9.549320
  0
VERTEX
  8
0
  6
CONTINUOUS
 10
2.369840
 20
9.048160
  0
VERTEX
  8
0
  6
CONTINUOUS
 10
2.241360
 20
8.938600
  0
SEQEND
  8
0
  0
SOLID
  8
0
 62
    15
 10
2.135760
 20
8.806600
 11
1.624920
 21
9.307760
 12
2.241360
 22
8.938600
 13
1.730520
 23
9.439760
  0
POLYLINE
  8
0
  6
CONTINUOUS
 66
     1
 40
0.000000
 41
0.000000
  0
VERTEX
  8
0
  6
CONTINUOUS
 10
2.135760
 20
8.806600
  0
VERTEX
  8
0
  6
CONTINUOUS
 10
1.624920
 20
9.307760
  0
VERTEX
  8
0
  6
CONTINUOUS
 10
1.730520
 20
9.439760
  0
VERTEX
  8
0
  6
CONTINUOUS
 10
2.241360
 20
8.938600
  0
VERTEX
  8
0
  6
CONTINUOUS
 10
2.135760
 20
8.806600
  0
SEQEND
  8
0
  0
SOLID
  8
0
 62
    15
 10
2.369840
 20
9.048160
 11
1.859000
 21
9.549320
 12
2.516800
 22
9.131320
 13
2.005960
 23
9.632480
  0
POLYLINE
  8
0
  6
CONTINUOUS
 66
     1
 40
0.000000
 41
0.000000
  0
VERTEX
  8
0
  6
CONTINUOUS
 10
2.369840
 20
9.048160
  0
VERTEX
  8
0
  6
CONTINUOUS
 10
1.859000
 20
9.549320
  0
VERTEX
  8
0
  6
CONTINUOUS
 10
2.005960
 20
9.632480
  0
VERTEX
  8
0
  6
CONTINUOUS
 10
2.516800
 20
9.131320
  0
VERTEX
  8
0
  6
CONTINUOUS
 10
2.369840
 20
9.048160
  0
SEQEND
  8
0
  0
SOLID
  8
0
 62
    15
 10
2.516800
 20
9.131320
 11
2.005960
 21
9.632480
 12
2.679600
 22
9.184120
 13
2.168760
 23
9.685280
  0
POLYLINE
  8
0
  6
CONTINUOUS
 66
     1
 40
0.000000
 41
0.000000
  0
VERTEX
  8
0
  6
CONTINUOUS
 10
2.516800
 20
9.131320
  0
VERTEX
  8
0
  6
CONTINUOUS
 10
2.005960
 20
9.632480
  0
VERTEX
  8
0
  6
CONTINUOUS
 10
2.168760
 20
9.685280
  0
VERTEX
  8
0
  6
CONTINUOUS
 10
2.679600
 20
9.184120
  0
VERTEX
  8
0
  6
CONTINUOUS
 10
2.516800
 20
9.131320
  0
SEQEND
  8
0
  0
SOLID
  8
0
 62
    15
 10
2.679600
 20
9.184120
 11
2.168760
 21
9.685280
 12
2.854720
 22
9.202600
 13
2.343880
 23
9.703760
  0
POLYLINE
  8
0
  6
CONTINUOUS
 66
     1
 40
0.000000
 41
0.000000
  0
VERTEX
  8
0
  6
CONTINUOUS
 10
2.679600
 20
9.184120
  0
VERTEX
  8
0
  6
CONTINUOUS
 10
2.168760
 20
9.685280
  0
VERTEX
  8
0
  6
CONTINUOUS
 10
2.343880
 20
9.703760
  0
VERTEX
  8
0
  6
CONTINUOUS
 10
2.854720
 20
9.202600
  0
VERTEX
  8
0
  6
CONTINUOUS
 10
2.679600
 20
9.184120
  0
SEQEND
  8
0
  0
SOLID
  8
0
 62
    15
 10
2.854720
 20
9.202600
 11
2.343880
 21
9.703760
 12
3.029400
 22
9.184120
 13
2.518560
 23
9.685280
  0
POLYLINE
  8
0
  6
CONTINUOUS
 66
     1
 40
0.000000
 41
0.000000
  0
VERTEX
  8
0
  6
CONTINUOUS
 10
2.854720
 20
9.202600
  0
VERTEX
  8
0
  6
CONTINUOUS
 10
2.343880
 20
9.703760
  0
VERTEX
  8
0
  6
CONTINUOUS
 10
2.518560
 20
9.685280
  0
VERTEX
  8
0
  6
CONTINUOUS
 10
3.029400
 20
9.184120
  0
VERTEX
  8
0
  6
CONTINUOUS
 10
2.854720
 20
9.202600
  0
SEQEND
  8
0
  0
SOLID
  8
0
 62
    15
 10
3.029400
 20
9.184120
 11
2.518560
 21
9.685280
 12
3.192640
 22
9.131760
 13
2.681800
 23
9.632920
  0
POLYLINE
  8
0
  6
CONTINUOUS
 66
     1
 40
0.000000
 41
0.000000
  0
VERTEX
  8
0
  6
CONTINUOUS
 10
3.029400
 20
9.184120
  0
VERTEX
  8
0
  6
CONTINUOUS
 10
2.518560
 20
9.685280
  0
VERTEX
  8
0
  6
CONTINUOUS
 10
2.681800
 20
9.632920
  0
VERTEX
  8
0
  6
CONTINUOUS
 10
3.192640
 20
9.131760
  0
VERTEX
  8
0
  6
CONTINUOUS
 10
3.029400
 20
9.184120
  0
SEQEND
  8
0
  0
SOLID
  8
0
 62
    15
 10
3.192640
 20
9.131760
 11
2.681800
 21
9.632920
 12
3.340480
 22
9.048600
 13
2.829640
 23
9.550200
  0
POLYLINE
  8
0
  6
CONTINUOUS
 66
     1
 40
0.000000
 41
0.000000
  0
VERTEX
  8
0
  6
CONTINUOUS
 10
3.192640
 20
9.131760
  0
VERTEX
  8
0
  6
CONTINUOUS
 10
2.681800
 20
9.632920
  0
VERTEX
  8
0
  6
CONTINUOUS
 10
2.829640
 20
9.550200
  0
VERTEX
  8
0
  6
CONTINUOUS
 10
3.340480
 20
9.048600
  0
VERTEX
  8
0
  6
CONTINUOUS
 10
3.192640
 20
9.131760
  0
SEQEND
  8
0
  0
SOLID
  8
0
 62
    15
 10
3.340480
 20
9.048600
 11
2.829640
 21
9.550200
 12
3.469840
 22
8.939480
 13
2.958560
 23
9.440640
  0
POLYLINE
  8
0
  6
CONTINUOUS
 66
     1
 40
0.000000
 41
0.000000
  0
VERTEX
  8
0
  6
CONTINUOUS
 10
3.340480
 20
9.048600
  0
VERTEX
  8
0
  6
CONTINUOUS
 10
2.829640
 20
9.550200
  0
VERTEX
  8
0
  6
CONTINUOUS
 10
2.958560
 20
9.440640
  0
VERTEX
  8
0
  6
CONTINUOUS
 10
3.469840
 20
8.939480
  0
VERTEX
  8
0
  6
CONTINUOUS
 10
3.340480
 20
9.048600
  0
SEQEND
  8
0
  0
SOLID
  8
0
 62
    15
 10
3.725480
 20
8.317320
 11
3.214640
 21
8.818480
 12
3.981560
 22
8.317320
 13
3.470720
 23
8.818480
  0
POLYLINE
  8
0
  6
CONTINUOUS
 66
     1
 40
0.000000
 41
0.000000
  0
VERTEX
  8
0
  6
CONTINUOUS
 10
3.725480
 20
8.317320
  0
VERTEX
  8
0
  6
CONTINUOUS
 10
3.214640
 20
8.818480
  0
VERTEX
  8
0
  6
CONTINUOUS
 10
3.470720
 20
8.818480
  0
VERTEX
  8
0
  6
CONTINUOUS
 10
3.981560
 20
8.317320
  0
VERTEX
  8
0
  6
CONTINUOUS
 10
3.725480
 20
8.317320
  0
SEQEND
  8
0
  0
SOLID
  8
0
 62
    15
 10
3.981560
 20
7.823640
 11
3.470720
 21
8.324800
 12
4.510880
 22
7.823640
 13
4.000040
 23
8.324800
  0
POLYLINE
  8
0
  6
CONTINUOUS
 66
     1
 40
0.000000
 41
0.000000
  0
VERTEX
  8
0
  6
CONTINUOUS
 10
3.981560
 20
7.823640
  0
VERTEX
  8
0
  6
CONTINUOUS
 10
3.470720
 20
8.324800
  0
VERTEX
  8
0
  6
CONTINUOUS
 10
4.000040
 20
8.324800
  0
VERTEX
  8
0
  6
CONTINUOUS
 10
4.510880
 20
7.823640
  0
VERTEX
  8
0
  6
CONTINUOUS
 10
3.981560
 20
7.823640
  0
SEQEND
  8
0
  0
SOLID
  8
0
 62
    15
 10
3.728120
 20
3.617680
 11
3.217280
 21
4.119280
 12
4.506480
 22
3.619440
 13
3.995640
 23
4.120600
  0
POLYLINE
  8
0
  6
CONTINUOUS
 66
     1
 40
0.000000
 41
0.000000
  0
VERTEX
  8
0
  6
CONTINUOUS
 10
3.728120
 20
3.617680
  0
VERTEX
  8
0
  6
CONTINUOUS
 10
3.217280
 20
4.119280
  0
VERTEX
  8
0
  6
CONTINUOUS
 10
3.995640
 20
4.120600
  0
VERTEX
  8
0
  6
CONTINUOUS
 10
4.506480
 20
3.619440
  0
VERTEX
  8
0
  6
CONTINUOUS
 10
3.728120
 20
3.617680
  0
SEQEND
  8
0
  0
SOLID
  8
0
 62
    15
 10
2.242680
 20
1.695760
 11
1.731840
 21
2.196920
 12
2.137960
 22
1.827760
 13
1.627120
 23
2.328920
  0
POLYLINE
  8
0
  6
CONTINUOUS
 66
     1
 40
0.000000
 41
0.000000
  0
VERTEX
  8
0
  6
CONTINUOUS
 10
2.242680
 20
1.695760
  0
VERTEX
  8
0
  6
CONTINUOUS
 10
1.731840
 20
2.196920
  0
VERTEX
  8
0
  6
CONTINUOUS
 10
1.627120
 20
2.328920
  0
VERTEX
  8
0
  6
CONTINUOUS
 10
2.137960
 20
1.827760
  0
VERTEX
  8
0
  6
CONTINUOUS
 10
2.242680
 20
1.695760
  0
SEQEND
  8
0
  0
SOLID
  8
0
 62
    15
 10
2.137960
 20
1.827760
 11
1.627120
 21
2.328920
 12
2.059200
 22
1.978240
 13
1.548360
 23
2.479840
  0
POLYLINE
  8
0
  6
CONTINUOUS
 66
     1
 40
0.000000
 41
0.000000
  0
VERTEX
  8
0
  6
CONTINUOUS
 10
2.137960
 20
1.827760
  0
VERTEX
  8
0
  6
CONTINUOUS
 10
1.627120
 20
2.328920
  0
VERTEX
  8
0
  6
CONTINUOUS
 10
1.548360
 20
2.479840
  0
VERTEX
  8
0
  6
CONTINUOUS
 10
2.059200
 20
1.978240
  0
VERTEX
  8
0
  6
CONTINUOUS
 10
2.137960
 20
1.827760
  0
SEQEND
  8
0
  0
SOLID
  8
0
 62
    15
 10
2.009480
 20
2.143680
 11
1.498640
 21
2.644840
 12
1.991880
 22
2.319240
 13
1.481040
 23
2.820400
  0
POLYLINE
  8
0
  6
CONTINUOUS
 66
     1
 40
0.000000
 41
0.000000
  0
VERTEX
  8
0
  6
CONTINUOUS
 10
2.009480
 20
2.143680
  0
VERTEX
  8
0
  6
CONTINUOUS
 10
1.498640
 20
2.644840
  0
VERTEX
  8
0
  6
CONTINUOUS
 10
1.481040
 20
2.820400
  0
VERTEX
  8
0
  6
CONTINUOUS
 10
1.991880
 20
2.319240
  0
VERTEX
  8
0
  6
CONTINUOUS
 10
2.009480
 20
2.143680
  0
SEQEND
  8
0
  0
SOLID
  8
0
 62
    15
 10
1.735800
 20
2.317040
 11
1.224960
 21
2.818640
 12
1.723920
 22
2.634280
 13
1.213080
 23
3.135440
  0
POLYLINE
  8
0
  6
CONTINUOUS
 66
     1
 40
0.000000
 41
0.000000
  0
VERTEX
  8
0
  6
CONTINUOUS
 10
1.735800
 20
2.317040
  0
VERTEX
  8
0
  6
CONTINUOUS
 10
1.224960
 20
2.818640
  0
VERTEX
  8
0
  6
CONTINUOUS
 10
1.213080
 20
3.135440
  0
VERTEX
  8
0
  6
CONTINUOUS
 10
1.723920
 20
2.634280
  0
VERTEX
  8
0
  6
CONTINUOUS
 10
1.735800
 20
2.317040
  0
SEQEND
  8
0
  0
POLYLINE
  8
0
  6
CONTINUOUS
 66
     1
 40
0.000000
 41
0.000000
  0
VERTEX
  8
0
  6
CONTINUOUS
 10
1.979560
 20
2.319240
  0
VERTEX
  8
0
  6
CONTINUOUS
 10
1.741960
 20
2.319240
  0
VERTEX
  8
0
  6
CONTINUOUS
 10
1.735800
 20
2.317040
  0
VERTEX
  8
0
  6
CONTINUOUS
 10
1.723920
 20
2.634280
  0
VERTEX
  8
0
  6
CONTINUOUS
 10
1.697960
 20
2.914120
  0
VERTEX
  8
0
  6
CONTINUOUS
 10
1.660120
 20
3.161840
  0
VERTEX
  8
0
  6
CONTINUOUS
 10
1.612600
 20
3.380960
  0
VERTEX
  8
0
  6
CONTINUOUS
 10
1.557160
 20
3.575440
  0
VERTEX
  8
0
  6
CONTINUOUS
 10
1.496000
 20
3.750120
  0
VERTEX
  8
0
  6
CONTINUOUS
 10
1.363560
 20
4.056360
  0
VERTEX
  8
0
  6
CONTINUOUS
 10
1.231560
 20
4.331800
  0
VERTEX
  8
0
  6
CONTINUOUS
 10
1.116720
 20
4.610320
  0
VERTEX
  8
0
  6
CONTINUOUS
 10
1.070080
 20
4.761680
  0
VERTEX
  8
0
  6
CONTINUOUS
 10
1.034000
 20
4.925800
  0
VERTEX
  8
0
  6
CONTINUOUS
 10
1.010240
 20
5.107520
  0
VERTEX
  8
0
  6
CONTINUOUS
 10
1.000560
 20
5.310800
  0
VERTEX
  8
0
  6
CONTINUOUS
 10
1.002320
 20
5.323560
  0
VERTEX
  8
0
  6
CONTINUOUS
 10
1.012000
 20
5.526840
  0
VERTEX
  8
0
  6
CONTINUOUS
 10
1.036200
 20
5.708560
  0
VERTEX
  8
0
  6
CONTINUOUS
 10
1.072280
 20
5.872680
  0
VERTEX
  8
0
  6
CONTINUOUS
 10
1.118480
 20
6.024040
  0
VERTEX
  8
0
  6
CONTINUOUS
 10
1.233760
 20
6.302560
  0
VERTEX
  8
0
  6
CONTINUOUS
 10
1.365320
 20
6.578000
  0
VERTEX
  8
0
  6
CONTINUOUS
 10
1.497760
 20
6.883800
  0
VERTEX
  8
0
  6
CONTINUOUS
 10
1.559360
 20
7.058480
  0
VERTEX
  8
0
  6
CONTINUOUS
 10
1.614800
 20
7.253400
  0
VERTEX
  8
0
  6
CONTINUOUS
 10
1.662320
 20
7.472520
  0
VERTEX
  8
0
  6
CONTINUOUS
 10
1.700160
 20
7.720240
  0
VERTEX
  8
0
  6
CONTINUOUS
 10
1.726120
 20
8.000080
  0
VERTEX
  8
0
  6
CONTINUOUS
 10
1.738000
 20
8.317320
  0
VERTEX
  8
0
  6
CONTINUOUS
 10
1.987920
 20
8.317320
  0
VERTEX
  8
0
  6
CONTINUOUS
 10
1.987920
 20
8.315120
  0
VERTEX
  8
0
  6
CONTINUOUS
 10
2.005520
 20
8.490680
  0
VERTEX
  8
0
  6
CONTINUOUS
 10
2.056120
 20
8.655680
  0
VERTEX
  8
0
  6
CONTINUOUS
 10
2.135760
 20
8.806600
  0
VERTEX
  8
0
  6
CONTINUOUS
 10
2.241360
 20
8.938600
  0
VERTEX
  8
0
  6
CONTINUOUS
 10
2.369840
 20
9.048160
  0
VERTEX
  8
0
  6
CONTINUOUS
 10
2.516800
 20
9.131320
  0
VERTEX
  8
0
  6
CONTINUOUS
 10
2.679600
 20
9.184120
  0
VERTEX
  8
0
  6
CONTINUOUS
 10
2.854720
 20
9.202600
  0
VERTEX
  8
0
  6
CONTINUOUS
 10
3.029400
 20
9.184120
  0
VERTEX
  8
0
  6
CONTINUOUS
 10
3.192640
 20
9.131760
  0
VERTEX
  8
0
  6
CONTINUOUS
 10
3.340480
 20
9.048600
  0
VERTEX
  8
0
  6
CONTINUOUS
 10
3.469840
 20
8.939480
  0
VERTEX
  8
0
  6
CONTINUOUS
 10
3.576320
 20
8.807920
  0
VERTEX
  8
0
  6
CONTINUOUS
 10
3.656840
 20
8.657440
  0
VERTEX
  8
0
  6
CONTINUOUS
 10
3.707440
 20
8.492880
  0
VERTEX
  8
0
  6
CONTINUOUS
 10
3.725480
 20
8.317320
  0
VERTEX
  8
0
  6
CONTINUOUS
 10
3.981560
 20
8.317320
  0
VERTEX
  8
0
  6
CONTINUOUS
 10
3.981560
 20
7.823640
  0
VERTEX
  8
0
  6
CONTINUOUS
 10
4.510880
 20
7.823640
  0
VERTEX
  8
0
  6
CONTINUOUS
 10
4.510880
 20
7.017120
  0
VERTEX
  8
0
  6
CONTINUOUS
 10
4.508680
 20
7.015360
  0
VERTEX
  8
0
  6
CONTINUOUS
 10
3.725480
 20
7.015360
  0
VERTEX
  8
0
  6
CONTINUOUS
 10
3.728120
 20
7.008320
  0
VERTEX
  8
0
  6
CONTINUOUS
 10
3.728120
 20
3.617680
  0
VERTEX
  8
0
  6
CONTINUOUS
 10
4.506480
 20
3.619440
  0
VERTEX
  8
0
  6
CONTINUOUS
 10
4.508680
 20
3.617240
  0
VERTEX
  8
0
  6
CONTINUOUS
 10
4.508680
 20
2.811160
  0
VERTEX
  8
0
  6
CONTINUOUS
 10
3.979800
 20
2.811160
  0
VERTEX
  8
0
  6
CONTINUOUS
 10
3.979800
 20
2.321440
  0
VERTEX
  8
0
  6
CONTINUOUS
 10
3.725480
 20
2.321440
  0
VERTEX
  8
0
  6
CONTINUOUS
 10
3.707440
 20
2.145440
  0
VERTEX
  8
0
  6
CONTINUOUS
 10
3.656400
 20
1.980000
  0
VERTEX
  8
0
  6
CONTINUOUS
 10
3.575440
 20
1.829080
  0
VERTEX
  8
0
  6
CONTINUOUS
 10
3.468520
 20
1.697080
  0
VERTEX
  8
0
  6
CONTINUOUS
 10
3.339160
 20
1.587080
  0
VERTEX
  8
0
  6
CONTINUOUS
 10
3.190880
 20
1.503480
  0
VERTEX
  8
0
  6
CONTINUOUS
 10
3.027640
 20
1.450240
  0
VERTEX
  8
0
  6
CONTINUOUS
 10
2.852520
 20
1.431760
  0
VERTEX
  8
0
  6
CONTINUOUS
 10
2.677840
 20
1.450240
  0
VERTEX
  8
0
  6
CONTINUOUS
 10
2.515920
 20
1.503040
  0
VERTEX
  8
0
  6
CONTINUOUS
 10
2.369400
 20
1.586200
  0
VERTEX
  8
0
  6
CONTINUOUS
 10
2.242680
 20
1.695760
  0
VERTEX
  8
0
  6
CONTINUOUS
 10
2.137960
 20
1.827760
  0
VERTEX
  8
0
  6
CONTINUOUS
 10
2.059200
 20
1.978240
  0
VERTEX
  8
0
  6
CONTINUOUS
 10
2.009480
 20
2.143680
  0
VERTEX
  8
0
  6
CONTINUOUS
 10
1.991880
 20
2.319240
  0
VERTEX
  8
0
  6
CONTINUOUS
 10
1.979560
 20
2.319240
  0
SEQEND
  8
0
  0
TEXT
  8
0
 10
4.322560
 20
4.821080
 40
0.134755
  1
BA  283, 301, 313
 50
90.000660
 41
1.000000
  7
SN0
 71
     0
 72
     5
 11
4.322560
 21
6.119504
  0
TEXT
  8
0
 10
4.514400
 20
4.914360
 40
0.134755
  1
3-9/16" x 7-3/4"
 50
90.000660
 41
1.000000
  7
SN0
 71
     0
 72
     5
 11
4.514400
 21
6.030334
  0
LINE
  8
0
  6
CONTINUOUS
 10
1.997160
 20
2.313080
 11
1.997160
 21
8.290920
  0
LINE
  8
0
  6
CONTINUOUS
 10
1.992320
 20
8.257040
 11
1.992320
 21
8.321720
  0
LINE
  8
0
  6
CONTINUOUS
 10
3.727680
 20
2.324960
 11
3.727680
 21
8.321720
  0
LINE
  8
0
  6
CONTINUOUS
 10
1.992320
 20
2.558160
 11
3.727680
 21
2.558160
  0
LINE
  8
0
  6
CONTINUOUS
 10
1.992320
 20
8.088520
 11
3.727680
 21
8.088520
  0
TEXT
  8
0
 10
1.923240
 20
2.381280
 40
0.123056
  1
301
 50
90.000660
 41
1.000000
  7
SN1
 71
     0
 72
     5
 11
1.923240
 21
2.629432
  0
TEXT
  8
0
 10
3.602280
 20
2.254120
 40
0.123056
  1
283
 50
90.000660
 41
1.000000
  7
SN1
 71
     0
 72
     5
 11
3.602280
 21
2.502272
  0
TEXT
  8
0
 10
4.407040
 20
3.308800
 40
0.123056
  1
313
 50
90.000660
 41
1.000000
  7
SN1
 71
     0
 72
     5
 11
4.407040
 21
3.556952
  0
ENDSEC
  0
EOF
