  0
SECTION
  2
HEADER
  9
$ACADVER
  1
AC1006
  9
$EXTMIN
 10
3.599640
 20
0.421960
  9
$EXTMAX
 10
7.922640
 20
3.709200
  9
$LTSCALE
 40
0.044000
  9
$PDMODE
 70
    35
  9
$PDSIZE
 40
0.035200
  0
ENDSEC
  0
SECTION
  2
TABLES
  0
TABLE
  2
LTYPE
 70
     9
  0
LTYPE
  2
CONTINUOUS
 70
    64
  3
Solid line
 72
    65
 73
     0
 40
0.000000
  0
LTYPE
  2
DASHED
 70
    64
  3
__ __ __ __ __ __ __ __ __ __ __ __ __ __ __
 72
    65
 73
     2
 40
0.000330
 49
0.000220
 49
-0.000110
  0
LTYPE
  2
HIDDEN
 70
    64
  3
 _ _ _ _ _ _ _ _ _ _ _ _ _ _ _ _ _ _ _ _ _ _
 72
    65
 73
     2
 40
0.000165
 49
0.000110
 49
-0.000055
  0
LTYPE
  2
CENTER
 70
    64
  3
____ _ ____ _ ____ _ ____ _ ____ _ ____ _ ____
 72
    65
 73
     4
 40
0.000880
 49
0.000550
 49
-0.000110
 49
0.000110
 49
-0.000110
  0
LTYPE
  2
PHANTOM
 70
    64
  3
_____ _ _ _____ _ _ _____ _ _ _____ _ _ ____
 72
    65
 73
     6
 40
0.001100
 49
0.000550
 49
-0.000110
 49
0.000110
 49
-0.000110
 49
0.000110
 49
-0.000110
  0
LTYPE
  2
DOT
 70
    64
  3
...............................................
 72
    65
 73
     2
 40
0.000110
 49
0.000000
 49
-0.000110
  0
LTYPE
  2
DASHDOT
 70
    64
  3
__ . __ . __ . __ . __ . __ . __ . __ . __ . __
 72
    65
 73
     4
 40
0.000440
 49
0.000220
 49
-0.000110
 49
0.000000
 49
-0.000110
  0
LTYPE
  2
BORDER
 70
    64
  3
__ __ . __ __ . __ __ . __ __ . __ __ . __ __
 72
    65
 73
     6
 40
0.000770
 49
0.000220
 49
-0.000110
 49
0.000220
 49
-0.000110
 49
0.000000
 49
-0.000110
  0
LTYPE
  2
DIVIDE
 70
    64
  3
__ . . __ . . __ . . __ . . __ . . __ . . __
 72
    65
 73
     6
 40
0.000550
 49
0.000220
 49
-0.000110
 49
0.000000
 49
-0.000110
 49
0.000000
 49
-0.000110
  0
LTYPE
  2
DOTDOT
 70
    64
  3
 . .  . .  . .  . .  . .  . . 
 72
    65
 73
     5
 40
0.000242
 49
-0.000110
 49
0.000000
 49
-0.000110
 49
0.000000
 49
-0.000110
  0
ENDTAB
  0
TABLE
  2
STYLE
 70
     2
  0
STYLE
 70
     0
  2
SN0
 40
0.000000
 41
0.000440
 50
0.000000
 71
     0
 42
0.000000
  3
ROMAND
  0
STYLE
 70
    68
  2
SV0
 40
0.000000
 41
0.000440
 50
0.000000
 71
     0
 42
0.000000
  3
ROMAND
  0
ENDTAB
  0
TABLE
  2
LAYER
 70
     3
  0
LAYER
  2
FOREGROUND
 70
    64
 62
     7
  6
CONTINUOUS
  0
LAYER
  2
BACKGROUND
 70
    65
 62
    -7
  6
CONTINUOUS
  0
LAYER
  2
0
 70
    64
 62
     7
  6
CONTINUOUS
  0
ENDTAB
  0
ENDSEC
  0
SECTION
  2
ENTITIES
  0
POLYLINE
  8
FOREGROUND
  6
CONTINUOUS
 66
     1
 40
0.000000
 41
0.000000
  0
VERTEX
  8
FOREGROUND
  6
CONTINUOUS
 10
0.000000
 20
4.131160
  0
VERTEX
  8
FOREGROUND
  6
CONTINUOUS
 10
8.499920
 20
4.131160
  0
VERTEX
  8
FOREGROUND
  6
CONTINUOUS
 10
8.499920
 20
-6.868840
  0
VERTEX
  8
FOREGROUND
  6
CONTINUOUS
 10
0.000000
 20
-6.868840
  0
VERTEX
  8
FOREGROUND
  6
CONTINUOUS
 10
0.000000
 20
4.131160
  0
SEQEND
  8
0
  0
POLYLINE
  8
FOREGROUND
  6
CONTINUOUS
 66
     1
 40
0.000000
 41
0.000000
  0
VERTEX
  8
FOREGROUND
  6
CONTINUOUS
 10
0.000000
 20
4.131160
  0
VERTEX
  8
FOREGROUND
  6
CONTINUOUS
 10
8.499920
 20
4.131160
  0
VERTEX
  8
FOREGROUND
  6
CONTINUOUS
 10
8.499920
 20
-6.868840
  0
VERTEX
  8
FOREGROUND
  6
CONTINUOUS
 10
0.000000
 20
-6.868840
  0
VERTEX
  8
FOREGROUND
  6
CONTINUOUS
 10
0.000000
 20
4.131160
  0
SEQEND
  8
0
  0
POLYLINE
  8
0
  6
CONTINUOUS
 66
     1
 40
0.014080
 41
0.014080
  0
VERTEX
  8
0
  6
CONTINUOUS
 10
6.772040
 20
3.203640
  0
VERTEX
  8
0
  6
CONTINUOUS
 10
6.636520
 20
3.203640
  0
VERTEX
  8
0
  6
CONTINUOUS
 10
6.636520
 20
3.401640
  0
VERTEX
  8
0
  6
CONTINUOUS
 10
6.618920
 20
3.406040
  0
VERTEX
  8
0
  6
CONTINUOUS
 10
6.584600
 20
3.421880
  0
VERTEX
  8
0
  6
CONTINUOUS
 10
6.567880
 20
3.432440
  0
VERTEX
  8
0
  6
CONTINUOUS
 10
6.536640
 20
3.459720
  0
VERTEX
  8
0
  6
CONTINUOUS
 10
6.521680
 20
3.476440
  0
VERTEX
  8
0
  6
CONTINUOUS
 10
6.508040
 20
3.494480
  0
VERTEX
  8
0
  6
CONTINUOUS
 10
6.495720
 20
3.514280
  0
VERTEX
  8
0
  6
CONTINUOUS
 10
6.473720
 20
3.559600
  0
VERTEX
  8
0
  6
CONTINUOUS
 10
6.457880
 20
3.611080
  0
VERTEX
  8
0
  6
CONTINUOUS
 10
6.452600
 20
3.639240
  0
VERTEX
  8
0
  6
CONTINUOUS
 10
6.448640
 20
3.668720
  0
VERTEX
  8
0
  6
CONTINUOUS
 10
6.446880
 20
3.701720
  0
VERTEX
  8
0
  6
CONTINUOUS
 10
6.267800
 20
3.701720
  0
VERTEX
  8
0
  6
CONTINUOUS
 10
6.267800
 20
1.297560
  0
VERTEX
  8
0
  6
CONTINUOUS
 10
7.111280
 20
1.297560
  0
VERTEX
  8
0
  6
CONTINUOUS
 10
7.111280
 20
2.118160
  0
VERTEX
  8
0
  6
CONTINUOUS
 10
7.046600
 20
2.118600
  0
VERTEX
  8
0
  6
CONTINUOUS
 10
7.015800
 20
2.120360
  0
VERTEX
  8
0
  6
CONTINUOUS
 10
6.993360
 20
2.124760
  0
VERTEX
  8
0
  6
CONTINUOUS
 10
6.985000
 20
2.128280
  0
VERTEX
  8
0
  6
CONTINUOUS
 10
6.972680
 20
2.138840
  0
VERTEX
  8
0
  6
CONTINUOUS
 10
6.965640
 20
2.154240
  0
VERTEX
  8
0
  6
CONTINUOUS
 10
6.961680
 20
2.189880
  0
VERTEX
  8
0
  6
CONTINUOUS
 10
6.961240
 20
2.236080
  0
VERTEX
  8
0
  6
CONTINUOUS
 10
6.959040
 20
2.260280
  0
VERTEX
  8
0
  6
CONTINUOUS
 10
6.953760
 20
2.278320
  0
VERTEX
  8
0
  6
CONTINUOUS
 10
6.944080
 20
2.291960
  0
VERTEX
  8
0
  6
CONTINUOUS
 10
6.928240
 20
2.300760
  0
VERTEX
  8
0
  6
CONTINUOUS
 10
6.905360
 20
2.305600
  0
VERTEX
  8
0
  6
CONTINUOUS
 10
6.864440
 20
2.306920
  0
VERTEX
  8
0
  6
CONTINUOUS
 10
6.832320
 20
2.305600
  0
VERTEX
  8
0
  6
CONTINUOUS
 10
6.811200
 20
2.310880
  0
VERTEX
  8
0
  6
CONTINUOUS
 10
6.800200
 20
2.318800
  0
VERTEX
  8
0
  6
CONTINUOUS
 10
6.797560
 20
2.323200
  0
VERTEX
  8
0
  6
CONTINUOUS
 10
6.797120
 20
2.332880
  0
VERTEX
  8
0
  6
CONTINUOUS
 10
6.798440
 20
2.338160
  0
VERTEX
  8
0
  6
CONTINUOUS
 10
6.803720
 20
2.347400
  0
VERTEX
  8
0
  6
CONTINUOUS
 10
6.817800
 20
2.364120
  0
VERTEX
  8
0
  6
CONTINUOUS
 10
6.849040
 20
2.393160
  0
VERTEX
  8
0
  6
CONTINUOUS
 10
6.880280
 20
2.430120
  0
VERTEX
  8
0
  6
CONTINUOUS
 10
6.908440
 20
2.473680
  0
VERTEX
  8
0
  6
CONTINUOUS
 10
6.925600
 20
2.510640
  0
VERTEX
  8
0
  6
CONTINUOUS
 10
6.933960
 20
2.536600
  0
VERTEX
  8
0
  6
CONTINUOUS
 10
6.939680
 20
2.564320
  0
VERTEX
  8
0
  6
CONTINUOUS
 10
6.941880
 20
2.592480
  0
VERTEX
  8
0
  6
CONTINUOUS
 10
6.940560
 20
2.621960
  0
VERTEX
  8
0
  6
CONTINUOUS
 10
6.938800
 20
2.636920
  0
VERTEX
  8
0
  6
CONTINUOUS
 10
6.925600
 20
2.683560
  0
VERTEX
  8
0
  6
CONTINUOUS
 10
6.910640
 20
2.715240
  0
VERTEX
  8
0
  6
CONTINUOUS
 10
6.890400
 20
2.747800
  0
VERTEX
  8
0
  6
CONTINUOUS
 10
6.867520
 20
2.780360
  0
VERTEX
  8
0
  6
CONTINUOUS
 10
6.831880
 20
2.838880
  0
VERTEX
  8
0
  6
CONTINUOUS
 10
6.812520
 20
2.878480
  0
VERTEX
  8
0
  6
CONTINUOUS
 10
6.802400
 20
2.903120
  0
VERTEX
  8
0
  6
CONTINUOUS
 10
6.788320
 20
2.951080
  0
VERTEX
  8
0
  6
CONTINUOUS
 10
6.783480
 20
2.974400
  0
VERTEX
  8
0
  6
CONTINUOUS
 10
6.777760
 20
3.022360
  0
VERTEX
  8
0
  6
CONTINUOUS
 10
6.772040
 20
3.203640
  0
SEQEND
  8
0
  0
SOLID
  8
0
 62
    15
 10
4.237640
 20
1.902120
 11
4.886640
 21
2.268200
 12
4.260520
 22
1.897280
 13
4.909520
 23
2.263360
  0
POLYLINE
  8
0
  6
CONTINUOUS
 66
     1
 40
0.000000
 41
0.000000
  0
VERTEX
  8
0
  6
CONTINUOUS
 10
4.237640
 20
1.902120
  0
VERTEX
  8
0
  6
CONTINUOUS
 10
4.886640
 20
2.268200
  0
VERTEX
  8
0
  6
CONTINUOUS
 10
4.909520
 20
2.263360
  0
VERTEX
  8
0
  6
CONTINUOUS
 10
4.260520
 20
1.897280
  0
VERTEX
  8
0
  6
CONTINUOUS
 10
4.237640
 20
1.902120
  0
SEQEND
  8
0
  0
SOLID
  8
0
 62
    15
 10
4.106520
 20
2.730200
 11
4.755520
 21
3.095840
 12
4.107840
 22
2.671240
 13
4.756840
 23
3.036880
  0
POLYLINE
  8
0
  6
CONTINUOUS
 66
     1
 40
0.000000
 41
0.000000
  0
VERTEX
  8
0
  6
CONTINUOUS
 10
4.106520
 20
2.730200
  0
VERTEX
  8
0
  6
CONTINUOUS
 10
4.755520
 20
3.095840
  0
VERTEX
  8
0
  6
CONTINUOUS
 10
4.756840
 20
3.036880
  0
VERTEX
  8
0
  6
CONTINUOUS
 10
4.107840
 20
2.671240
  0
VERTEX
  8
0
  6
CONTINUOUS
 10
4.106520
 20
2.730200
  0
SEQEND
  8
0
  0
SOLID
  8
0
 62
    15
 10
4.107840
 20
2.671240
 11
4.756840
 21
3.036880
 12
4.110480
 22
2.619320
 13
4.759480
 23
2.984960
  0
POLYLINE
  8
0
  6
CONTINUOUS
 66
     1
 40
0.000000
 41
0.000000
  0
VERTEX
  8
0
  6
CONTINUOUS
 10
4.107840
 20
2.671240
  0
VERTEX
  8
0
  6
CONTINUOUS
 10
4.756840
 20
3.036880
  0
VERTEX
  8
0
  6
CONTINUOUS
 10
4.759480
 20
2.984960
  0
VERTEX
  8
0
  6
CONTINUOUS
 10
4.110480
 20
2.619320
  0
VERTEX
  8
0
  6
CONTINUOUS
 10
4.107840
 20
2.671240
  0
SEQEND
  8
0
  0
SOLID
  8
0
 62
    15
 10
4.110480
 20
2.619320
 11
4.759480
 21
2.984960
 12
4.116200
 22
2.570920
 13
4.765200
 23
2.937000
  0
POLYLINE
  8
0
  6
CONTINUOUS
 66
     1
 40
0.000000
 41
0.000000
  0
VERTEX
  8
0
  6
CONTINUOUS
 10
4.110480
 20
2.619320
  0
VERTEX
  8
0
  6
CONTINUOUS
 10
4.759480
 20
2.984960
  0
VERTEX
  8
0
  6
CONTINUOUS
 10
4.765200
 20
2.937000
  0
VERTEX
  8
0
  6
CONTINUOUS
 10
4.116200
 20
2.570920
  0
VERTEX
  8
0
  6
CONTINUOUS
 10
4.110480
 20
2.619320
  0
SEQEND
  8
0
  0
SOLID
  8
0
 62
    15
 10
4.116200
 20
2.570920
 11
4.765200
 21
2.937000
 12
4.126760
 22
2.524280
 13
4.776200
 23
2.889920
  0
POLYLINE
  8
0
  6
CONTINUOUS
 66
     1
 40
0.000000
 41
0.000000
  0
VERTEX
  8
0
  6
CONTINUOUS
 10
4.116200
 20
2.570920
  0
VERTEX
  8
0
  6
CONTINUOUS
 10
4.765200
 20
2.937000
  0
VERTEX
  8
0
  6
CONTINUOUS
 10
4.776200
 20
2.889920
  0
VERTEX
  8
0
  6
CONTINUOUS
 10
4.126760
 20
2.524280
  0
VERTEX
  8
0
  6
CONTINUOUS
 10
4.116200
 20
2.570920
  0
SEQEND
  8
0
  0
SOLID
  8
0
 62
    15
 10
4.126760
 20
2.524280
 11
4.776200
 21
2.889920
 12
4.145240
 22
2.475440
 13
4.794240
 23
2.841080
  0
POLYLINE
  8
0
  6
CONTINUOUS
 66
     1
 40
0.000000
 41
0.000000
  0
VERTEX
  8
0
  6
CONTINUOUS
 10
4.126760
 20
2.524280
  0
VERTEX
  8
0
  6
CONTINUOUS
 10
4.776200
 20
2.889920
  0
VERTEX
  8
0
  6
CONTINUOUS
 10
4.794240
 20
2.841080
  0
VERTEX
  8
0
  6
CONTINUOUS
 10
4.145240
 20
2.475440
  0
VERTEX
  8
0
  6
CONTINUOUS
 10
4.126760
 20
2.524280
  0
SEQEND
  8
0
  0
SOLID
  8
0
 62
    15
 10
4.145240
 20
2.475440
 11
4.794240
 21
2.841080
 12
4.172080
 22
2.421760
 13
4.821080
 23
2.787840
  0
POLYLINE
  8
0
  6
CONTINUOUS
 66
     1
 40
0.000000
 41
0.000000
  0
VERTEX
  8
0
  6
CONTINUOUS
 10
4.145240
 20
2.475440
  0
VERTEX
  8
0
  6
CONTINUOUS
 10
4.794240
 20
2.841080
  0
VERTEX
  8
0
  6
CONTINUOUS
 10
4.821080
 20
2.787840
  0
VERTEX
  8
0
  6
CONTINUOUS
 10
4.172080
 20
2.421760
  0
VERTEX
  8
0
  6
CONTINUOUS
 10
4.145240
 20
2.475440
  0
SEQEND
  8
0
  0
SOLID
  8
0
 62
    15
 10
4.172080
 20
2.421760
 11
4.821080
 21
2.787840
 12
4.210360
 22
2.361040
 13
4.859360
 23
2.726680
  0
POLYLINE
  8
0
  6
CONTINUOUS
 66
     1
 40
0.000000
 41
0.000000
  0
VERTEX
  8
0
  6
CONTINUOUS
 10
4.172080
 20
2.421760
  0
VERTEX
  8
0
  6
CONTINUOUS
 10
4.821080
 20
2.787840
  0
VERTEX
  8
0
  6
CONTINUOUS
 10
4.859360
 20
2.726680
  0
VERTEX
  8
0
  6
CONTINUOUS
 10
4.210360
 20
2.361040
  0
VERTEX
  8
0
  6
CONTINUOUS
 10
4.172080
 20
2.421760
  0
SEQEND
  8
0
  0
SOLID
  8
0
 62
    15
 10
4.210360
 20
2.361040
 11
4.859360
 21
2.726680
 12
4.233680
 22
2.328480
 13
4.882680
 23
2.694120
  0
POLYLINE
  8
0
  6
CONTINUOUS
 66
     1
 40
0.000000
 41
0.000000
  0
VERTEX
  8
0
  6
CONTINUOUS
 10
4.210360
 20
2.361040
  0
VERTEX
  8
0
  6
CONTINUOUS
 10
4.859360
 20
2.726680
  0
VERTEX
  8
0
  6
CONTINUOUS
 10
4.882680
 20
2.694120
  0
VERTEX
  8
0
  6
CONTINUOUS
 10
4.233680
 20
2.328480
  0
VERTEX
  8
0
  6
CONTINUOUS
 10
4.210360
 20
2.361040
  0
SEQEND
  8
0
  0
SOLID
  8
0
 62
    15
 10
4.233680
 20
2.328480
 11
4.882680
 21
2.694120
 12
4.251280
 22
2.296360
 13
4.900280
 23
2.662000
  0
POLYLINE
  8
0
  6
CONTINUOUS
 66
     1
 40
0.000000
 41
0.000000
  0
VERTEX
  8
0
  6
CONTINUOUS
 10
4.233680
 20
2.328480
  0
VERTEX
  8
0
  6
CONTINUOUS
 10
4.882680
 20
2.694120
  0
VERTEX
  8
0
  6
CONTINUOUS
 10
4.900280
 20
2.662000
  0
VERTEX
  8
0
  6
CONTINUOUS
 10
4.251280
 20
2.296360
  0
VERTEX
  8
0
  6
CONTINUOUS
 10
4.233680
 20
2.328480
  0
SEQEND
  8
0
  0
SOLID
  8
0
 62
    15
 10
4.251280
 20
2.296360
 11
4.900280
 21
2.662000
 12
4.263600
 22
2.264680
 13
4.912600
 23
2.630760
  0
POLYLINE
  8
0
  6
CONTINUOUS
 66
     1
 40
0.000000
 41
0.000000
  0
VERTEX
  8
0
  6
CONTINUOUS
 10
4.251280
 20
2.296360
  0
VERTEX
  8
0
  6
CONTINUOUS
 10
4.900280
 20
2.662000
  0
VERTEX
  8
0
  6
CONTINUOUS
 10
4.912600
 20
2.630760
  0
VERTEX
  8
0
  6
CONTINUOUS
 10
4.263600
 20
2.264680
  0
VERTEX
  8
0
  6
CONTINUOUS
 10
4.251280
 20
2.296360
  0
SEQEND
  8
0
  0
SOLID
  8
0
 62
    15
 10
4.263600
 20
2.264680
 11
4.912600
 21
2.630760
 12
4.271080
 22
2.233880
 13
4.920080
 23
2.599960
  0
POLYLINE
  8
0
  6
CONTINUOUS
 66
     1
 40
0.000000
 41
0.000000
  0
VERTEX
  8
0
  6
CONTINUOUS
 10
4.263600
 20
2.264680
  0
VERTEX
  8
0
  6
CONTINUOUS
 10
4.912600
 20
2.630760
  0
VERTEX
  8
0
  6
CONTINUOUS
 10
4.920080
 20
2.599960
  0
VERTEX
  8
0
  6
CONTINUOUS
 10
4.271080
 20
2.233880
  0
VERTEX
  8
0
  6
CONTINUOUS
 10
4.263600
 20
2.264680
  0
SEQEND
  8
0
  0
SOLID
  8
0
 62
    15
 10
4.271080
 20
2.233880
 11
4.920080
 21
2.599960
 12
4.274160
 22
2.203960
 13
4.923160
 23
2.570040
  0
POLYLINE
  8
0
  6
CONTINUOUS
 66
     1
 40
0.000000
 41
0.000000
  0
VERTEX
  8
0
  6
CONTINUOUS
 10
4.271080
 20
2.233880
  0
VERTEX
  8
0
  6
CONTINUOUS
 10
4.920080
 20
2.599960
  0
VERTEX
  8
0
  6
CONTINUOUS
 10
4.923160
 20
2.570040
  0
VERTEX
  8
0
  6
CONTINUOUS
 10
4.274160
 20
2.203960
  0
VERTEX
  8
0
  6
CONTINUOUS
 10
4.271080
 20
2.233880
  0
SEQEND
  8
0
  0
SOLID
  8
0
 62
    15
 10
4.274160
 20
2.203960
 11
4.923160
 21
2.570040
 12
4.273720
 22
2.174920
 13
4.922720
 23
2.541000
  0
POLYLINE
  8
0
  6
CONTINUOUS
 66
     1
 40
0.000000
 41
0.000000
  0
VERTEX
  8
0
  6
CONTINUOUS
 10
4.274160
 20
2.203960
  0
VERTEX
  8
0
  6
CONTINUOUS
 10
4.923160
 20
2.570040
  0
VERTEX
  8
0
  6
CONTINUOUS
 10
4.922720
 20
2.541000
  0
VERTEX
  8
0
  6
CONTINUOUS
 10
4.273720
 20
2.174920
  0
VERTEX
  8
0
  6
CONTINUOUS
 10
4.274160
 20
2.203960
  0
SEQEND
  8
0
  0
SOLID
  8
0
 62
    15
 10
4.273720
 20
2.174920
 11
4.922720
 21
2.541000
 12
4.262280
 22
2.120360
 13
4.911280
 23
2.486000
  0
POLYLINE
  8
0
  6
CONTINUOUS
 66
     1
 40
0.000000
 41
0.000000
  0
VERTEX
  8
0
  6
CONTINUOUS
 10
4.273720
 20
2.174920
  0
VERTEX
  8
0
  6
CONTINUOUS
 10
4.922720
 20
2.541000
  0
VERTEX
  8
0
  6
CONTINUOUS
 10
4.911280
 20
2.486000
  0
VERTEX
  8
0
  6
CONTINUOUS
 10
4.262280
 20
2.120360
  0
VERTEX
  8
0
  6
CONTINUOUS
 10
4.273720
 20
2.174920
  0
SEQEND
  8
0
  0
SOLID
  8
0
 62
    15
 10
4.262280
 20
2.120360
 11
4.911280
 21
2.486000
 12
4.240720
 22
2.070640
 13
4.889720
 23
2.436720
  0
POLYLINE
  8
0
  6
CONTINUOUS
 66
     1
 40
0.000000
 41
0.000000
  0
VERTEX
  8
0
  6
CONTINUOUS
 10
4.262280
 20
2.120360
  0
VERTEX
  8
0
  6
CONTINUOUS
 10
4.911280
 20
2.486000
  0
VERTEX
  8
0
  6
CONTINUOUS
 10
4.889720
 20
2.436720
  0
VERTEX
  8
0
  6
CONTINUOUS
 10
4.240720
 20
2.070640
  0
VERTEX
  8
0
  6
CONTINUOUS
 10
4.262280
 20
2.120360
  0
SEQEND
  8
0
  0
SOLID
  8
0
 62
    15
 10
4.240720
 20
2.070640
 11
4.889720
 21
2.436720
 12
4.212560
 22
2.027080
 13
4.861560
 23
2.392720
  0
POLYLINE
  8
0
  6
CONTINUOUS
 66
     1
 40
0.000000
 41
0.000000
  0
VERTEX
  8
0
  6
CONTINUOUS
 10
4.240720
 20
2.070640
  0
VERTEX
  8
0
  6
CONTINUOUS
 10
4.889720
 20
2.436720
  0
VERTEX
  8
0
  6
CONTINUOUS
 10
4.861560
 20
2.392720
  0
VERTEX
  8
0
  6
CONTINUOUS
 10
4.212560
 20
2.027080
  0
VERTEX
  8
0
  6
CONTINUOUS
 10
4.240720
 20
2.070640
  0
SEQEND
  8
0
  0
SOLID
  8
0
 62
    15
 10
4.212560
 20
2.027080
 11
4.861560
 21
2.392720
 12
4.181320
 22
1.990120
 13
4.830320
 23
2.355760
  0
POLYLINE
  8
0
  6
CONTINUOUS
 66
     1
 40
0.000000
 41
0.000000
  0
VERTEX
  8
0
  6
CONTINUOUS
 10
4.212560
 20
2.027080
  0
VERTEX
  8
0
  6
CONTINUOUS
 10
4.861560
 20
2.392720
  0
VERTEX
  8
0
  6
CONTINUOUS
 10
4.830320
 20
2.355760
  0
VERTEX
  8
0
  6
CONTINUOUS
 10
4.181320
 20
1.990120
  0
VERTEX
  8
0
  6
CONTINUOUS
 10
4.212560
 20
2.027080
  0
SEQEND
  8
0
  0
SOLID
  8
0
 62
    15
 10
4.181320
 20
1.990120
 11
4.830320
 21
2.355760
 12
4.150080
 22
1.961080
 13
4.799080
 23
2.326720
  0
POLYLINE
  8
0
  6
CONTINUOUS
 66
     1
 40
0.000000
 41
0.000000
  0
VERTEX
  8
0
  6
CONTINUOUS
 10
4.181320
 20
1.990120
  0
VERTEX
  8
0
  6
CONTINUOUS
 10
4.830320
 20
2.355760
  0
VERTEX
  8
0
  6
CONTINUOUS
 10
4.799080
 20
2.326720
  0
VERTEX
  8
0
  6
CONTINUOUS
 10
4.150080
 20
1.961080
  0
VERTEX
  8
0
  6
CONTINUOUS
 10
4.181320
 20
1.990120
  0
SEQEND
  8
0
  0
SOLID
  8
0
 62
    15
 10
4.150080
 20
1.961080
 11
4.799080
 21
2.326720
 12
4.147880
 22
1.958440
 13
4.796880
 23
2.324080
  0
POLYLINE
  8
0
  6
CONTINUOUS
 66
     1
 40
0.000000
 41
0.000000
  0
VERTEX
  8
0
  6
CONTINUOUS
 10
4.150080
 20
1.961080
  0
VERTEX
  8
0
  6
CONTINUOUS
 10
4.799080
 20
2.326720
  0
VERTEX
  8
0
  6
CONTINUOUS
 10
4.796880
 20
2.324080
  0
VERTEX
  8
0
  6
CONTINUOUS
 10
4.147880
 20
1.958440
  0
VERTEX
  8
0
  6
CONTINUOUS
 10
4.150080
 20
1.961080
  0
SEQEND
  8
0
  0
SOLID
  8
0
 62
    15
 10
4.147880
 20
1.958440
 11
4.796880
 21
2.324080
 12
4.142600
 22
1.952280
 13
4.791600
 23
2.318360
  0
POLYLINE
  8
0
  6
CONTINUOUS
 66
     1
 40
0.000000
 41
0.000000
  0
VERTEX
  8
0
  6
CONTINUOUS
 10
4.147880
 20
1.958440
  0
VERTEX
  8
0
  6
CONTINUOUS
 10
4.796880
 20
2.324080
  0
VERTEX
  8
0
  6
CONTINUOUS
 10
4.791600
 20
2.318360
  0
VERTEX
  8
0
  6
CONTINUOUS
 10
4.142600
 20
1.952280
  0
VERTEX
  8
0
  6
CONTINUOUS
 10
4.147880
 20
1.958440
  0
SEQEND
  8
0
  0
SOLID
  8
0
 62
    15
 10
4.142600
 20
1.952280
 11
4.791600
 21
2.318360
 12
4.130720
 22
1.935120
 13
4.779720
 23
2.300760
  0
POLYLINE
  8
0
  6
CONTINUOUS
 66
     1
 40
0.000000
 41
0.000000
  0
VERTEX
  8
0
  6
CONTINUOUS
 10
4.142600
 20
1.952280
  0
VERTEX
  8
0
  6
CONTINUOUS
 10
4.791600
 20
2.318360
  0
VERTEX
  8
0
  6
CONTINUOUS
 10
4.779720
 20
2.300760
  0
VERTEX
  8
0
  6
CONTINUOUS
 10
4.130720
 20
1.935120
  0
VERTEX
  8
0
  6
CONTINUOUS
 10
4.142600
 20
1.952280
  0
SEQEND
  8
0
  0
SOLID
  8
0
 62
    15
 10
4.130720
 20
1.935120
 11
4.779720
 21
2.300760
 12
4.128960
 22
1.925000
 13
4.777960
 23
2.291080
  0
POLYLINE
  8
0
  6
CONTINUOUS
 66
     1
 40
0.000000
 41
0.000000
  0
VERTEX
  8
0
  6
CONTINUOUS
 10
4.130720
 20
1.935120
  0
VERTEX
  8
0
  6
CONTINUOUS
 10
4.779720
 20
2.300760
  0
VERTEX
  8
0
  6
CONTINUOUS
 10
4.777960
 20
2.291080
  0
VERTEX
  8
0
  6
CONTINUOUS
 10
4.128960
 20
1.925000
  0
VERTEX
  8
0
  6
CONTINUOUS
 10
4.130720
 20
1.935120
  0
SEQEND
  8
0
  0
SOLID
  8
0
 62
    15
 10
4.128960
 20
1.925000
 11
4.777960
 21
2.291080
 12
4.132480
 22
1.915760
 13
4.781480
 23
2.281840
  0
POLYLINE
  8
0
  6
CONTINUOUS
 66
     1
 40
0.000000
 41
0.000000
  0
VERTEX
  8
0
  6
CONTINUOUS
 10
4.128960
 20
1.925000
  0
VERTEX
  8
0
  6
CONTINUOUS
 10
4.777960
 20
2.291080
  0
VERTEX
  8
0
  6
CONTINUOUS
 10
4.781480
 20
2.281840
  0
VERTEX
  8
0
  6
CONTINUOUS
 10
4.132480
 20
1.915760
  0
VERTEX
  8
0
  6
CONTINUOUS
 10
4.128960
 20
1.925000
  0
SEQEND
  8
0
  0
SOLID
  8
0
 62
    15
 10
4.132480
 20
1.915760
 11
4.781480
 21
2.281840
 12
4.143920
 22
1.907840
 13
4.792920
 23
2.273920
  0
POLYLINE
  8
0
  6
CONTINUOUS
 66
     1
 40
0.000000
 41
0.000000
  0
VERTEX
  8
0
  6
CONTINUOUS
 10
4.132480
 20
1.915760
  0
VERTEX
  8
0
  6
CONTINUOUS
 10
4.781480
 20
2.281840
  0
VERTEX
  8
0
  6
CONTINUOUS
 10
4.792920
 20
2.273920
  0
VERTEX
  8
0
  6
CONTINUOUS
 10
4.143920
 20
1.907840
  0
VERTEX
  8
0
  6
CONTINUOUS
 10
4.132480
 20
1.915760
  0
SEQEND
  8
0
  0
SOLID
  8
0
 62
    15
 10
4.143920
 20
1.907840
 11
4.792920
 21
2.273920
 12
4.164600
 22
1.902560
 13
4.813600
 23
2.268640
  0
POLYLINE
  8
0
  6
CONTINUOUS
 66
     1
 40
0.000000
 41
0.000000
  0
VERTEX
  8
0
  6
CONTINUOUS
 10
4.143920
 20
1.907840
  0
VERTEX
  8
0
  6
CONTINUOUS
 10
4.792920
 20
2.273920
  0
VERTEX
  8
0
  6
CONTINUOUS
 10
4.813600
 20
2.268640
  0
VERTEX
  8
0
  6
CONTINUOUS
 10
4.164600
 20
1.902560
  0
VERTEX
  8
0
  6
CONTINUOUS
 10
4.143920
 20
1.907840
  0
SEQEND
  8
0
  0
SOLID
  8
0
 62
    15
 10
4.164600
 20
1.902560
 11
4.813600
 21
2.268640
 12
4.206400
 22
1.903880
 13
4.855400
 23
2.269520
  0
POLYLINE
  8
0
  6
CONTINUOUS
 66
     1
 40
0.000000
 41
0.000000
  0
VERTEX
  8
0
  6
CONTINUOUS
 10
4.164600
 20
1.902560
  0
VERTEX
  8
0
  6
CONTINUOUS
 10
4.813600
 20
2.268640
  0
VERTEX
  8
0
  6
CONTINUOUS
 10
4.855400
 20
2.269520
  0
VERTEX
  8
0
  6
CONTINUOUS
 10
4.206400
 20
1.903880
  0
VERTEX
  8
0
  6
CONTINUOUS
 10
4.164600
 20
1.902560
  0
SEQEND
  8
0
  0
SOLID
  8
0
 62
    15
 10
4.206400
 20
1.903880
 11
4.855400
 21
2.269520
 12
4.237640
 22
1.902120
 13
4.886640
 23
2.268200
  0
POLYLINE
  8
0
  6
CONTINUOUS
 66
     1
 40
0.000000
 41
0.000000
  0
VERTEX
  8
0
  6
CONTINUOUS
 10
4.206400
 20
1.903880
  0
VERTEX
  8
0
  6
CONTINUOUS
 10
4.855400
 20
2.269520
  0
VERTEX
  8
0
  6
CONTINUOUS
 10
4.886640
 20
2.268200
  0
VERTEX
  8
0
  6
CONTINUOUS
 10
4.237640
 20
1.902120
  0
VERTEX
  8
0
  6
CONTINUOUS
 10
4.206400
 20
1.903880
  0
SEQEND
  8
0
  0
SOLID
  8
0
 62
    15
 10
4.104320
 20
2.798400
 11
4.753320
 21
3.164480
 12
4.106520
 22
2.730200
 13
4.755520
 23
3.095840
  0
POLYLINE
  8
0
  6
CONTINUOUS
 66
     1
 40
0.000000
 41
0.000000
  0
VERTEX
  8
0
  6
CONTINUOUS
 10
4.104320
 20
2.798400
  0
VERTEX
  8
0
  6
CONTINUOUS
 10
4.753320
 20
3.164480
  0
VERTEX
  8
0
  6
CONTINUOUS
 10
4.755520
 20
3.095840
  0
VERTEX
  8
0
  6
CONTINUOUS
 10
4.106520
 20
2.730200
  0
VERTEX
  8
0
  6
CONTINUOUS
 10
4.104320
 20
2.798400
  0
SEQEND
  8
0
  0
SOLID
  8
0
 62
    15
 10
4.260520
 20
1.897280
 11
4.909520
 21
2.263360
 12
4.276360
 22
1.888480
 13
4.925360
 23
2.254560
  0
POLYLINE
  8
0
  6
CONTINUOUS
 66
     1
 40
0.000000
 41
0.000000
  0
VERTEX
  8
0
  6
CONTINUOUS
 10
4.260520
 20
1.897280
  0
VERTEX
  8
0
  6
CONTINUOUS
 10
4.909520
 20
2.263360
  0
VERTEX
  8
0
  6
CONTINUOUS
 10
4.925360
 20
2.254560
  0
VERTEX
  8
0
  6
CONTINUOUS
 10
4.276360
 20
1.888480
  0
VERTEX
  8
0
  6
CONTINUOUS
 10
4.260520
 20
1.897280
  0
SEQEND
  8
0
  0
SOLID
  8
0
 62
    15
 10
4.276360
 20
1.888480
 11
4.925360
 21
2.254560
 12
4.286040
 22
1.875280
 13
4.935040
 23
2.240920
  0
POLYLINE
  8
0
  6
CONTINUOUS
 66
     1
 40
0.000000
 41
0.000000
  0
VERTEX
  8
0
  6
CONTINUOUS
 10
4.276360
 20
1.888480
  0
VERTEX
  8
0
  6
CONTINUOUS
 10
4.925360
 20
2.254560
  0
VERTEX
  8
0
  6
CONTINUOUS
 10
4.935040
 20
2.240920
  0
VERTEX
  8
0
  6
CONTINUOUS
 10
4.286040
 20
1.875280
  0
VERTEX
  8
0
  6
CONTINUOUS
 10
4.276360
 20
1.888480
  0
SEQEND
  8
0
  0
SOLID
  8
0
 62
    15
 10
4.286040
 20
1.875280
 11
4.935040
 21
2.240920
 12
4.291320
 22
1.856800
 13
4.940320
 23
2.222880
  0
POLYLINE
  8
0
  6
CONTINUOUS
 66
     1
 40
0.000000
 41
0.000000
  0
VERTEX
  8
0
  6
CONTINUOUS
 10
4.286040
 20
1.875280
  0
VERTEX
  8
0
  6
CONTINUOUS
 10
4.935040
 20
2.240920
  0
VERTEX
  8
0
  6
CONTINUOUS
 10
4.940320
 20
2.222880
  0
VERTEX
  8
0
  6
CONTINUOUS
 10
4.291320
 20
1.856800
  0
VERTEX
  8
0
  6
CONTINUOUS
 10
4.286040
 20
1.875280
  0
SEQEND
  8
0
  0
SOLID
  8
0
 62
    15
 10
4.291320
 20
1.856800
 11
4.940320
 21
2.222880
 12
4.293520
 22
1.833040
 13
4.942520
 23
2.198680
  0
POLYLINE
  8
0
  6
CONTINUOUS
 66
     1
 40
0.000000
 41
0.000000
  0
VERTEX
  8
0
  6
CONTINUOUS
 10
4.291320
 20
1.856800
  0
VERTEX
  8
0
  6
CONTINUOUS
 10
4.940320
 20
2.222880
  0
VERTEX
  8
0
  6
CONTINUOUS
 10
4.942520
 20
2.198680
  0
VERTEX
  8
0
  6
CONTINUOUS
 10
4.293520
 20
1.833040
  0
VERTEX
  8
0
  6
CONTINUOUS
 10
4.291320
 20
1.856800
  0
SEQEND
  8
0
  0
SOLID
  8
0
 62
    15
 10
4.293520
 20
1.833040
 11
4.942520
 21
2.198680
 12
4.293960
 22
1.802680
 13
4.942960
 23
2.168320
  0
POLYLINE
  8
0
  6
CONTINUOUS
 66
     1
 40
0.000000
 41
0.000000
  0
VERTEX
  8
0
  6
CONTINUOUS
 10
4.293520
 20
1.833040
  0
VERTEX
  8
0
  6
CONTINUOUS
 10
4.942520
 20
2.198680
  0
VERTEX
  8
0
  6
CONTINUOUS
 10
4.942960
 20
2.168320
  0
VERTEX
  8
0
  6
CONTINUOUS
 10
4.293960
 20
1.802680
  0
VERTEX
  8
0
  6
CONTINUOUS
 10
4.293520
 20
1.833040
  0
SEQEND
  8
0
  0
SOLID
  8
0
 62
    15
 10
4.293960
 20
1.802680
 11
4.942960
 21
2.168320
 12
4.294840
 22
1.773200
 13
4.943840
 23
2.138840
  0
POLYLINE
  8
0
  6
CONTINUOUS
 66
     1
 40
0.000000
 41
0.000000
  0
VERTEX
  8
0
  6
CONTINUOUS
 10
4.293960
 20
1.802680
  0
VERTEX
  8
0
  6
CONTINUOUS
 10
4.942960
 20
2.168320
  0
VERTEX
  8
0
  6
CONTINUOUS
 10
4.943840
 20
2.138840
  0
VERTEX
  8
0
  6
CONTINUOUS
 10
4.294840
 20
1.773200
  0
VERTEX
  8
0
  6
CONTINUOUS
 10
4.293960
 20
1.802680
  0
SEQEND
  8
0
  0
SOLID
  8
0
 62
    15
 10
4.294840
 20
1.773200
 11
4.943840
 21
2.138840
 12
4.297920
 22
1.751200
 13
4.946920
 23
2.116840
  0
POLYLINE
  8
0
  6
CONTINUOUS
 66
     1
 40
0.000000
 41
0.000000
  0
VERTEX
  8
0
  6
CONTINUOUS
 10
4.294840
 20
1.773200
  0
VERTEX
  8
0
  6
CONTINUOUS
 10
4.943840
 20
2.138840
  0
VERTEX
  8
0
  6
CONTINUOUS
 10
4.946920
 20
2.116840
  0
VERTEX
  8
0
  6
CONTINUOUS
 10
4.297920
 20
1.751200
  0
VERTEX
  8
0
  6
CONTINUOUS
 10
4.294840
 20
1.773200
  0
SEQEND
  8
0
  0
SOLID
  8
0
 62
    15
 10
4.297920
 20
1.751200
 11
4.946920
 21
2.116840
 12
4.304960
 22
1.735800
 13
4.953960
 23
2.101440
  0
POLYLINE
  8
0
  6
CONTINUOUS
 66
     1
 40
0.000000
 41
0.000000
  0
VERTEX
  8
0
  6
CONTINUOUS
 10
4.297920
 20
1.751200
  0
VERTEX
  8
0
  6
CONTINUOUS
 10
4.946920
 20
2.116840
  0
VERTEX
  8
0
  6
CONTINUOUS
 10
4.953960
 20
2.101440
  0
VERTEX
  8
0
  6
CONTINUOUS
 10
4.304960
 20
1.735800
  0
VERTEX
  8
0
  6
CONTINUOUS
 10
4.297920
 20
1.751200
  0
SEQEND
  8
0
  0
SOLID
  8
0
 62
     7
 10
4.304960
 20
1.735800
 11
4.953960
 21
2.101440
 12
4.317280
 22
1.725240
 13
4.966280
 23
2.091320
  0
POLYLINE
  8
0
  6
CONTINUOUS
 66
     1
 40
0.000000
 41
0.000000
  0
VERTEX
  8
0
  6
CONTINUOUS
 10
4.304960
 20
1.735800
  0
VERTEX
  8
0
  6
CONTINUOUS
 10
4.953960
 20
2.101440
  0
VERTEX
  8
0
  6
CONTINUOUS
 10
4.966280
 20
2.091320
  0
VERTEX
  8
0
  6
CONTINUOUS
 10
4.317280
 20
1.725240
  0
VERTEX
  8
0
  6
CONTINUOUS
 10
4.304960
 20
1.735800
  0
SEQEND
  8
0
  0
SOLID
  8
0
 62
    15
 10
4.317280
 20
1.725240
 11
4.966280
 21
2.091320
 12
4.336200
 22
1.719080
 13
4.985200
 23
2.085160
  0
POLYLINE
  8
0
  6
CONTINUOUS
 66
     1
 40
0.000000
 41
0.000000
  0
VERTEX
  8
0
  6
CONTINUOUS
 10
4.317280
 20
1.725240
  0
VERTEX
  8
0
  6
CONTINUOUS
 10
4.966280
 20
2.091320
  0
VERTEX
  8
0
  6
CONTINUOUS
 10
4.985200
 20
2.085160
  0
VERTEX
  8
0
  6
CONTINUOUS
 10
4.336200
 20
1.719080
  0
VERTEX
  8
0
  6
CONTINUOUS
 10
4.317280
 20
1.725240
  0
SEQEND
  8
0
  0
SOLID
  8
0
 62
    15
 10
4.336200
 20
1.719080
 11
4.985200
 21
2.085160
 12
4.362600
 22
1.716000
 13
5.011600
 23
2.082080
  0
POLYLINE
  8
0
  6
CONTINUOUS
 66
     1
 40
0.000000
 41
0.000000
  0
VERTEX
  8
0
  6
CONTINUOUS
 10
4.336200
 20
1.719080
  0
VERTEX
  8
0
  6
CONTINUOUS
 10
4.985200
 20
2.085160
  0
VERTEX
  8
0
  6
CONTINUOUS
 10
5.011600
 20
2.082080
  0
VERTEX
  8
0
  6
CONTINUOUS
 10
4.362600
 20
1.716000
  0
VERTEX
  8
0
  6
CONTINUOUS
 10
4.336200
 20
1.719080
  0
SEQEND
  8
0
  0
SOLID
  8
0
 62
    15
 10
4.362600
 20
1.716000
 11
5.011600
 21
2.082080
 12
4.397800
 22
1.715120
 13
5.046800
 23
2.081200
  0
POLYLINE
  8
0
  6
CONTINUOUS
 66
     1
 40
0.000000
 41
0.000000
  0
VERTEX
  8
0
  6
CONTINUOUS
 10
4.362600
 20
1.716000
  0
VERTEX
  8
0
  6
CONTINUOUS
 10
5.011600
 20
2.082080
  0
VERTEX
  8
0
  6
CONTINUOUS
 10
5.046800
 20
2.081200
  0
VERTEX
  8
0
  6
CONTINUOUS
 10
4.397800
 20
1.715120
  0
VERTEX
  8
0
  6
CONTINUOUS
 10
4.362600
 20
1.716000
  0
SEQEND
  8
0
  0
SOLID
  8
0
 62
    15
 10
4.397800
 20
1.715120
 11
5.046800
 21
2.081200
 12
4.419360
 22
1.715120
 13
5.068360
 23
2.080760
  0
POLYLINE
  8
0
  6
CONTINUOUS
 66
     1
 40
0.000000
 41
0.000000
  0
VERTEX
  8
0
  6
CONTINUOUS
 10
4.397800
 20
1.715120
  0
VERTEX
  8
0
  6
CONTINUOUS
 10
5.046800
 20
2.081200
  0
VERTEX
  8
0
  6
CONTINUOUS
 10
5.068360
 20
2.080760
  0
VERTEX
  8
0
  6
CONTINUOUS
 10
4.419360
 20
1.715120
  0
VERTEX
  8
0
  6
CONTINUOUS
 10
4.397800
 20
1.715120
  0
SEQEND
  8
0
  0
SOLID
  8
0
 62
    15
 10
4.419360
 20
1.715120
 11
5.068360
 21
2.080760
 12
4.444000
 22
1.715120
 13
5.093000
 23
2.080760
  0
POLYLINE
  8
0
  6
CONTINUOUS
 66
     1
 40
0.000000
 41
0.000000
  0
VERTEX
  8
0
  6
CONTINUOUS
 10
4.419360
 20
1.715120
  0
VERTEX
  8
0
  6
CONTINUOUS
 10
5.068360
 20
2.080760
  0
VERTEX
  8
0
  6
CONTINUOUS
 10
5.093000
 20
2.080760
  0
VERTEX
  8
0
  6
CONTINUOUS
 10
4.444000
 20
1.715120
  0
VERTEX
  8
0
  6
CONTINUOUS
 10
4.419360
 20
1.715120
  0
SEQEND
  8
0
  0
SOLID
  8
0
 62
    15
 10
4.444000
 20
1.715120
 11
5.093000
 21
2.080760
 12
4.444000
 22
0.894520
 13
5.093000
 23
1.260160
  0
POLYLINE
  8
0
  6
CONTINUOUS
 66
     1
 40
0.000000
 41
0.000000
  0
VERTEX
  8
0
  6
CONTINUOUS
 10
4.444000
 20
1.715120
  0
VERTEX
  8
0
  6
CONTINUOUS
 10
5.093000
 20
2.080760
  0
VERTEX
  8
0
  6
CONTINUOUS
 10
5.093000
 20
1.260160
  0
VERTEX
  8
0
  6
CONTINUOUS
 10
4.444000
 20
0.894520
  0
VERTEX
  8
0
  6
CONTINUOUS
 10
4.444000
 20
1.715120
  0
SEQEND
  8
0
  0
SOLID
  8
0
 62
    15
 10
3.600080
 20
3.298680
 11
4.249080
 21
3.664320
 12
3.779160
 22
3.298680
 13
4.428160
 23
3.664320
  0
POLYLINE
  8
0
  6
CONTINUOUS
 66
     1
 40
0.000000
 41
0.000000
  0
VERTEX
  8
0
  6
CONTINUOUS
 10
3.600080
 20
3.298680
  0
VERTEX
  8
0
  6
CONTINUOUS
 10
4.249080
 20
3.664320
  0
VERTEX
  8
0
  6
CONTINUOUS
 10
4.428160
 20
3.664320
  0
VERTEX
  8
0
  6
CONTINUOUS
 10
3.779160
 20
3.298680
  0
VERTEX
  8
0
  6
CONTINUOUS
 10
3.600080
 20
3.298680
  0
SEQEND
  8
0
  0
SOLID
  8
0
 62
    15
 10
3.779160
 20
3.298680
 11
4.428160
 21
3.664320
 12
3.779160
 22
3.296480
 13
4.428160
 23
3.662120
  0
POLYLINE
  8
0
  6
CONTINUOUS
 66
     1
 40
0.000000
 41
0.000000
  0
VERTEX
  8
0
  6
CONTINUOUS
 10
3.779160
 20
3.298680
  0
VERTEX
  8
0
  6
CONTINUOUS
 10
4.428160
 20
3.664320
  0
VERTEX
  8
0
  6
CONTINUOUS
 10
4.428160
 20
3.662120
  0
VERTEX
  8
0
  6
CONTINUOUS
 10
3.779160
 20
3.296480
  0
VERTEX
  8
0
  6
CONTINUOUS
 10
3.779160
 20
3.298680
  0
SEQEND
  8
0
  0
SOLID
  8
0
 62
    15
 10
3.779160
 20
3.296480
 11
4.428160
 21
3.662120
 12
3.784880
 22
3.235760
 13
4.433880
 23
3.601840
  0
POLYLINE
  8
0
  6
CONTINUOUS
 66
     1
 40
0.000000
 41
0.000000
  0
VERTEX
  8
0
  6
CONTINUOUS
 10
3.779160
 20
3.296480
  0
VERTEX
  8
0
  6
CONTINUOUS
 10
4.428160
 20
3.662120
  0
VERTEX
  8
0
  6
CONTINUOUS
 10
4.433880
 20
3.601840
  0
VERTEX
  8
0
  6
CONTINUOUS
 10
3.784880
 20
3.235760
  0
VERTEX
  8
0
  6
CONTINUOUS
 10
3.779160
 20
3.296480
  0
SEQEND
  8
0
  0
SOLID
  8
0
 62
    15
 10
3.784880
 20
3.235760
 11
4.433880
 21
3.601840
 12
3.797640
 22
3.181200
 13
4.446640
 23
3.547280
  0
POLYLINE
  8
0
  6
CONTINUOUS
 66
     1
 40
0.000000
 41
0.000000
  0
VERTEX
  8
0
  6
CONTINUOUS
 10
3.784880
 20
3.235760
  0
VERTEX
  8
0
  6
CONTINUOUS
 10
4.433880
 20
3.601840
  0
VERTEX
  8
0
  6
CONTINUOUS
 10
4.446640
 20
3.547280
  0
VERTEX
  8
0
  6
CONTINUOUS
 10
3.797640
 20
3.181200
  0
VERTEX
  8
0
  6
CONTINUOUS
 10
3.784880
 20
3.235760
  0
SEQEND
  8
0
  0
SOLID
  8
0
 62
    15
 10
3.797640
 20
3.181200
 11
4.446640
 21
3.547280
 12
3.816560
 22
3.132800
 13
4.465560
 23
3.498880
  0
POLYLINE
  8
0
  6
CONTINUOUS
 66
     1
 40
0.000000
 41
0.000000
  0
VERTEX
  8
0
  6
CONTINUOUS
 10
3.797640
 20
3.181200
  0
VERTEX
  8
0
  6
CONTINUOUS
 10
4.446640
 20
3.547280
  0
VERTEX
  8
0
  6
CONTINUOUS
 10
4.465560
 20
3.498880
  0
VERTEX
  8
0
  6
CONTINUOUS
 10
3.816560
 20
3.132800
  0
VERTEX
  8
0
  6
CONTINUOUS
 10
3.797640
 20
3.181200
  0
SEQEND
  8
0
  0
SOLID
  8
0
 62
    15
 10
3.816560
 20
3.132800
 11
4.465560
 21
3.498880
 12
3.840320
 22
3.091000
 13
4.489320
 23
3.457080
  0
POLYLINE
  8
0
  6
CONTINUOUS
 66
     1
 40
0.000000
 41
0.000000
  0
VERTEX
  8
0
  6
CONTINUOUS
 10
3.816560
 20
3.132800
  0
VERTEX
  8
0
  6
CONTINUOUS
 10
4.465560
 20
3.498880
  0
VERTEX
  8
0
  6
CONTINUOUS
 10
4.489320
 20
3.457080
  0
VERTEX
  8
0
  6
CONTINUOUS
 10
3.840320
 20
3.091000
  0
VERTEX
  8
0
  6
CONTINUOUS
 10
3.816560
 20
3.132800
  0
SEQEND
  8
0
  0
SOLID
  8
0
 62
    15
 10
3.840320
 20
3.091000
 11
4.489320
 21
3.457080
 12
3.868920
 22
3.056680
 13
4.517920
 23
3.422320
  0
POLYLINE
  8
0
  6
CONTINUOUS
 66
     1
 40
0.000000
 41
0.000000
  0
VERTEX
  8
0
  6
CONTINUOUS
 10
3.840320
 20
3.091000
  0
VERTEX
  8
0
  6
CONTINUOUS
 10
4.489320
 20
3.457080
  0
VERTEX
  8
0
  6
CONTINUOUS
 10
4.517920
 20
3.422320
  0
VERTEX
  8
0
  6
CONTINUOUS
 10
3.868920
 20
3.056680
  0
VERTEX
  8
0
  6
CONTINUOUS
 10
3.840320
 20
3.091000
  0
SEQEND
  8
0
  0
SOLID
  8
0
 62
    15
 10
3.868920
 20
3.056680
 11
4.517920
 21
3.422320
 12
3.900160
 22
3.029400
 13
4.549160
 23
3.395040
  0
POLYLINE
  8
0
  6
CONTINUOUS
 66
     1
 40
0.000000
 41
0.000000
  0
VERTEX
  8
0
  6
CONTINUOUS
 10
3.868920
 20
3.056680
  0
VERTEX
  8
0
  6
CONTINUOUS
 10
4.517920
 20
3.422320
  0
VERTEX
  8
0
  6
CONTINUOUS
 10
4.549160
 20
3.395040
  0
VERTEX
  8
0
  6
CONTINUOUS
 10
3.900160
 20
3.029400
  0
VERTEX
  8
0
  6
CONTINUOUS
 10
3.868920
 20
3.056680
  0
SEQEND
  8
0
  0
SOLID
  8
0
 62
    15
 10
3.900160
 20
3.029400
 11
4.549160
 21
3.395040
 12
3.934040
 22
3.009600
 13
4.583040
 23
3.375680
  0
POLYLINE
  8
0
  6
CONTINUOUS
 66
     1
 40
0.000000
 41
0.000000
  0
VERTEX
  8
0
  6
CONTINUOUS
 10
3.900160
 20
3.029400
  0
VERTEX
  8
0
  6
CONTINUOUS
 10
4.549160
 20
3.395040
  0
VERTEX
  8
0
  6
CONTINUOUS
 10
4.583040
 20
3.375680
  0
VERTEX
  8
0
  6
CONTINUOUS
 10
3.934040
 20
3.009600
  0
VERTEX
  8
0
  6
CONTINUOUS
 10
3.900160
 20
3.029400
  0
SEQEND
  8
0
  0
SOLID
  8
0
 62
    15
 10
3.934040
 20
3.009600
 11
4.583040
 21
3.375680
 12
3.968800
 22
2.998600
 13
4.617800
 23
3.364240
  0
POLYLINE
  8
0
  6
CONTINUOUS
 66
     1
 40
0.000000
 41
0.000000
  0
VERTEX
  8
0
  6
CONTINUOUS
 10
3.934040
 20
3.009600
  0
VERTEX
  8
0
  6
CONTINUOUS
 10
4.583040
 20
3.375680
  0
VERTEX
  8
0
  6
CONTINUOUS
 10
4.617800
 20
3.364240
  0
VERTEX
  8
0
  6
CONTINUOUS
 10
3.968800
 20
2.998600
  0
VERTEX
  8
0
  6
CONTINUOUS
 10
3.934040
 20
3.009600
  0
SEQEND
  8
0
  0
SOLID
  8
0
 62
    15
 10
3.968800
 20
2.998600
 11
4.617800
 21
3.364240
 12
3.968800
 22
2.800600
 13
4.617800
 23
3.166240
  0
POLYLINE
  8
0
  6
CONTINUOUS
 66
     1
 40
0.000000
 41
0.000000
  0
VERTEX
  8
0
  6
CONTINUOUS
 10
3.968800
 20
2.998600
  0
VERTEX
  8
0
  6
CONTINUOUS
 10
4.617800
 20
3.364240
  0
VERTEX
  8
0
  6
CONTINUOUS
 10
4.617800
 20
3.166240
  0
VERTEX
  8
0
  6
CONTINUOUS
 10
3.968800
 20
2.800600
  0
VERTEX
  8
0
  6
CONTINUOUS
 10
3.968800
 20
2.998600
  0
SEQEND
  8
0
  0
SOLID
  8
0
 62
    15
 10
3.968800
 20
2.800600
 11
4.617800
 21
3.166240
 12
4.104320
 22
2.800600
 13
4.753320
 23
3.166240
  0
POLYLINE
  8
0
  6
CONTINUOUS
 66
     1
 40
0.000000
 41
0.000000
  0
VERTEX
  8
0
  6
CONTINUOUS
 10
3.968800
 20
2.800600
  0
VERTEX
  8
0
  6
CONTINUOUS
 10
4.617800
 20
3.166240
  0
VERTEX
  8
0
  6
CONTINUOUS
 10
4.753320
 20
3.166240
  0
VERTEX
  8
0
  6
CONTINUOUS
 10
4.104320
 20
2.800600
  0
VERTEX
  8
0
  6
CONTINUOUS
 10
3.968800
 20
2.800600
  0
SEQEND
  8
0
  0
SOLID
  8
0
 62
    15
 10
4.104320
 20
2.800600
 11
4.753320
 21
3.166240
 12
4.104320
 22
2.798400
 13
4.753320
 23
3.164480
  0
POLYLINE
  8
0
  6
CONTINUOUS
 66
     1
 40
0.000000
 41
0.000000
  0
VERTEX
  8
0
  6
CONTINUOUS
 10
4.104320
 20
2.800600
  0
VERTEX
  8
0
  6
CONTINUOUS
 10
4.753320
 20
3.166240
  0
VERTEX
  8
0
  6
CONTINUOUS
 10
4.753320
 20
3.164480
  0
VERTEX
  8
0
  6
CONTINUOUS
 10
4.104320
 20
2.798400
  0
VERTEX
  8
0
  6
CONTINUOUS
 10
4.104320
 20
2.800600
  0
SEQEND
  8
0
  0
POLYLINE
  8
0
  6
CONTINUOUS
 66
     1
 40
0.000000
 41
0.000000
  0
VERTEX
  8
0
  6
CONTINUOUS
 10
4.104320
 20
2.798400
  0
VERTEX
  8
0
  6
CONTINUOUS
 10
4.107840
 20
2.671240
  0
VERTEX
  8
0
  6
CONTINUOUS
 10
4.110480
 20
2.619320
  0
VERTEX
  8
0
  6
CONTINUOUS
 10
4.116200
 20
2.570920
  0
VERTEX
  8
0
  6
CONTINUOUS
 10
4.126760
 20
2.524280
  0
VERTEX
  8
0
  6
CONTINUOUS
 10
4.145240
 20
2.475440
  0
VERTEX
  8
0
  6
CONTINUOUS
 10
4.172080
 20
2.421760
  0
VERTEX
  8
0
  6
CONTINUOUS
 10
4.210360
 20
2.361040
  0
VERTEX
  8
0
  6
CONTINUOUS
 10
4.233680
 20
2.328480
  0
VERTEX
  8
0
  6
CONTINUOUS
 10
4.251280
 20
2.296360
  0
VERTEX
  8
0
  6
CONTINUOUS
 10
4.263600
 20
2.264680
  0
VERTEX
  8
0
  6
CONTINUOUS
 10
4.271080
 20
2.233880
  0
VERTEX
  8
0
  6
CONTINUOUS
 10
4.274160
 20
2.203960
  0
VERTEX
  8
0
  6
CONTINUOUS
 10
4.273720
 20
2.174920
  0
VERTEX
  8
0
  6
CONTINUOUS
 10
4.262280
 20
2.120360
  0
VERTEX
  8
0
  6
CONTINUOUS
 10
4.240720
 20
2.070640
  0
VERTEX
  8
0
  6
CONTINUOUS
 10
4.212560
 20
2.027080
  0
VERTEX
  8
0
  6
CONTINUOUS
 10
4.181320
 20
1.990120
  0
VERTEX
  8
0
  6
CONTINUOUS
 10
4.147880
 20
1.958440
  0
VERTEX
  8
0
  6
CONTINUOUS
 10
4.130720
 20
1.935120
  0
VERTEX
  8
0
  6
CONTINUOUS
 10
4.128960
 20
1.925000
  0
VERTEX
  8
0
  6
CONTINUOUS
 10
4.132480
 20
1.915760
  0
VERTEX
  8
0
  6
CONTINUOUS
 10
4.143920
 20
1.907840
  0
VERTEX
  8
0
  6
CONTINUOUS
 10
4.164600
 20
1.902560
  0
VERTEX
  8
0
  6
CONTINUOUS
 10
4.206400
 20
1.903880
  0
VERTEX
  8
0
  6
CONTINUOUS
 10
4.237640
 20
1.902120
  0
VERTEX
  8
0
  6
CONTINUOUS
 10
4.260520
 20
1.897280
  0
VERTEX
  8
0
  6
CONTINUOUS
 10
4.276360
 20
1.888480
  0
VERTEX
  8
0
  6
CONTINUOUS
 10
4.286040
 20
1.875280
  0
VERTEX
  8
0
  6
CONTINUOUS
 10
4.291320
 20
1.856800
  0
VERTEX
  8
0
  6
CONTINUOUS
 10
4.293520
 20
1.833040
  0
VERTEX
  8
0
  6
CONTINUOUS
 10
4.294840
 20
1.773200
  0
VERTEX
  8
0
  6
CONTINUOUS
 10
4.297920
 20
1.751200
  0
VERTEX
  8
0
  6
CONTINUOUS
 10
4.304960
 20
1.735800
  0
VERTEX
  8
0
  6
CONTINUOUS
 10
4.317280
 20
1.725240
  0
VERTEX
  8
0
  6
CONTINUOUS
 10
4.336200
 20
1.719080
  0
VERTEX
  8
0
  6
CONTINUOUS
 10
4.362600
 20
1.716000
  0
VERTEX
  8
0
  6
CONTINUOUS
 10
4.444000
 20
1.715120
  0
VERTEX
  8
0
  6
CONTINUOUS
 10
4.444000
 20
0.894520
  0
VERTEX
  8
0
  6
CONTINUOUS
 10
3.600080
 20
0.894520
  0
VERTEX
  8
0
  6
CONTINUOUS
 10
3.600080
 20
3.298680
  0
VERTEX
  8
0
  6
CONTINUOUS
 10
3.779160
 20
3.298680
  0
VERTEX
  8
0
  6
CONTINUOUS
 10
3.784880
 20
3.235760
  0
VERTEX
  8
0
  6
CONTINUOUS
 10
3.797640
 20
3.181200
  0
VERTEX
  8
0
  6
CONTINUOUS
 10
3.816560
 20
3.132800
  0
VERTEX
  8
0
  6
CONTINUOUS
 10
3.840320
 20
3.091000
  0
VERTEX
  8
0
  6
CONTINUOUS
 10
3.868920
 20
3.056680
  0
VERTEX
  8
0
  6
CONTINUOUS
 10
3.900160
 20
3.029400
  0
VERTEX
  8
0
  6
CONTINUOUS
 10
3.934040
 20
3.009600
  0
VERTEX
  8
0
  6
CONTINUOUS
 10
3.968800
 20
2.998600
  0
VERTEX
  8
0
  6
CONTINUOUS
 10
3.968800
 20
2.800600
  0
VERTEX
  8
0
  6
CONTINUOUS
 10
4.104320
 20
2.800600
  0
VERTEX
  8
0
  6
CONTINUOUS
 10
4.104320
 20
2.798400
  0
SEQEND
  8
0
  0
TEXT
  8
0
 10
4.051520
 20
0.658240
 40
0.138107
  1
BA  300
 41
1.000000
  7
SN0
 71
     0
 72
     5
 11
4.641177
 21
0.658240
  0
TEXT
  8
0
 10
3.895760
 20
0.466400
 40
0.138107
  1
7/8" x 2-3/8"
 41
1.000000
  7
SN0
 71
     0
 72
     5
 11
4.794728
 21
0.466400
  0
TEXT
  8
0
 10
7.563160
 20
3.470720
 40
0.138107
  1
base
 41
1.000000
  7
SN0
 71
     0
 72
     5
 11
7.922617
 21
3.470720
  0
TEXT
  8
0
 10
7.604520
 20
3.279320
 40
0.138107
  1
300
 41
1.000000
  7
SN0
 71
     0
 72
     5
 11
7.881192
 21
3.279320
  0
ENDSEC
  0
EOF
