  0
SECTION
  2
HEADER
  9
$ACADVER
  1
AC1006
  9
$EXTMIN
 10
4.084960
 20
0.343200
  9
$EXTMAX
 10
6.441600
 20
3.494920
  9
$LTSCALE
 40
0.044000
  9
$PDMODE
 70
    35
  9
$PDSIZE
 40
0.035200
  0
ENDSEC
  0
SECTION
  2
TABLES
  0
TABLE
  2
LTYPE
 70
     9
  0
LTYPE
  2
CONTINUOUS
 70
    64
  3
Solid line
 72
    65
 73
     0
 40
0.000000
  0
LTYPE
  2
DASHED
 70
    64
  3
__ __ __ __ __ __ __ __ __ __ __ __ __ __ __
 72
    65
 73
     2
 40
0.000330
 49
0.000220
 49
-0.000110
  0
LTYPE
  2
HIDDEN
 70
    64
  3
 _ _ _ _ _ _ _ _ _ _ _ _ _ _ _ _ _ _ _ _ _ _
 72
    65
 73
     2
 40
0.000165
 49
0.000110
 49
-0.000055
  0
LTYPE
  2
CENTER
 70
    64
  3
____ _ ____ _ ____ _ ____ _ ____ _ ____ _ ____
 72
    65
 73
     4
 40
0.000880
 49
0.000550
 49
-0.000110
 49
0.000110
 49
-0.000110
  0
LTYPE
  2
PHANTOM
 70
    64
  3
_____ _ _ _____ _ _ _____ _ _ _____ _ _ ____
 72
    65
 73
     6
 40
0.001100
 49
0.000550
 49
-0.000110
 49
0.000110
 49
-0.000110
 49
0.000110
 49
-0.000110
  0
LTYPE
  2
DOT
 70
    64
  3
...............................................
 72
    65
 73
     2
 40
0.000110
 49
0.000000
 49
-0.000110
  0
LTYPE
  2
DASHDOT
 70
    64
  3
__ . __ . __ . __ . __ . __ . __ . __ . __ . __
 72
    65
 73
     4
 40
0.000440
 49
0.000220
 49
-0.000110
 49
0.000000
 49
-0.000110
  0
LTYPE
  2
BORDER
 70
    64
  3
__ __ . __ __ . __ __ . __ __ . __ __ . __ __
 72
    65
 73
     6
 40
0.000770
 49
0.000220
 49
-0.000110
 49
0.000220
 49
-0.000110
 49
0.000000
 49
-0.000110
  0
LTYPE
  2
DIVIDE
 70
    64
  3
__ . . __ . . __ . . __ . . __ . . __ . . __
 72
    65
 73
     6
 40
0.000550
 49
0.000220
 49
-0.000110
 49
0.000000
 49
-0.000110
 49
0.000000
 49
-0.000110
  0
LTYPE
  2
DOTDOT
 70
    64
  3
 . .  . .  . .  . .  . .  . . 
 72
    65
 73
     5
 40
0.000242
 49
-0.000110
 49
0.000000
 49
-0.000110
 49
0.000000
 49
-0.000110
  0
ENDTAB
  0
TABLE
  2
STYLE
 70
     2
  0
STYLE
 70
     0
  2
SN0
 40
0.000000
 41
0.000440
 50
0.000000
 71
     0
 42
0.000000
  3
ROMAND
  0
STYLE
 70
    68
  2
SV0
 40
0.000000
 41
0.000440
 50
0.000000
 71
     0
 42
0.000000
  3
ROMAND
  0
ENDTAB
  0
TABLE
  2
LAYER
 70
     3
  0
LAYER
  2
FOREGROUND
 70
    64
 62
     7
  6
CONTINUOUS
  0
LAYER
  2
BACKGROUND
 70
    65
 62
    -7
  6
CONTINUOUS
  0
LAYER
  2
0
 70
    64
 62
     7
  6
CONTINUOUS
  0
ENDTAB
  0
ENDSEC
  0
SECTION
  2
ENTITIES
  0
POLYLINE
  8
FOREGROUND
  6
CONTINUOUS
 66
     1
 40
0.000000
 41
0.000000
  0
VERTEX
  8
FOREGROUND
  6
CONTINUOUS
 10
0.000000
 20
3.838120
  0
VERTEX
  8
FOREGROUND
  6
CONTINUOUS
 10
8.499920
 20
3.838120
  0
VERTEX
  8
FOREGROUND
  6
CONTINUOUS
 10
8.499920
 20
-7.161880
  0
VERTEX
  8
FOREGROUND
  6
CONTINUOUS
 10
0.000000
 20
-7.161880
  0
VERTEX
  8
FOREGROUND
  6
CONTINUOUS
 10
0.000000
 20
3.838120
  0
SEQEND
  8
0
  0
POLYLINE
  8
FOREGROUND
  6
CONTINUOUS
 66
     1
 40
0.000000
 41
0.000000
  0
VERTEX
  8
FOREGROUND
  6
CONTINUOUS
 10
0.000000
 20
3.838120
  0
VERTEX
  8
FOREGROUND
  6
CONTINUOUS
 10
8.499920
 20
3.838120
  0
VERTEX
  8
FOREGROUND
  6
CONTINUOUS
 10
8.499920
 20
-7.161880
  0
VERTEX
  8
FOREGROUND
  6
CONTINUOUS
 10
0.000000
 20
-7.161880
  0
VERTEX
  8
FOREGROUND
  6
CONTINUOUS
 10
0.000000
 20
3.838120
  0
SEQEND
  8
0
  0
SOLID
  8
0
 62
     7
 10
4.486240
 20
1.386000
 11
5.128200
 21
1.012440
 12
4.482720
 22
1.351240
 13
5.124680
 23
0.977680
  0
POLYLINE
  8
0
  6
CONTINUOUS
 66
     1
 40
0.000000
 41
0.000000
  0
VERTEX
  8
0
  6
CONTINUOUS
 10
4.486240
 20
1.386000
  0
VERTEX
  8
0
  6
CONTINUOUS
 10
5.128200
 20
1.012440
  0
VERTEX
  8
0
  6
CONTINUOUS
 10
5.124680
 20
0.977680
  0
VERTEX
  8
0
  6
CONTINUOUS
 10
4.482720
 20
1.351240
  0
VERTEX
  8
0
  6
CONTINUOUS
 10
4.486240
 20
1.386000
  0
SEQEND
  8
0
  0
SOLID
  8
0
 62
    15
 10
4.722080
 20
1.881000
 11
5.364040
 21
1.507440
 12
4.686000
 22
1.855040
 13
5.327960
 23
1.481480
  0
POLYLINE
  8
0
  6
CONTINUOUS
 66
     1
 40
0.000000
 41
0.000000
  0
VERTEX
  8
0
  6
CONTINUOUS
 10
4.722080
 20
1.881000
  0
VERTEX
  8
0
  6
CONTINUOUS
 10
5.364040
 20
1.507440
  0
VERTEX
  8
0
  6
CONTINUOUS
 10
5.327960
 20
1.481480
  0
VERTEX
  8
0
  6
CONTINUOUS
 10
4.686000
 20
1.855040
  0
VERTEX
  8
0
  6
CONTINUOUS
 10
4.722080
 20
1.881000
  0
SEQEND
  8
0
  0
SOLID
  8
0
 62
    15
 10
4.686000
 20
1.855040
 11
5.327960
 21
1.481480
 12
4.653880
 22
1.827320
 13
5.295840
 23
1.453760
  0
POLYLINE
  8
0
  6
CONTINUOUS
 66
     1
 40
0.000000
 41
0.000000
  0
VERTEX
  8
0
  6
CONTINUOUS
 10
4.686000
 20
1.855040
  0
VERTEX
  8
0
  6
CONTINUOUS
 10
5.327960
 20
1.481480
  0
VERTEX
  8
0
  6
CONTINUOUS
 10
5.295840
 20
1.453760
  0
VERTEX
  8
0
  6
CONTINUOUS
 10
4.653880
 20
1.827320
  0
VERTEX
  8
0
  6
CONTINUOUS
 10
4.686000
 20
1.855040
  0
SEQEND
  8
0
  0
SOLID
  8
0
 62
    15
 10
4.653880
 20
1.827320
 11
5.295840
 21
1.453760
 12
4.625720
 22
1.797840
 13
5.267680
 23
1.424280
  0
POLYLINE
  8
0
  6
CONTINUOUS
 66
     1
 40
0.000000
 41
0.000000
  0
VERTEX
  8
0
  6
CONTINUOUS
 10
4.653880
 20
1.827320
  0
VERTEX
  8
0
  6
CONTINUOUS
 10
5.295840
 20
1.453760
  0
VERTEX
  8
0
  6
CONTINUOUS
 10
5.267680
 20
1.424280
  0
VERTEX
  8
0
  6
CONTINUOUS
 10
4.625720
 20
1.797840
  0
VERTEX
  8
0
  6
CONTINUOUS
 10
4.653880
 20
1.827320
  0
SEQEND
  8
0
  0
SOLID
  8
0
 62
    15
 10
4.625720
 20
1.797840
 11
5.267680
 21
1.424280
 12
4.601520
 22
1.767480
 13
5.243040
 23
1.393920
  0
POLYLINE
  8
0
  6
CONTINUOUS
 66
     1
 40
0.000000
 41
0.000000
  0
VERTEX
  8
0
  6
CONTINUOUS
 10
4.625720
 20
1.797840
  0
VERTEX
  8
0
  6
CONTINUOUS
 10
5.267680
 20
1.424280
  0
VERTEX
  8
0
  6
CONTINUOUS
 10
5.243040
 20
1.393920
  0
VERTEX
  8
0
  6
CONTINUOUS
 10
4.601520
 20
1.767480
  0
VERTEX
  8
0
  6
CONTINUOUS
 10
4.625720
 20
1.797840
  0
SEQEND
  8
0
  0
SOLID
  8
0
 62
    15
 10
4.601520
 20
1.767480
 11
5.243040
 21
1.393920
 12
4.580400
 22
1.736240
 13
5.221920
 23
1.362680
  0
POLYLINE
  8
0
  6
CONTINUOUS
 66
     1
 40
0.000000
 41
0.000000
  0
VERTEX
  8
0
  6
CONTINUOUS
 10
4.601520
 20
1.767480
  0
VERTEX
  8
0
  6
CONTINUOUS
 10
5.243040
 20
1.393920
  0
VERTEX
  8
0
  6
CONTINUOUS
 10
5.221920
 20
1.362680
  0
VERTEX
  8
0
  6
CONTINUOUS
 10
4.580400
 20
1.736240
  0
VERTEX
  8
0
  6
CONTINUOUS
 10
4.601520
 20
1.767480
  0
SEQEND
  8
0
  0
SOLID
  8
0
 62
    15
 10
4.580400
 20
1.736240
 11
5.221920
 21
1.362680
 12
4.546960
 22
1.672000
 13
5.188920
 23
1.298440
  0
POLYLINE
  8
0
  6
CONTINUOUS
 66
     1
 40
0.000000
 41
0.000000
  0
VERTEX
  8
0
  6
CONTINUOUS
 10
4.580400
 20
1.736240
  0
VERTEX
  8
0
  6
CONTINUOUS
 10
5.221920
 20
1.362680
  0
VERTEX
  8
0
  6
CONTINUOUS
 10
5.188920
 20
1.298440
  0
VERTEX
  8
0
  6
CONTINUOUS
 10
4.546960
 20
1.672000
  0
VERTEX
  8
0
  6
CONTINUOUS
 10
4.580400
 20
1.736240
  0
SEQEND
  8
0
  0
SOLID
  8
0
 62
     7
 10
4.546960
 20
1.672000
 11
5.188920
 21
1.298440
 12
4.523640
 22
1.609080
 13
5.165600
 23
1.235520
  0
POLYLINE
  8
0
  6
CONTINUOUS
 66
     1
 40
0.000000
 41
0.000000
  0
VERTEX
  8
0
  6
CONTINUOUS
 10
4.546960
 20
1.672000
  0
VERTEX
  8
0
  6
CONTINUOUS
 10
5.188920
 20
1.298440
  0
VERTEX
  8
0
  6
CONTINUOUS
 10
5.165600
 20
1.235520
  0
VERTEX
  8
0
  6
CONTINUOUS
 10
4.523640
 20
1.609080
  0
VERTEX
  8
0
  6
CONTINUOUS
 10
4.546960
 20
1.672000
  0
SEQEND
  8
0
  0
SOLID
  8
0
 62
     7
 10
4.523640
 20
1.609080
 11
5.165600
 21
1.235520
 12
4.508240
 22
1.549240
 13
5.150200
 23
1.175680
  0
POLYLINE
  8
0
  6
CONTINUOUS
 66
     1
 40
0.000000
 41
0.000000
  0
VERTEX
  8
0
  6
CONTINUOUS
 10
4.523640
 20
1.609080
  0
VERTEX
  8
0
  6
CONTINUOUS
 10
5.165600
 20
1.235520
  0
VERTEX
  8
0
  6
CONTINUOUS
 10
5.150200
 20
1.175680
  0
VERTEX
  8
0
  6
CONTINUOUS
 10
4.508240
 20
1.549240
  0
VERTEX
  8
0
  6
CONTINUOUS
 10
4.523640
 20
1.609080
  0
SEQEND
  8
0
  0
SOLID
  8
0
 62
     7
 10
4.508240
 20
1.549240
 11
5.150200
 21
1.175680
 12
4.498560
 22
1.496440
 13
5.140080
 23
1.122880
  0
POLYLINE
  8
0
  6
CONTINUOUS
 66
     1
 40
0.000000
 41
0.000000
  0
VERTEX
  8
0
  6
CONTINUOUS
 10
4.508240
 20
1.549240
  0
VERTEX
  8
0
  6
CONTINUOUS
 10
5.150200
 20
1.175680
  0
VERTEX
  8
0
  6
CONTINUOUS
 10
5.140080
 20
1.122880
  0
VERTEX
  8
0
  6
CONTINUOUS
 10
4.498560
 20
1.496440
  0
VERTEX
  8
0
  6
CONTINUOUS
 10
4.508240
 20
1.549240
  0
SEQEND
  8
0
  0
SOLID
  8
0
 62
     7
 10
4.498560
 20
1.496440
 11
5.140080
 21
1.122880
 12
4.495040
 22
1.473120
 13
5.136560
 23
1.099560
  0
POLYLINE
  8
0
  6
CONTINUOUS
 66
     1
 40
0.000000
 41
0.000000
  0
VERTEX
  8
0
  6
CONTINUOUS
 10
4.498560
 20
1.496440
  0
VERTEX
  8
0
  6
CONTINUOUS
 10
5.140080
 20
1.122880
  0
VERTEX
  8
0
  6
CONTINUOUS
 10
5.136560
 20
1.099560
  0
VERTEX
  8
0
  6
CONTINUOUS
 10
4.495040
 20
1.473120
  0
VERTEX
  8
0
  6
CONTINUOUS
 10
4.498560
 20
1.496440
  0
SEQEND
  8
0
  0
SOLID
  8
0
 62
     7
 10
4.495040
 20
1.473120
 11
5.136560
 21
1.099560
 12
4.491960
 22
1.452440
 13
5.133920
 23
1.078880
  0
POLYLINE
  8
0
  6
CONTINUOUS
 66
     1
 40
0.000000
 41
0.000000
  0
VERTEX
  8
0
  6
CONTINUOUS
 10
4.495040
 20
1.473120
  0
VERTEX
  8
0
  6
CONTINUOUS
 10
5.136560
 20
1.099560
  0
VERTEX
  8
0
  6
CONTINUOUS
 10
5.133920
 20
1.078880
  0
VERTEX
  8
0
  6
CONTINUOUS
 10
4.491960
 20
1.452440
  0
VERTEX
  8
0
  6
CONTINUOUS
 10
4.495040
 20
1.473120
  0
SEQEND
  8
0
  0
SOLID
  8
0
 62
     7
 10
4.491960
 20
1.452440
 11
5.133920
 21
1.078880
 12
4.490640
 22
1.437920
 13
5.132600
 23
1.064360
  0
POLYLINE
  8
0
  6
CONTINUOUS
 66
     1
 40
0.000000
 41
0.000000
  0
VERTEX
  8
0
  6
CONTINUOUS
 10
4.491960
 20
1.452440
  0
VERTEX
  8
0
  6
CONTINUOUS
 10
5.133920
 20
1.078880
  0
VERTEX
  8
0
  6
CONTINUOUS
 10
5.132600
 20
1.064360
  0
VERTEX
  8
0
  6
CONTINUOUS
 10
4.490640
 20
1.437920
  0
VERTEX
  8
0
  6
CONTINUOUS
 10
4.491960
 20
1.452440
  0
SEQEND
  8
0
  0
SOLID
  8
0
 62
     7
 10
4.490640
 20
1.437920
 11
5.132600
 21
1.064360
 12
4.488880
 22
1.415480
 13
5.130840
 23
1.041920
  0
POLYLINE
  8
0
  6
CONTINUOUS
 66
     1
 40
0.000000
 41
0.000000
  0
VERTEX
  8
0
  6
CONTINUOUS
 10
4.490640
 20
1.437920
  0
VERTEX
  8
0
  6
CONTINUOUS
 10
5.132600
 20
1.064360
  0
VERTEX
  8
0
  6
CONTINUOUS
 10
5.130840
 20
1.041920
  0
VERTEX
  8
0
  6
CONTINUOUS
 10
4.488880
 20
1.415480
  0
VERTEX
  8
0
  6
CONTINUOUS
 10
4.490640
 20
1.437920
  0
SEQEND
  8
0
  0
SOLID
  8
0
 62
     7
 10
4.488880
 20
1.415480
 11
5.130840
 21
1.041920
 12
4.486240
 22
1.386000
 13
5.128200
 23
1.012440
  0
POLYLINE
  8
0
  6
CONTINUOUS
 66
     1
 40
0.000000
 41
0.000000
  0
VERTEX
  8
0
  6
CONTINUOUS
 10
4.488880
 20
1.415480
  0
VERTEX
  8
0
  6
CONTINUOUS
 10
5.130840
 20
1.041920
  0
VERTEX
  8
0
  6
CONTINUOUS
 10
5.128200
 20
1.012440
  0
VERTEX
  8
0
  6
CONTINUOUS
 10
4.486240
 20
1.386000
  0
VERTEX
  8
0
  6
CONTINUOUS
 10
4.488880
 20
1.415480
  0
SEQEND
  8
0
  0
SOLID
  8
0
 62
    15
 10
4.763000
 20
1.904320
 11
5.404520
 21
1.530760
 12
4.722080
 22
1.881000
 13
5.364040
 23
1.507440
  0
POLYLINE
  8
0
  6
CONTINUOUS
 66
     1
 40
0.000000
 41
0.000000
  0
VERTEX
  8
0
  6
CONTINUOUS
 10
4.763000
 20
1.904320
  0
VERTEX
  8
0
  6
CONTINUOUS
 10
5.404520
 20
1.530760
  0
VERTEX
  8
0
  6
CONTINUOUS
 10
5.364040
 20
1.507440
  0
VERTEX
  8
0
  6
CONTINUOUS
 10
4.722080
 20
1.881000
  0
VERTEX
  8
0
  6
CONTINUOUS
 10
4.763000
 20
1.904320
  0
SEQEND
  8
0
  0
SOLID
  8
0
 62
     7
 10
4.482720
 20
1.351240
 11
5.124680
 21
0.977680
 12
4.477880
 22
1.312080
 13
5.119840
 23
0.938520
  0
POLYLINE
  8
0
  6
CONTINUOUS
 66
     1
 40
0.000000
 41
0.000000
  0
VERTEX
  8
0
  6
CONTINUOUS
 10
4.482720
 20
1.351240
  0
VERTEX
  8
0
  6
CONTINUOUS
 10
5.124680
 20
0.977680
  0
VERTEX
  8
0
  6
CONTINUOUS
 10
5.119840
 20
0.938520
  0
VERTEX
  8
0
  6
CONTINUOUS
 10
4.477880
 20
1.312080
  0
VERTEX
  8
0
  6
CONTINUOUS
 10
4.482720
 20
1.351240
  0
SEQEND
  8
0
  0
SOLID
  8
0
 62
     7
 10
4.477880
 20
1.312080
 11
5.119840
 21
0.938520
 12
4.471280
 22
1.269400
 13
5.113240
 23
0.895840
  0
POLYLINE
  8
0
  6
CONTINUOUS
 66
     1
 40
0.000000
 41
0.000000
  0
VERTEX
  8
0
  6
CONTINUOUS
 10
4.477880
 20
1.312080
  0
VERTEX
  8
0
  6
CONTINUOUS
 10
5.119840
 20
0.938520
  0
VERTEX
  8
0
  6
CONTINUOUS
 10
5.113240
 20
0.895840
  0
VERTEX
  8
0
  6
CONTINUOUS
 10
4.471280
 20
1.269400
  0
VERTEX
  8
0
  6
CONTINUOUS
 10
4.477880
 20
1.312080
  0
SEQEND
  8
0
  0
SOLID
  8
0
 62
     7
 10
4.471280
 20
1.269400
 11
5.113240
 21
0.895840
 12
4.453240
 22
1.179640
 13
5.095200
 23
0.806080
  0
POLYLINE
  8
0
  6
CONTINUOUS
 66
     1
 40
0.000000
 41
0.000000
  0
VERTEX
  8
0
  6
CONTINUOUS
 10
4.471280
 20
1.269400
  0
VERTEX
  8
0
  6
CONTINUOUS
 10
5.113240
 20
0.895840
  0
VERTEX
  8
0
  6
CONTINUOUS
 10
5.095200
 20
0.806080
  0
VERTEX
  8
0
  6
CONTINUOUS
 10
4.453240
 20
1.179640
  0
VERTEX
  8
0
  6
CONTINUOUS
 10
4.471280
 20
1.269400
  0
SEQEND
  8
0
  0
SOLID
  8
0
 62
     7
 10
4.453240
 20
1.179640
 11
5.095200
 21
0.806080
 12
4.425960
 22
1.091200
 13
5.067480
 23
0.717640
  0
POLYLINE
  8
0
  6
CONTINUOUS
 66
     1
 40
0.000000
 41
0.000000
  0
VERTEX
  8
0
  6
CONTINUOUS
 10
4.453240
 20
1.179640
  0
VERTEX
  8
0
  6
CONTINUOUS
 10
5.095200
 20
0.806080
  0
VERTEX
  8
0
  6
CONTINUOUS
 10
5.067480
 20
0.717640
  0
VERTEX
  8
0
  6
CONTINUOUS
 10
4.425960
 20
1.091200
  0
VERTEX
  8
0
  6
CONTINUOUS
 10
4.453240
 20
1.179640
  0
SEQEND
  8
0
  0
SOLID
  8
0
 62
    15
 10
4.425960
 20
1.091200
 11
5.067480
 21
0.717640
 12
4.407920
 22
1.050280
 13
5.049880
 23
0.676720
  0
POLYLINE
  8
0
  6
CONTINUOUS
 66
     1
 40
0.000000
 41
0.000000
  0
VERTEX
  8
0
  6
CONTINUOUS
 10
4.425960
 20
1.091200
  0
VERTEX
  8
0
  6
CONTINUOUS
 10
5.067480
 20
0.717640
  0
VERTEX
  8
0
  6
CONTINUOUS
 10
5.049880
 20
0.676720
  0
VERTEX
  8
0
  6
CONTINUOUS
 10
4.407920
 20
1.050280
  0
VERTEX
  8
0
  6
CONTINUOUS
 10
4.425960
 20
1.091200
  0
SEQEND
  8
0
  0
SOLID
  8
0
 62
    15
 10
4.407920
 20
1.050280
 11
5.049880
 21
0.676720
 12
4.387240
 22
1.013320
 13
5.029200
 23
0.639760
  0
POLYLINE
  8
0
  6
CONTINUOUS
 66
     1
 40
0.000000
 41
0.000000
  0
VERTEX
  8
0
  6
CONTINUOUS
 10
4.407920
 20
1.050280
  0
VERTEX
  8
0
  6
CONTINUOUS
 10
5.049880
 20
0.676720
  0
VERTEX
  8
0
  6
CONTINUOUS
 10
5.029200
 20
0.639760
  0
VERTEX
  8
0
  6
CONTINUOUS
 10
4.387240
 20
1.013320
  0
VERTEX
  8
0
  6
CONTINUOUS
 10
4.407920
 20
1.050280
  0
SEQEND
  8
0
  0
SOLID
  8
0
 62
    15
 10
4.387240
 20
1.013320
 11
5.029200
 21
0.639760
 12
4.363480
 22
0.981200
 13
5.005000
 23
0.607640
  0
POLYLINE
  8
0
  6
CONTINUOUS
 66
     1
 40
0.000000
 41
0.000000
  0
VERTEX
  8
0
  6
CONTINUOUS
 10
4.387240
 20
1.013320
  0
VERTEX
  8
0
  6
CONTINUOUS
 10
5.029200
 20
0.639760
  0
VERTEX
  8
0
  6
CONTINUOUS
 10
5.005000
 20
0.607640
  0
VERTEX
  8
0
  6
CONTINUOUS
 10
4.363480
 20
0.981200
  0
VERTEX
  8
0
  6
CONTINUOUS
 10
4.387240
 20
1.013320
  0
SEQEND
  8
0
  0
SOLID
  8
0
 62
    15
 10
4.363480
 20
0.981200
 11
5.005000
 21
0.607640
 12
4.335760
 22
0.955680
 13
4.977720
 23
0.582120
  0
POLYLINE
  8
0
  6
CONTINUOUS
 66
     1
 40
0.000000
 41
0.000000
  0
VERTEX
  8
0
  6
CONTINUOUS
 10
4.363480
 20
0.981200
  0
VERTEX
  8
0
  6
CONTINUOUS
 10
5.005000
 20
0.607640
  0
VERTEX
  8
0
  6
CONTINUOUS
 10
4.977720
 20
0.582120
  0
VERTEX
  8
0
  6
CONTINUOUS
 10
4.335760
 20
0.955680
  0
VERTEX
  8
0
  6
CONTINUOUS
 10
4.363480
 20
0.981200
  0
SEQEND
  8
0
  0
SOLID
  8
0
 62
    15
 10
4.335760
 20
0.955680
 11
4.977720
 21
0.582120
 12
4.304520
 22
0.937200
 13
4.946480
 23
0.563640
  0
POLYLINE
  8
0
  6
CONTINUOUS
 66
     1
 40
0.000000
 41
0.000000
  0
VERTEX
  8
0
  6
CONTINUOUS
 10
4.335760
 20
0.955680
  0
VERTEX
  8
0
  6
CONTINUOUS
 10
4.977720
 20
0.582120
  0
VERTEX
  8
0
  6
CONTINUOUS
 10
4.946480
 20
0.563640
  0
VERTEX
  8
0
  6
CONTINUOUS
 10
4.304520
 20
0.937200
  0
VERTEX
  8
0
  6
CONTINUOUS
 10
4.335760
 20
0.955680
  0
SEQEND
  8
0
  0
SOLID
  8
0
 62
    15
 10
4.304520
 20
0.937200
 11
4.946480
 21
0.563640
 12
4.268880
 22
0.927520
 13
4.910840
 23
0.553960
  0
POLYLINE
  8
0
  6
CONTINUOUS
 66
     1
 40
0.000000
 41
0.000000
  0
VERTEX
  8
0
  6
CONTINUOUS
 10
4.304520
 20
0.937200
  0
VERTEX
  8
0
  6
CONTINUOUS
 10
4.946480
 20
0.563640
  0
VERTEX
  8
0
  6
CONTINUOUS
 10
4.910840
 20
0.553960
  0
VERTEX
  8
0
  6
CONTINUOUS
 10
4.268880
 20
0.927520
  0
VERTEX
  8
0
  6
CONTINUOUS
 10
4.304520
 20
0.937200
  0
SEQEND
  8
0
  0
SOLID
  8
0
 62
    15
 10
4.268880
 20
0.927520
 11
4.910840
 21
0.553960
 12
4.267120
 22
0.927520
 13
4.908640
 23
0.553960
  0
POLYLINE
  8
0
  6
CONTINUOUS
 66
     1
 40
0.000000
 41
0.000000
  0
VERTEX
  8
0
  6
CONTINUOUS
 10
4.268880
 20
0.927520
  0
VERTEX
  8
0
  6
CONTINUOUS
 10
4.910840
 20
0.553960
  0
VERTEX
  8
0
  6
CONTINUOUS
 10
4.908640
 20
0.553960
  0
VERTEX
  8
0
  6
CONTINUOUS
 10
4.267120
 20
0.927520
  0
VERTEX
  8
0
  6
CONTINUOUS
 10
4.268880
 20
0.927520
  0
SEQEND
  8
0
  0
SOLID
  8
0
 62
     7
 10
4.267120
 20
0.927520
 11
4.908640
 21
0.553960
 12
4.267120
 22
0.770880
 13
4.908640
 23
0.397320
  0
POLYLINE
  8
0
  6
CONTINUOUS
 66
     1
 40
0.000000
 41
0.000000
  0
VERTEX
  8
0
  6
CONTINUOUS
 10
4.267120
 20
0.927520
  0
VERTEX
  8
0
  6
CONTINUOUS
 10
4.908640
 20
0.553960
  0
VERTEX
  8
0
  6
CONTINUOUS
 10
4.908640
 20
0.397320
  0
VERTEX
  8
0
  6
CONTINUOUS
 10
4.267120
 20
0.770880
  0
VERTEX
  8
0
  6
CONTINUOUS
 10
4.267120
 20
0.927520
  0
SEQEND
  8
0
  0
SOLID
  8
0
 62
    15
 10
4.267120
 20
0.770880
 11
4.908640
 21
0.397320
 12
4.085840
 22
0.770880
 13
4.727360
 23
0.397320
  0
POLYLINE
  8
0
  6
CONTINUOUS
 66
     1
 40
0.000000
 41
0.000000
  0
VERTEX
  8
0
  6
CONTINUOUS
 10
4.267120
 20
0.770880
  0
VERTEX
  8
0
  6
CONTINUOUS
 10
4.908640
 20
0.397320
  0
VERTEX
  8
0
  6
CONTINUOUS
 10
4.727360
 20
0.397320
  0
VERTEX
  8
0
  6
CONTINUOUS
 10
4.085840
 20
0.770880
  0
VERTEX
  8
0
  6
CONTINUOUS
 10
4.267120
 20
0.770880
  0
SEQEND
  8
0
  0
SOLID
  8
0
 62
     7
 10
4.763000
 20
2.154240
 11
5.404520
 21
1.780680
 12
4.763000
 22
1.906520
 13
5.404520
 23
1.532960
  0
POLYLINE
  8
0
  6
CONTINUOUS
 66
     1
 40
0.000000
 41
0.000000
  0
VERTEX
  8
0
  6
CONTINUOUS
 10
4.763000
 20
2.154240
  0
VERTEX
  8
0
  6
CONTINUOUS
 10
5.404520
 20
1.780680
  0
VERTEX
  8
0
  6
CONTINUOUS
 10
5.404520
 20
1.532960
  0
VERTEX
  8
0
  6
CONTINUOUS
 10
4.763000
 20
1.906520
  0
VERTEX
  8
0
  6
CONTINUOUS
 10
4.763000
 20
2.154240
  0
SEQEND
  8
0
  0
SOLID
  8
0
 62
     7
 10
4.763000
 20
1.906520
 11
5.404520
 21
1.532960
 12
4.763000
 22
1.904320
 13
5.404520
 23
1.530760
  0
POLYLINE
  8
0
  6
CONTINUOUS
 66
     1
 40
0.000000
 41
0.000000
  0
VERTEX
  8
0
  6
CONTINUOUS
 10
4.763000
 20
1.906520
  0
VERTEX
  8
0
  6
CONTINUOUS
 10
5.404520
 20
1.532960
  0
VERTEX
  8
0
  6
CONTINUOUS
 10
5.404520
 20
1.530760
  0
VERTEX
  8
0
  6
CONTINUOUS
 10
4.763000
 20
1.904320
  0
VERTEX
  8
0
  6
CONTINUOUS
 10
4.763000
 20
1.906520
  0
SEQEND
  8
0
  0
POLYLINE
  8
0
  6
CONTINUOUS
 66
     1
 40
0.000000
 41
0.000000
  0
VERTEX
  8
0
  6
CONTINUOUS
 10
4.763000
 20
1.904320
  0
VERTEX
  8
0
  6
CONTINUOUS
 10
4.722080
 20
1.881000
  0
VERTEX
  8
0
  6
CONTINUOUS
 10
4.686000
 20
1.855040
  0
VERTEX
  8
0
  6
CONTINUOUS
 10
4.653880
 20
1.827320
  0
VERTEX
  8
0
  6
CONTINUOUS
 10
4.625720
 20
1.797840
  0
VERTEX
  8
0
  6
CONTINUOUS
 10
4.601520
 20
1.767480
  0
VERTEX
  8
0
  6
CONTINUOUS
 10
4.580400
 20
1.736240
  0
VERTEX
  8
0
  6
CONTINUOUS
 10
4.546960
 20
1.672000
  0
VERTEX
  8
0
  6
CONTINUOUS
 10
4.523640
 20
1.609080
  0
VERTEX
  8
0
  6
CONTINUOUS
 10
4.508240
 20
1.549240
  0
VERTEX
  8
0
  6
CONTINUOUS
 10
4.498560
 20
1.496440
  0
VERTEX
  8
0
  6
CONTINUOUS
 10
4.495040
 20
1.473120
  0
VERTEX
  8
0
  6
CONTINUOUS
 10
4.491960
 20
1.452440
  0
VERTEX
  8
0
  6
CONTINUOUS
 10
4.490640
 20
1.437920
  0
VERTEX
  8
0
  6
CONTINUOUS
 10
4.488880
 20
1.415480
  0
VERTEX
  8
0
  6
CONTINUOUS
 10
4.486240
 20
1.386000
  0
VERTEX
  8
0
  6
CONTINUOUS
 10
4.482720
 20
1.351240
  0
VERTEX
  8
0
  6
CONTINUOUS
 10
4.477880
 20
1.312080
  0
VERTEX
  8
0
  6
CONTINUOUS
 10
4.471280
 20
1.269400
  0
VERTEX
  8
0
  6
CONTINUOUS
 10
4.453240
 20
1.179640
  0
VERTEX
  8
0
  6
CONTINUOUS
 10
4.425960
 20
1.091200
  0
VERTEX
  8
0
  6
CONTINUOUS
 10
4.407920
 20
1.050280
  0
VERTEX
  8
0
  6
CONTINUOUS
 10
4.387240
 20
1.013320
  0
VERTEX
  8
0
  6
CONTINUOUS
 10
4.363480
 20
0.981200
  0
VERTEX
  8
0
  6
CONTINUOUS
 10
4.335760
 20
0.955680
  0
VERTEX
  8
0
  6
CONTINUOUS
 10
4.304520
 20
0.937200
  0
VERTEX
  8
0
  6
CONTINUOUS
 10
4.268880
 20
0.927520
  0
VERTEX
  8
0
  6
CONTINUOUS
 10
4.267120
 20
0.927520
  0
VERTEX
  8
0
  6
CONTINUOUS
 10
4.267120
 20
0.770880
  0
VERTEX
  8
0
  6
CONTINUOUS
 10
4.085840
 20
0.770880
  0
VERTEX
  8
0
  6
CONTINUOUS
 10
4.085840
 20
2.154240
  0
VERTEX
  8
0
  6
CONTINUOUS
 10
4.763000
 20
2.154240
  0
VERTEX
  8
0
  6
CONTINUOUS
 10
4.763000
 20
1.906520
  0
VERTEX
  8
0
  6
CONTINUOUS
 10
4.763000
 20
1.904320
  0
SEQEND
  8
0
  0
TEXT
  8
0
 10
5.489440
 20
0.578160
 40
0.138103
  1
BA  299
 41
1.000000
  7
SN0
 71
     0
 72
     5
 11
6.079284
 21
0.578160
  0
TEXT
  8
0
 10
5.241280
 20
0.386760
 40
0.138103
  1
11/16" x 1-3/8"
 41
1.000000
  7
SN0
 71
     0
 72
     5
 11
6.325944
 21
0.386760
  0
POLYLINE
  8
0
  6
CONTINUOUS
 66
     1
 40
0.014080
 41
0.014080
  0
VERTEX
  8
0
  6
CONTINUOUS
 10
4.588320
 20
3.487440
  0
VERTEX
  8
0
  6
CONTINUOUS
 10
4.611640
 20
3.446960
  0
VERTEX
  8
0
  6
CONTINUOUS
 10
4.637600
 20
3.410440
  0
VERTEX
  8
0
  6
CONTINUOUS
 10
4.679840
 20
3.364240
  0
VERTEX
  8
0
  6
CONTINUOUS
 10
4.725160
 20
3.325960
  0
VERTEX
  8
0
  6
CONTINUOUS
 10
4.772680
 20
3.295600
  0
VERTEX
  8
0
  6
CONTINUOUS
 10
4.820640
 20
3.271400
  0
VERTEX
  8
0
  6
CONTINUOUS
 10
4.852760
 20
3.258640
  0
VERTEX
  8
0
  6
CONTINUOUS
 10
4.884000
 20
3.248080
  0
VERTEX
  8
0
  6
CONTINUOUS
 10
4.943400
 20
3.232680
  0
VERTEX
  8
0
  6
CONTINUOUS
 10
5.040640
 20
3.216400
  0
VERTEX
  8
0
  6
CONTINUOUS
 10
5.160760
 20
3.204960
  0
VERTEX
  8
0
  6
CONTINUOUS
 10
5.223240
 20
3.195720
  0
VERTEX
  8
0
  6
CONTINUOUS
 10
5.268120
 20
3.187800
  0
VERTEX
  8
0
  6
CONTINUOUS
 10
5.335880
 20
3.171960
  0
VERTEX
  8
0
  6
CONTINUOUS
 10
5.380320
 20
3.158320
  0
VERTEX
  8
0
  6
CONTINUOUS
 10
5.423000
 20
3.142040
  0
VERTEX
  8
0
  6
CONTINUOUS
 10
5.461720
 20
3.122680
  0
VERTEX
  8
0
  6
CONTINUOUS
 10
5.479760
 20
3.112120
  0
VERTEX
  8
0
  6
CONTINUOUS
 10
5.511880
 20
3.087920
  0
VERTEX
  8
0
  6
CONTINUOUS
 10
5.525520
 20
3.074720
  0
VERTEX
  8
0
  6
CONTINUOUS
 10
5.537400
 20
3.060640
  0
VERTEX
  8
0
  6
CONTINUOUS
 10
5.547520
 20
3.045240
  0
VERTEX
  8
0
  6
CONTINUOUS
 10
5.558960
 20
3.020600
  0
VERTEX
  8
0
  6
CONTINUOUS
 10
5.563800
 20
3.003000
  0
VERTEX
  8
0
  6
CONTINUOUS
 10
5.565560
 20
2.991560
  0
VERTEX
  8
0
  6
CONTINUOUS
 10
5.721760
 20
2.991560
  0
VERTEX
  8
0
  6
CONTINUOUS
 10
5.721760
 20
2.810280
  0
VERTEX
  8
0
  6
CONTINUOUS
 10
4.338400
 20
2.810280
  0
VERTEX
  8
0
  6
CONTINUOUS
 10
4.338400
 20
3.487440
  0
VERTEX
  8
0
  6
CONTINUOUS
 10
4.588320
 20
3.487440
  0
SEQEND
  8
0
  0
TEXT
  8
0
 10
4.734840
 20
2.636480
 40
0.138103
  1
BA  299
 41
1.000000
  7
SN0
 71
     0
 72
     5
 11
5.324684
 21
2.636480
  0
TEXT
  8
0
 10
4.486680
 20
2.444640
 40
0.138103
  1
11/16" x 1-3/8"
 41
1.000000
  7
SN0
 71
     0
 72
     5
 11
5.571344
 21
2.444640
  0
ENDSEC
  0
EOF
