  0
SECTION
  2
HEADER
  9
$ACADVER
  1
AC1006
  9
$EXTMIN
 10
3.447840
 20
0.422840
  9
$EXTMAX
 10
7.977640
 20
5.554560
  9
$LTSCALE
 40
0.044000
  9
$PDMODE
 70
    35
  9
$PDSIZE
 40
0.035200
  0
ENDSEC
  0
SECTION
  2
TABLES
  0
TABLE
  2
LTYPE
 70
     9
  0
LTYPE
  2
CONTINUOUS
 70
    64
  3
Solid line
 72
    65
 73
     0
 40
0.000000
  0
LTYPE
  2
DASHED
 70
    64
  3
__ __ __ __ __ __ __ __ __ __ __ __ __ __ __
 72
    65
 73
     2
 40
0.000330
 49
0.000220
 49
-0.000110
  0
LTYPE
  2
HIDDEN
 70
    64
  3
 _ _ _ _ _ _ _ _ _ _ _ _ _ _ _ _ _ _ _ _ _ _
 72
    65
 73
     2
 40
0.000165
 49
0.000110
 49
-0.000055
  0
LTYPE
  2
CENTER
 70
    64
  3
____ _ ____ _ ____ _ ____ _ ____ _ ____ _ ____
 72
    65
 73
     4
 40
0.000880
 49
0.000550
 49
-0.000110
 49
0.000110
 49
-0.000110
  0
LTYPE
  2
PHANTOM
 70
    64
  3
_____ _ _ _____ _ _ _____ _ _ _____ _ _ ____
 72
    65
 73
     6
 40
0.001100
 49
0.000550
 49
-0.000110
 49
0.000110
 49
-0.000110
 49
0.000110
 49
-0.000110
  0
LTYPE
  2
DOT
 70
    64
  3
...............................................
 72
    65
 73
     2
 40
0.000110
 49
0.000000
 49
-0.000110
  0
LTYPE
  2
DASHDOT
 70
    64
  3
__ . __ . __ . __ . __ . __ . __ . __ . __ . __
 72
    65
 73
     4
 40
0.000440
 49
0.000220
 49
-0.000110
 49
0.000000
 49
-0.000110
  0
LTYPE
  2
BORDER
 70
    64
  3
__ __ . __ __ . __ __ . __ __ . __ __ . __ __
 72
    65
 73
     6
 40
0.000770
 49
0.000220
 49
-0.000110
 49
0.000220
 49
-0.000110
 49
0.000000
 49
-0.000110
  0
LTYPE
  2
DIVIDE
 70
    64
  3
__ . . __ . . __ . . __ . . __ . . __ . . __
 72
    65
 73
     6
 40
0.000550
 49
0.000220
 49
-0.000110
 49
0.000000
 49
-0.000110
 49
0.000000
 49
-0.000110
  0
LTYPE
  2
DOTDOT
 70
    64
  3
 . .  . .  . .  . .  . .  . . 
 72
    65
 73
     5
 40
0.000242
 49
-0.000110
 49
0.000000
 49
-0.000110
 49
0.000000
 49
-0.000110
  0
ENDTAB
  0
TABLE
  2
STYLE
 70
     2
  0
STYLE
 70
     0
  2
SN0
 40
0.000000
 41
0.000440
 50
0.000000
 71
     0
 42
0.000000
  3
ROMAND
  0
STYLE
 70
    68
  2
SV0
 40
0.000000
 41
0.000440
 50
0.000000
 71
     0
 42
0.000000
  3
ROMAND
  0
ENDTAB
  0
TABLE
  2
LAYER
 70
     3
  0
LAYER
  2
FOREGROUND
 70
    64
 62
     7
  6
CONTINUOUS
  0
LAYER
  2
BACKGROUND
 70
    65
 62
    -7
  6
CONTINUOUS
  0
LAYER
  2
0
 70
    64
 62
     7
  6
CONTINUOUS
  0
ENDTAB
  0
ENDSEC
  0
SECTION
  2
ENTITIES
  0
POLYLINE
  8
FOREGROUND
  6
CONTINUOUS
 66
     1
 40
0.000000
 41
0.000000
  0
VERTEX
  8
FOREGROUND
  6
CONTINUOUS
 10
0.000000
 20
5.977400
  0
VERTEX
  8
FOREGROUND
  6
CONTINUOUS
 10
8.499920
 20
5.977400
  0
VERTEX
  8
FOREGROUND
  6
CONTINUOUS
 10
8.499920
 20
-5.022600
  0
VERTEX
  8
FOREGROUND
  6
CONTINUOUS
 10
0.000000
 20
-5.022600
  0
VERTEX
  8
FOREGROUND
  6
CONTINUOUS
 10
0.000000
 20
5.977400
  0
SEQEND
  8
0
  0
POLYLINE
  8
FOREGROUND
  6
CONTINUOUS
 66
     1
 40
0.000000
 41
0.000000
  0
VERTEX
  8
FOREGROUND
  6
CONTINUOUS
 10
0.000000
 20
5.977400
  0
VERTEX
  8
FOREGROUND
  6
CONTINUOUS
 10
8.499920
 20
5.977400
  0
VERTEX
  8
FOREGROUND
  6
CONTINUOUS
 10
8.499920
 20
-5.022600
  0
VERTEX
  8
FOREGROUND
  6
CONTINUOUS
 10
0.000000
 20
-5.022600
  0
VERTEX
  8
FOREGROUND
  6
CONTINUOUS
 10
0.000000
 20
5.977400
  0
SEQEND
  8
0
  0
POLYLINE
  8
0
  6
CONTINUOUS
 66
     1
 40
0.014080
 41
0.014080
  0
VERTEX
  8
0
  6
CONTINUOUS
 10
6.301240
 20
5.247000
  0
VERTEX
  8
0
  6
CONTINUOUS
 10
6.345680
 20
5.244800
  0
VERTEX
  8
0
  6
CONTINUOUS
 10
6.387920
 20
5.237760
  0
VERTEX
  8
0
  6
CONTINUOUS
 10
6.427960
 20
5.225880
  0
VERTEX
  8
0
  6
CONTINUOUS
 10
6.466680
 20
5.210040
  0
VERTEX
  8
0
  6
CONTINUOUS
 10
6.504080
 20
5.191560
  0
VERTEX
  8
0
  6
CONTINUOUS
 10
6.541040
 20
5.170880
  0
VERTEX
  8
0
  6
CONTINUOUS
 10
6.685800
 20
5.079800
  0
VERTEX
  8
0
  6
CONTINUOUS
 10
6.743000
 20
5.049000
  0
VERTEX
  8
0
  6
CONTINUOUS
 10
6.803280
 20
5.023920
  0
VERTEX
  8
0
  6
CONTINUOUS
 10
6.845960
 20
5.011600
  0
VERTEX
  8
0
  6
CONTINUOUS
 10
6.890840
 20
5.003680
  0
VERTEX
  8
0
  6
CONTINUOUS
 10
6.938800
 20
5.001040
  0
VERTEX
  8
0
  6
CONTINUOUS
 10
6.938800
 20
4.847040
  0
VERTEX
  8
0
  6
CONTINUOUS
 10
3.455320
 20
4.847040
  0
VERTEX
  8
0
  6
CONTINUOUS
 10
3.455320
 20
5.471840
  0
VERTEX
  8
0
  6
CONTINUOUS
 10
4.722080
 20
5.471840
  0
VERTEX
  8
0
  6
CONTINUOUS
 10
4.734400
 20
5.452480
  0
VERTEX
  8
0
  6
CONTINUOUS
 10
4.748480
 20
5.434880
  0
VERTEX
  8
0
  6
CONTINUOUS
 10
4.764320
 20
5.419040
  0
VERTEX
  8
0
  6
CONTINUOUS
 10
4.781920
 20
5.404960
  0
VERTEX
  8
0
  6
CONTINUOUS
 10
4.820640
 20
5.381200
  0
VERTEX
  8
0
  6
CONTINUOUS
 10
4.864200
 20
5.363600
  0
VERTEX
  8
0
  6
CONTINUOUS
 10
4.910840
 20
5.350840
  0
VERTEX
  8
0
  6
CONTINUOUS
 10
4.960120
 20
5.342480
  0
VERTEX
  8
0
  6
CONTINUOUS
 10
5.009840
 20
5.337640
  0
VERTEX
  8
0
  6
CONTINUOUS
 10
5.059560
 20
5.336320
  0
VERTEX
  8
0
  6
CONTINUOUS
 10
6.299040
 20
5.336320
  0
VERTEX
  8
0
  6
CONTINUOUS
 10
6.299040
 20
5.247000
  0
VERTEX
  8
0
  6
CONTINUOUS
 10
6.301240
 20
5.247000
  0
SEQEND
  8
0
  0
SOLID
  8
0
 62
    15
 10
3.860560
 20
4.406160
 11
4.496800
 21
4.770920
 12
4.485800
 22
4.406160
 13
5.122040
 23
4.770920
  0
POLYLINE
  8
0
  6
CONTINUOUS
 66
     1
 40
0.000000
 41
0.000000
  0
VERTEX
  8
0
  6
CONTINUOUS
 10
3.860560
 20
4.406160
  0
VERTEX
  8
0
  6
CONTINUOUS
 10
4.496800
 20
4.770920
  0
VERTEX
  8
0
  6
CONTINUOUS
 10
5.122040
 20
4.770920
  0
VERTEX
  8
0
  6
CONTINUOUS
 10
4.485800
 20
4.406160
  0
VERTEX
  8
0
  6
CONTINUOUS
 10
3.860560
 20
4.406160
  0
SEQEND
  8
0
  0
SOLID
  8
0
 62
    15
 10
4.258760
 20
1.515800
 11
4.895000
 21
1.881000
 12
4.251280
 22
1.473560
 13
4.887520
 23
1.838760
  0
POLYLINE
  8
0
  6
CONTINUOUS
 66
     1
 40
0.000000
 41
0.000000
  0
VERTEX
  8
0
  6
CONTINUOUS
 10
4.258760
 20
1.515800
  0
VERTEX
  8
0
  6
CONTINUOUS
 10
4.895000
 20
1.881000
  0
VERTEX
  8
0
  6
CONTINUOUS
 10
4.887520
 20
1.838760
  0
VERTEX
  8
0
  6
CONTINUOUS
 10
4.251280
 20
1.473560
  0
VERTEX
  8
0
  6
CONTINUOUS
 10
4.258760
 20
1.515800
  0
SEQEND
  8
0
  0
SOLID
  8
0
 62
    15
 10
4.251280
 20
1.473560
 11
4.887520
 21
1.838760
 12
4.239400
 22
1.433520
 13
4.875640
 23
1.798720
  0
POLYLINE
  8
0
  6
CONTINUOUS
 66
     1
 40
0.000000
 41
0.000000
  0
VERTEX
  8
0
  6
CONTINUOUS
 10
4.251280
 20
1.473560
  0
VERTEX
  8
0
  6
CONTINUOUS
 10
4.887520
 20
1.838760
  0
VERTEX
  8
0
  6
CONTINUOUS
 10
4.875640
 20
1.798720
  0
VERTEX
  8
0
  6
CONTINUOUS
 10
4.239400
 20
1.433520
  0
VERTEX
  8
0
  6
CONTINUOUS
 10
4.251280
 20
1.473560
  0
SEQEND
  8
0
  0
SOLID
  8
0
 62
    15
 10
4.239400
 20
1.433520
 11
4.875640
 21
1.798720
 12
4.224000
 22
1.394800
 13
4.860240
 23
1.760000
  0
POLYLINE
  8
0
  6
CONTINUOUS
 66
     1
 40
0.000000
 41
0.000000
  0
VERTEX
  8
0
  6
CONTINUOUS
 10
4.239400
 20
1.433520
  0
VERTEX
  8
0
  6
CONTINUOUS
 10
4.875640
 20
1.798720
  0
VERTEX
  8
0
  6
CONTINUOUS
 10
4.860240
 20
1.760000
  0
VERTEX
  8
0
  6
CONTINUOUS
 10
4.224000
 20
1.394800
  0
VERTEX
  8
0
  6
CONTINUOUS
 10
4.239400
 20
1.433520
  0
SEQEND
  8
0
  0
SOLID
  8
0
 62
    15
 10
4.224000
 20
1.394800
 11
4.860240
 21
1.760000
 12
4.184840
 22
1.320880
 13
4.821080
 23
1.685640
  0
POLYLINE
  8
0
  6
CONTINUOUS
 66
     1
 40
0.000000
 41
0.000000
  0
VERTEX
  8
0
  6
CONTINUOUS
 10
4.224000
 20
1.394800
  0
VERTEX
  8
0
  6
CONTINUOUS
 10
4.860240
 20
1.760000
  0
VERTEX
  8
0
  6
CONTINUOUS
 10
4.821080
 20
1.685640
  0
VERTEX
  8
0
  6
CONTINUOUS
 10
4.184840
 20
1.320880
  0
VERTEX
  8
0
  6
CONTINUOUS
 10
4.224000
 20
1.394800
  0
SEQEND
  8
0
  0
SOLID
  8
0
 62
    15
 10
4.184840
 20
1.320880
 11
4.821080
 21
1.685640
 12
4.139520
 22
1.248720
 13
4.775760
 23
1.613480
  0
POLYLINE
  8
0
  6
CONTINUOUS
 66
     1
 40
0.000000
 41
0.000000
  0
VERTEX
  8
0
  6
CONTINUOUS
 10
4.184840
 20
1.320880
  0
VERTEX
  8
0
  6
CONTINUOUS
 10
4.821080
 20
1.685640
  0
VERTEX
  8
0
  6
CONTINUOUS
 10
4.775760
 20
1.613480
  0
VERTEX
  8
0
  6
CONTINUOUS
 10
4.139520
 20
1.248720
  0
VERTEX
  8
0
  6
CONTINUOUS
 10
4.184840
 20
1.320880
  0
SEQEND
  8
0
  0
SOLID
  8
0
 62
    15
 10
4.139520
 20
1.248720
 11
4.775760
 21
1.613480
 12
4.093760
 22
1.175680
 13
4.730000
 23
1.540880
  0
POLYLINE
  8
0
  6
CONTINUOUS
 66
     1
 40
0.000000
 41
0.000000
  0
VERTEX
  8
0
  6
CONTINUOUS
 10
4.139520
 20
1.248720
  0
VERTEX
  8
0
  6
CONTINUOUS
 10
4.775760
 20
1.613480
  0
VERTEX
  8
0
  6
CONTINUOUS
 10
4.730000
 20
1.540880
  0
VERTEX
  8
0
  6
CONTINUOUS
 10
4.093760
 20
1.175680
  0
VERTEX
  8
0
  6
CONTINUOUS
 10
4.139520
 20
1.248720
  0
SEQEND
  8
0
  0
SOLID
  8
0
 62
    15
 10
4.093760
 20
1.175680
 11
4.730000
 21
1.540880
 12
4.053720
 22
1.098680
 13
4.689960
 23
1.463880
  0
POLYLINE
  8
0
  6
CONTINUOUS
 66
     1
 40
0.000000
 41
0.000000
  0
VERTEX
  8
0
  6
CONTINUOUS
 10
4.093760
 20
1.175680
  0
VERTEX
  8
0
  6
CONTINUOUS
 10
4.730000
 20
1.540880
  0
VERTEX
  8
0
  6
CONTINUOUS
 10
4.689960
 20
1.463880
  0
VERTEX
  8
0
  6
CONTINUOUS
 10
4.053720
 20
1.098680
  0
VERTEX
  8
0
  6
CONTINUOUS
 10
4.093760
 20
1.175680
  0
SEQEND
  8
0
  0
SOLID
  8
0
 62
    15
 10
4.053720
 20
1.098680
 11
4.689960
 21
1.463880
 12
4.037880
 22
1.058200
 13
4.674120
 23
1.423400
  0
POLYLINE
  8
0
  6
CONTINUOUS
 66
     1
 40
0.000000
 41
0.000000
  0
VERTEX
  8
0
  6
CONTINUOUS
 10
4.053720
 20
1.098680
  0
VERTEX
  8
0
  6
CONTINUOUS
 10
4.689960
 20
1.463880
  0
VERTEX
  8
0
  6
CONTINUOUS
 10
4.674120
 20
1.423400
  0
VERTEX
  8
0
  6
CONTINUOUS
 10
4.037880
 20
1.058200
  0
VERTEX
  8
0
  6
CONTINUOUS
 10
4.053720
 20
1.098680
  0
SEQEND
  8
0
  0
SOLID
  8
0
 62
    15
 10
4.037880
 20
1.058200
 11
4.674120
 21
1.423400
 12
4.025560
 22
1.015520
 13
4.661800
 23
1.380720
  0
POLYLINE
  8
0
  6
CONTINUOUS
 66
     1
 40
0.000000
 41
0.000000
  0
VERTEX
  8
0
  6
CONTINUOUS
 10
4.037880
 20
1.058200
  0
VERTEX
  8
0
  6
CONTINUOUS
 10
4.674120
 20
1.423400
  0
VERTEX
  8
0
  6
CONTINUOUS
 10
4.661800
 20
1.380720
  0
VERTEX
  8
0
  6
CONTINUOUS
 10
4.025560
 20
1.015520
  0
VERTEX
  8
0
  6
CONTINUOUS
 10
4.037880
 20
1.058200
  0
SEQEND
  8
0
  0
SOLID
  8
0
 62
    15
 10
4.025560
 20
1.015520
 11
4.661800
 21
1.380720
 12
4.017640
 22
0.970640
 13
4.653880
 23
1.335400
  0
POLYLINE
  8
0
  6
CONTINUOUS
 66
     1
 40
0.000000
 41
0.000000
  0
VERTEX
  8
0
  6
CONTINUOUS
 10
4.025560
 20
1.015520
  0
VERTEX
  8
0
  6
CONTINUOUS
 10
4.661800
 20
1.380720
  0
VERTEX
  8
0
  6
CONTINUOUS
 10
4.653880
 20
1.335400
  0
VERTEX
  8
0
  6
CONTINUOUS
 10
4.017640
 20
0.970640
  0
VERTEX
  8
0
  6
CONTINUOUS
 10
4.025560
 20
1.015520
  0
SEQEND
  8
0
  0
SOLID
  8
0
 62
    15
 10
4.017640
 20
0.970640
 11
4.653880
 21
1.335400
 12
4.015000
 22
0.922680
 13
4.651240
 23
1.287880
  0
POLYLINE
  8
0
  6
CONTINUOUS
 66
     1
 40
0.000000
 41
0.000000
  0
VERTEX
  8
0
  6
CONTINUOUS
 10
4.017640
 20
0.970640
  0
VERTEX
  8
0
  6
CONTINUOUS
 10
4.653880
 20
1.335400
  0
VERTEX
  8
0
  6
CONTINUOUS
 10
4.651240
 20
1.287880
  0
VERTEX
  8
0
  6
CONTINUOUS
 10
4.015000
 20
0.922680
  0
VERTEX
  8
0
  6
CONTINUOUS
 10
4.017640
 20
0.970640
  0
SEQEND
  8
0
  0
SOLID
  8
0
 62
    15
 10
4.260960
 20
1.560240
 11
4.897200
 21
1.925440
 12
4.258760
 22
1.515800
 13
4.895000
 23
1.881000
  0
POLYLINE
  8
0
  6
CONTINUOUS
 66
     1
 40
0.000000
 41
0.000000
  0
VERTEX
  8
0
  6
CONTINUOUS
 10
4.260960
 20
1.560240
  0
VERTEX
  8
0
  6
CONTINUOUS
 10
4.897200
 20
1.925440
  0
VERTEX
  8
0
  6
CONTINUOUS
 10
4.895000
 20
1.881000
  0
VERTEX
  8
0
  6
CONTINUOUS
 10
4.258760
 20
1.515800
  0
VERTEX
  8
0
  6
CONTINUOUS
 10
4.260960
 20
1.560240
  0
SEQEND
  8
0
  0
SOLID
  8
0
 62
    15
 10
4.485800
 20
4.406160
 11
5.122040
 21
4.770920
 12
4.485800
 22
3.139400
 13
5.122040
 23
3.504600
  0
POLYLINE
  8
0
  6
CONTINUOUS
 66
     1
 40
0.000000
 41
0.000000
  0
VERTEX
  8
0
  6
CONTINUOUS
 10
4.485800
 20
4.406160
  0
VERTEX
  8
0
  6
CONTINUOUS
 10
5.122040
 20
4.770920
  0
VERTEX
  8
0
  6
CONTINUOUS
 10
5.122040
 20
3.504600
  0
VERTEX
  8
0
  6
CONTINUOUS
 10
4.485800
 20
3.139400
  0
VERTEX
  8
0
  6
CONTINUOUS
 10
4.485800
 20
4.406160
  0
SEQEND
  8
0
  0
SOLID
  8
0
 62
    15
 10
4.485800
 20
3.139400
 11
5.122040
 21
3.504600
 12
4.448840
 22
3.113000
 13
5.085080
 23
3.478200
  0
POLYLINE
  8
0
  6
CONTINUOUS
 66
     1
 40
0.000000
 41
0.000000
  0
VERTEX
  8
0
  6
CONTINUOUS
 10
4.485800
 20
3.139400
  0
VERTEX
  8
0
  6
CONTINUOUS
 10
5.122040
 20
3.504600
  0
VERTEX
  8
0
  6
CONTINUOUS
 10
5.085080
 20
3.478200
  0
VERTEX
  8
0
  6
CONTINUOUS
 10
4.448840
 20
3.113000
  0
VERTEX
  8
0
  6
CONTINUOUS
 10
4.485800
 20
3.139400
  0
SEQEND
  8
0
  0
SOLID
  8
0
 62
    15
 10
4.448840
 20
3.113000
 11
5.085080
 21
3.478200
 12
4.418920
 22
3.079560
 13
5.055160
 23
3.444760
  0
POLYLINE
  8
0
  6
CONTINUOUS
 66
     1
 40
0.000000
 41
0.000000
  0
VERTEX
  8
0
  6
CONTINUOUS
 10
4.448840
 20
3.113000
  0
VERTEX
  8
0
  6
CONTINUOUS
 10
5.085080
 20
3.478200
  0
VERTEX
  8
0
  6
CONTINUOUS
 10
5.055160
 20
3.444760
  0
VERTEX
  8
0
  6
CONTINUOUS
 10
4.418920
 20
3.079560
  0
VERTEX
  8
0
  6
CONTINUOUS
 10
4.448840
 20
3.113000
  0
SEQEND
  8
0
  0
SOLID
  8
0
 62
    15
 10
4.418920
 20
3.079560
 11
5.055160
 21
3.444760
 12
4.395160
 22
3.040840
 13
5.031400
 23
3.405600
  0
POLYLINE
  8
0
  6
CONTINUOUS
 66
     1
 40
0.000000
 41
0.000000
  0
VERTEX
  8
0
  6
CONTINUOUS
 10
4.418920
 20
3.079560
  0
VERTEX
  8
0
  6
CONTINUOUS
 10
5.055160
 20
3.444760
  0
VERTEX
  8
0
  6
CONTINUOUS
 10
5.031400
 20
3.405600
  0
VERTEX
  8
0
  6
CONTINUOUS
 10
4.395160
 20
3.040840
  0
VERTEX
  8
0
  6
CONTINUOUS
 10
4.418920
 20
3.079560
  0
SEQEND
  8
0
  0
SOLID
  8
0
 62
    15
 10
4.395160
 20
3.040840
 11
5.031400
 21
3.405600
 12
4.377560
 22
2.997280
 13
5.013800
 23
3.362480
  0
POLYLINE
  8
0
  6
CONTINUOUS
 66
     1
 40
0.000000
 41
0.000000
  0
VERTEX
  8
0
  6
CONTINUOUS
 10
4.395160
 20
3.040840
  0
VERTEX
  8
0
  6
CONTINUOUS
 10
5.031400
 20
3.405600
  0
VERTEX
  8
0
  6
CONTINUOUS
 10
5.013800
 20
3.362480
  0
VERTEX
  8
0
  6
CONTINUOUS
 10
4.377560
 20
2.997280
  0
VERTEX
  8
0
  6
CONTINUOUS
 10
4.395160
 20
3.040840
  0
SEQEND
  8
0
  0
SOLID
  8
0
 62
    15
 10
4.377560
 20
2.997280
 11
5.013800
 21
3.362480
 12
4.364800
 22
2.950640
 13
5.001040
 23
3.315400
  0
POLYLINE
  8
0
  6
CONTINUOUS
 66
     1
 40
0.000000
 41
0.000000
  0
VERTEX
  8
0
  6
CONTINUOUS
 10
4.377560
 20
2.997280
  0
VERTEX
  8
0
  6
CONTINUOUS
 10
5.013800
 20
3.362480
  0
VERTEX
  8
0
  6
CONTINUOUS
 10
5.001040
 20
3.315400
  0
VERTEX
  8
0
  6
CONTINUOUS
 10
4.364800
 20
2.950640
  0
VERTEX
  8
0
  6
CONTINUOUS
 10
4.377560
 20
2.997280
  0
SEQEND
  8
0
  0
SOLID
  8
0
 62
    15
 10
4.364800
 20
2.950640
 11
5.001040
 21
3.315400
 12
4.356440
 22
2.901360
 13
4.992680
 23
3.266560
  0
POLYLINE
  8
0
  6
CONTINUOUS
 66
     1
 40
0.000000
 41
0.000000
  0
VERTEX
  8
0
  6
CONTINUOUS
 10
4.364800
 20
2.950640
  0
VERTEX
  8
0
  6
CONTINUOUS
 10
5.001040
 20
3.315400
  0
VERTEX
  8
0
  6
CONTINUOUS
 10
4.992680
 20
3.266560
  0
VERTEX
  8
0
  6
CONTINUOUS
 10
4.356440
 20
2.901360
  0
VERTEX
  8
0
  6
CONTINUOUS
 10
4.364800
 20
2.950640
  0
SEQEND
  8
0
  0
SOLID
  8
0
 62
    15
 10
4.356440
 20
2.901360
 11
4.992680
 21
3.266560
 12
4.351600
 22
2.851640
 13
4.987840
 23
3.216840
  0
POLYLINE
  8
0
  6
CONTINUOUS
 66
     1
 40
0.000000
 41
0.000000
  0
VERTEX
  8
0
  6
CONTINUOUS
 10
4.356440
 20
2.901360
  0
VERTEX
  8
0
  6
CONTINUOUS
 10
4.992680
 20
3.266560
  0
VERTEX
  8
0
  6
CONTINUOUS
 10
4.987840
 20
3.216840
  0
VERTEX
  8
0
  6
CONTINUOUS
 10
4.351600
 20
2.851640
  0
VERTEX
  8
0
  6
CONTINUOUS
 10
4.356440
 20
2.901360
  0
SEQEND
  8
0
  0
SOLID
  8
0
 62
    15
 10
4.351600
 20
2.851640
 11
4.987840
 21
3.216840
 12
4.350280
 22
2.801920
 13
4.986520
 23
3.167120
  0
POLYLINE
  8
0
  6
CONTINUOUS
 66
     1
 40
0.000000
 41
0.000000
  0
VERTEX
  8
0
  6
CONTINUOUS
 10
4.351600
 20
2.851640
  0
VERTEX
  8
0
  6
CONTINUOUS
 10
4.987840
 20
3.216840
  0
VERTEX
  8
0
  6
CONTINUOUS
 10
4.986520
 20
3.167120
  0
VERTEX
  8
0
  6
CONTINUOUS
 10
4.350280
 20
2.801920
  0
VERTEX
  8
0
  6
CONTINUOUS
 10
4.351600
 20
2.851640
  0
SEQEND
  8
0
  0
SOLID
  8
0
 62
    15
 10
4.260960
 20
1.562440
 11
4.897200
 21
1.927200
 12
4.260960
 22
1.560240
 13
4.897200
 23
1.925440
  0
POLYLINE
  8
0
  6
CONTINUOUS
 66
     1
 40
0.000000
 41
0.000000
  0
VERTEX
  8
0
  6
CONTINUOUS
 10
4.260960
 20
1.562440
  0
VERTEX
  8
0
  6
CONTINUOUS
 10
4.897200
 20
1.927200
  0
VERTEX
  8
0
  6
CONTINUOUS
 10
4.897200
 20
1.925440
  0
VERTEX
  8
0
  6
CONTINUOUS
 10
4.260960
 20
1.560240
  0
VERTEX
  8
0
  6
CONTINUOUS
 10
4.260960
 20
1.562440
  0
SEQEND
  8
0
  0
SOLID
  8
0
 62
    15
 10
4.350280
 20
2.801920
 11
4.986520
 21
3.167120
 12
4.350280
 22
1.562440
 13
4.986520
 23
1.927200
  0
POLYLINE
  8
0
  6
CONTINUOUS
 66
     1
 40
0.000000
 41
0.000000
  0
VERTEX
  8
0
  6
CONTINUOUS
 10
4.350280
 20
2.801920
  0
VERTEX
  8
0
  6
CONTINUOUS
 10
4.986520
 20
3.167120
  0
VERTEX
  8
0
  6
CONTINUOUS
 10
4.986520
 20
1.927200
  0
VERTEX
  8
0
  6
CONTINUOUS
 10
4.350280
 20
1.562440
  0
VERTEX
  8
0
  6
CONTINUOUS
 10
4.350280
 20
2.801920
  0
SEQEND
  8
0
  0
POLYLINE
  8
0
  6
CONTINUOUS
 66
     1
 40
0.000000
 41
0.000000
  0
VERTEX
  8
0
  6
CONTINUOUS
 10
4.260960
 20
1.560240
  0
VERTEX
  8
0
  6
CONTINUOUS
 10
4.258760
 20
1.515800
  0
VERTEX
  8
0
  6
CONTINUOUS
 10
4.251280
 20
1.473560
  0
VERTEX
  8
0
  6
CONTINUOUS
 10
4.239400
 20
1.433520
  0
VERTEX
  8
0
  6
CONTINUOUS
 10
4.224000
 20
1.394800
  0
VERTEX
  8
0
  6
CONTINUOUS
 10
4.184840
 20
1.320880
  0
VERTEX
  8
0
  6
CONTINUOUS
 10
4.139520
 20
1.248720
  0
VERTEX
  8
0
  6
CONTINUOUS
 10
4.093760
 20
1.175680
  0
VERTEX
  8
0
  6
CONTINUOUS
 10
4.053720
 20
1.098680
  0
VERTEX
  8
0
  6
CONTINUOUS
 10
4.037880
 20
1.058200
  0
VERTEX
  8
0
  6
CONTINUOUS
 10
4.025560
 20
1.015520
  0
VERTEX
  8
0
  6
CONTINUOUS
 10
4.017640
 20
0.970640
  0
VERTEX
  8
0
  6
CONTINUOUS
 10
4.015000
 20
0.922680
  0
VERTEX
  8
0
  6
CONTINUOUS
 10
3.860560
 20
0.922680
  0
VERTEX
  8
0
  6
CONTINUOUS
 10
3.860560
 20
4.406160
  0
VERTEX
  8
0
  6
CONTINUOUS
 10
4.485800
 20
4.406160
  0
VERTEX
  8
0
  6
CONTINUOUS
 10
4.485800
 20
3.139400
  0
VERTEX
  8
0
  6
CONTINUOUS
 10
4.448840
 20
3.113000
  0
VERTEX
  8
0
  6
CONTINUOUS
 10
4.418920
 20
3.079560
  0
VERTEX
  8
0
  6
CONTINUOUS
 10
4.395160
 20
3.040840
  0
VERTEX
  8
0
  6
CONTINUOUS
 10
4.377560
 20
2.997280
  0
VERTEX
  8
0
  6
CONTINUOUS
 10
4.364800
 20
2.950640
  0
VERTEX
  8
0
  6
CONTINUOUS
 10
4.356440
 20
2.901360
  0
VERTEX
  8
0
  6
CONTINUOUS
 10
4.351600
 20
2.851640
  0
VERTEX
  8
0
  6
CONTINUOUS
 10
4.350280
 20
2.801920
  0
VERTEX
  8
0
  6
CONTINUOUS
 10
4.350280
 20
1.562440
  0
VERTEX
  8
0
  6
CONTINUOUS
 10
4.260960
 20
1.562440
  0
VERTEX
  8
0
  6
CONTINUOUS
 10
4.260960
 20
1.560240
  0
SEQEND
  8
0
  0
TEXT
  8
0
 10
4.195400
 20
0.658240
 40
0.138305
  1
BA  298
 41
1.000000
  7
SN0
 71
     0
 72
     5
 11
4.786318
 21
0.658240
  0
TEXT
  8
0
 10
4.039640
 20
0.466840
 40
0.138305
  1
5/8" x 3-1/2"
 41
1.000000
  7
SN0
 71
     0
 72
     5
 11
4.941283
 21
0.466840
  0
TEXT
  8
0
 10
7.552600
 20
5.403640
 40
0.138305
  1
apron
 41
1.000000
  7
SN0
 71
     0
 72
     5
 11
7.977506
 21
5.403640
  0
TEXT
  8
0
 10
7.626080
 20
5.211800
 40
0.138305
  1
298
 41
1.000000
  7
SN0
 71
     0
 72
     5
 11
7.903449
 21
5.211800
  0
TEXT
  8
0
 10
7.709240
 20
5.020400
 40
0.138305
  1
B
 41
1.000000
  7
SN0
 71
     0
 72
     5
 11
7.820342
 21
5.020400
  0
ENDSEC
  0
EOF
