  0
SECTION
  2
HEADER
  9
$ACADVER
  1
AC1006
  9
$EXTMIN
 10
2.356640
 20
0.353320
  9
$EXTMAX
 10
8.085000
 20
4.232360
  9
$LTSCALE
 40
0.044000
  9
$PDMODE
 70
    35
  9
$PDSIZE
 40
0.035200
  0
ENDSEC
  0
SECTION
  2
TABLES
  0
TABLE
  2
LTYPE
 70
     9
  0
LTYPE
  2
CONTINUOUS
 70
    64
  3
Solid line
 72
    65
 73
     0
 40
0.000000
  0
LTYPE
  2
DASHED
 70
    64
  3
__ __ __ __ __ __ __ __ __ __ __ __ __ __ __
 72
    65
 73
     2
 40
0.000330
 49
0.000220
 49
-0.000110
  0
LTYPE
  2
HIDDEN
 70
    64
  3
 _ _ _ _ _ _ _ _ _ _ _ _ _ _ _ _ _ _ _ _ _ _
 72
    65
 73
     2
 40
0.000165
 49
0.000110
 49
-0.000055
  0
LTYPE
  2
CENTER
 70
    64
  3
____ _ ____ _ ____ _ ____ _ ____ _ ____ _ ____
 72
    65
 73
     4
 40
0.000880
 49
0.000550
 49
-0.000110
 49
0.000110
 49
-0.000110
  0
LTYPE
  2
PHANTOM
 70
    64
  3
_____ _ _ _____ _ _ _____ _ _ _____ _ _ ____
 72
    65
 73
     6
 40
0.001100
 49
0.000550
 49
-0.000110
 49
0.000110
 49
-0.000110
 49
0.000110
 49
-0.000110
  0
LTYPE
  2
DOT
 70
    64
  3
...............................................
 72
    65
 73
     2
 40
0.000110
 49
0.000000
 49
-0.000110
  0
LTYPE
  2
DASHDOT
 70
    64
  3
__ . __ . __ . __ . __ . __ . __ . __ . __ . __
 72
    65
 73
     4
 40
0.000440
 49
0.000220
 49
-0.000110
 49
0.000000
 49
-0.000110
  0
LTYPE
  2
BORDER
 70
    64
  3
__ __ . __ __ . __ __ . __ __ . __ __ . __ __
 72
    65
 73
     6
 40
0.000770
 49
0.000220
 49
-0.000110
 49
0.000220
 49
-0.000110
 49
0.000000
 49
-0.000110
  0
LTYPE
  2
DIVIDE
 70
    64
  3
__ . . __ . . __ . . __ . . __ . . __ . . __
 72
    65
 73
     6
 40
0.000550
 49
0.000220
 49
-0.000110
 49
0.000000
 49
-0.000110
 49
0.000000
 49
-0.000110
  0
LTYPE
  2
DOTDOT
 70
    64
  3
 . .  . .  . .  . .  . .  . . 
 72
    65
 73
     5
 40
0.000242
 49
-0.000110
 49
0.000000
 49
-0.000110
 49
0.000000
 49
-0.000110
  0
ENDTAB
  0
TABLE
  2
STYLE
 70
     2
  0
STYLE
 70
     0
  2
SN0
 40
0.000000
 41
0.000440
 50
0.000000
 71
     0
 42
0.000000
  3
ROMAND
  0
STYLE
 70
    68
  2
SV0
 40
0.000000
 41
0.000440
 50
0.000000
 71
     0
 42
0.000000
  3
ROMAND
  0
ENDTAB
  0
TABLE
  2
LAYER
 70
     3
  0
LAYER
  2
FOREGROUND
 70
    64
 62
     7
  6
CONTINUOUS
  0
LAYER
  2
BACKGROUND
 70
    65
 62
    -7
  6
CONTINUOUS
  0
LAYER
  2
0
 70
    64
 62
     7
  6
CONTINUOUS
  0
ENDTAB
  0
ENDSEC
  0
SECTION
  2
ENTITIES
  0
POLYLINE
  8
FOREGROUND
  6
CONTINUOUS
 66
     1
 40
0.000000
 41
0.000000
  0
VERTEX
  8
FOREGROUND
  6
CONTINUOUS
 10
0.000000
 20
4.585680
  0
VERTEX
  8
FOREGROUND
  6
CONTINUOUS
 10
8.499920
 20
4.585680
  0
VERTEX
  8
FOREGROUND
  6
CONTINUOUS
 10
8.499920
 20
-6.414320
  0
VERTEX
  8
FOREGROUND
  6
CONTINUOUS
 10
0.000000
 20
-6.414320
  0
VERTEX
  8
FOREGROUND
  6
CONTINUOUS
 10
0.000000
 20
4.585680
  0
SEQEND
  8
0
  0
POLYLINE
  8
FOREGROUND
  6
CONTINUOUS
 66
     1
 40
0.000000
 41
0.000000
  0
VERTEX
  8
FOREGROUND
  6
CONTINUOUS
 10
0.000000
 20
4.585680
  0
VERTEX
  8
FOREGROUND
  6
CONTINUOUS
 10
8.499920
 20
4.585680
  0
VERTEX
  8
FOREGROUND
  6
CONTINUOUS
 10
8.499920
 20
-6.414320
  0
VERTEX
  8
FOREGROUND
  6
CONTINUOUS
 10
0.000000
 20
-6.414320
  0
VERTEX
  8
FOREGROUND
  6
CONTINUOUS
 10
0.000000
 20
4.585680
  0
SEQEND
  8
0
  0
POLYLINE
  8
0
  6
CONTINUOUS
 66
     1
 40
0.014080
 41
0.014080
  0
VERTEX
  8
0
  6
CONTINUOUS
 10
3.180760
 20
3.823160
  0
VERTEX
  8
0
  6
CONTINUOUS
 10
3.195720
 20
3.706560
  0
VERTEX
  8
0
  6
CONTINUOUS
 10
3.228720
 20
3.706560
  0
VERTEX
  8
0
  6
CONTINUOUS
 10
3.249400
 20
3.742640
  0
VERTEX
  8
0
  6
CONTINUOUS
 10
3.271400
 20
3.768600
  0
VERTEX
  8
0
  6
CONTINUOUS
 10
3.286800
 20
3.780920
  0
VERTEX
  8
0
  6
CONTINUOUS
 10
3.302200
 20
3.789280
  0
VERTEX
  8
0
  6
CONTINUOUS
 10
3.325960
 20
3.795000
  0
VERTEX
  8
0
  6
CONTINUOUS
 10
3.349720
 20
3.793680
  0
VERTEX
  8
0
  6
CONTINUOUS
 10
3.380520
 20
3.782240
  0
VERTEX
  8
0
  6
CONTINUOUS
 10
3.395040
 20
3.773000
  0
VERTEX
  8
0
  6
CONTINUOUS
 10
3.422760
 20
3.748800
  0
VERTEX
  8
0
  6
CONTINUOUS
 10
3.447400
 20
3.718880
  0
VERTEX
  8
0
  6
CONTINUOUS
 10
3.475560
 20
3.671360
  0
VERTEX
  8
0
  6
CONTINUOUS
 10
3.495360
 20
3.642760
  0
VERTEX
  8
0
  6
CONTINUOUS
 10
3.521320
 20
3.612400
  0
VERTEX
  8
0
  6
CONTINUOUS
 10
3.553440
 20
3.582040
  0
VERTEX
  8
0
  6
CONTINUOUS
 10
3.571480
 20
3.567520
  0
VERTEX
  8
0
  6
CONTINUOUS
 10
3.591280
 20
3.554760
  0
VERTEX
  8
0
  6
CONTINUOUS
 10
3.623840
 20
3.538040
  0
VERTEX
  8
0
  6
CONTINUOUS
 10
3.647160
 20
3.529240
  0
VERTEX
  8
0
  6
CONTINUOUS
 10
3.672240
 20
3.523080
  0
VERTEX
  8
0
  6
CONTINUOUS
 10
3.698640
 20
3.519560
  0
VERTEX
  8
0
  6
CONTINUOUS
 10
3.716240
 20
3.519120
  0
VERTEX
  8
0
  6
CONTINUOUS
 10
3.751440
 20
3.522200
  0
VERTEX
  8
0
  6
CONTINUOUS
 10
3.784440
 20
3.528360
  0
VERTEX
  8
0
  6
CONTINUOUS
 10
3.815680
 20
3.538040
  0
VERTEX
  8
0
  6
CONTINUOUS
 10
3.860560
 20
3.559160
  0
VERTEX
  8
0
  6
CONTINUOUS
 10
3.905880
 20
3.589080
  0
VERTEX
  8
0
  6
CONTINUOUS
 10
3.970560
 20
3.644080
  0
VERTEX
  8
0
  6
CONTINUOUS
 10
3.972760
 20
3.646280
  0
VERTEX
  8
0
  6
CONTINUOUS
 10
4.087160
 20
3.540240
  0
VERTEX
  8
0
  6
CONTINUOUS
 10
4.089360
 20
3.539800
  0
VERTEX
  8
0
  6
CONTINUOUS
 10
4.115320
 20
3.566640
  0
VERTEX
  8
0
  6
CONTINUOUS
 10
4.141720
 20
3.590840
  0
VERTEX
  8
0
  6
CONTINUOUS
 10
4.168560
 20
3.612840
  0
VERTEX
  8
0
  6
CONTINUOUS
 10
4.222240
 20
3.649800
  0
VERTEX
  8
0
  6
CONTINUOUS
 10
4.276360
 20
3.677960
  0
VERTEX
  8
0
  6
CONTINUOUS
 10
4.303640
 20
3.689400
  0
VERTEX
  8
0
  6
CONTINUOUS
 10
4.330920
 20
3.698640
  0
VERTEX
  8
0
  6
CONTINUOUS
 10
4.358200
 20
3.706120
  0
VERTEX
  8
0
  6
CONTINUOUS
 10
4.385040
 20
3.711840
  0
VERTEX
  8
0
  6
CONTINUOUS
 10
4.411880
 20
3.715800
  0
VERTEX
  8
0
  6
CONTINUOUS
 10
4.465560
 20
3.718880
  0
VERTEX
  8
0
  6
CONTINUOUS
 10
4.491520
 20
3.718440
  0
VERTEX
  8
0
  6
CONTINUOUS
 10
4.543440
 20
3.713160
  0
VERTEX
  8
0
  6
CONTINUOUS
 10
4.593600
 20
3.702600
  0
VERTEX
  8
0
  6
CONTINUOUS
 10
4.642000
 20
3.688080
  0
VERTEX
  8
0
  6
CONTINUOUS
 10
4.688640
 20
3.669600
  0
VERTEX
  8
0
  6
CONTINUOUS
 10
4.753320
 20
3.636160
  0
VERTEX
  8
0
  6
CONTINUOUS
 10
4.811400
 20
3.597880
  0
VERTEX
  8
0
  6
CONTINUOUS
 10
4.864200
 20
3.554760
  0
VERTEX
  8
0
  6
CONTINUOUS
 10
4.983000
 20
3.646280
  0
VERTEX
  8
0
  6
CONTINUOUS
 10
5.004560
 20
3.615920
  0
VERTEX
  8
0
  6
CONTINUOUS
 10
5.026120
 20
3.592160
  0
VERTEX
  8
0
  6
CONTINUOUS
 10
5.050320
 20
3.572360
  0
VERTEX
  8
0
  6
CONTINUOUS
 10
5.075840
 20
3.555640
  0
VERTEX
  8
0
  6
CONTINUOUS
 10
5.116760
 20
3.537600
  0
VERTEX
  8
0
  6
CONTINUOUS
 10
5.159440
 20
3.526600
  0
VERTEX
  8
0
  6
CONTINUOUS
 10
5.188480
 20
3.522640
  0
VERTEX
  8
0
  6
CONTINUOUS
 10
5.231160
 20
3.522200
  0
VERTEX
  8
0
  6
CONTINUOUS
 10
5.245240
 20
3.523080
  0
VERTEX
  8
0
  6
CONTINUOUS
 10
5.272960
 20
3.527040
  0
VERTEX
  8
0
  6
CONTINUOUS
 10
5.299360
 20
3.532760
  0
VERTEX
  8
0
  6
CONTINUOUS
 10
5.335440
 20
3.545080
  0
VERTEX
  8
0
  6
CONTINUOUS
 10
5.367120
 20
3.560920
  0
VERTEX
  8
0
  6
CONTINUOUS
 10
5.385160
 20
3.573240
  0
VERTEX
  8
0
  6
CONTINUOUS
 10
5.426960
 20
3.610200
  0
VERTEX
  8
0
  6
CONTINUOUS
 10
5.456440
 20
3.643200
  0
VERTEX
  8
0
  6
CONTINUOUS
 10
5.482840
 20
3.681040
  0
VERTEX
  8
0
  6
CONTINUOUS
 10
5.501320
 20
3.711400
  0
VERTEX
  8
0
  6
CONTINUOUS
 10
5.518920
 20
3.732960
  0
VERTEX
  8
0
  6
CONTINUOUS
 10
5.540040
 20
3.753640
  0
VERTEX
  8
0
  6
CONTINUOUS
 10
5.566000
 20
3.772560
  0
VERTEX
  8
0
  6
CONTINUOUS
 10
5.580080
 20
3.780480
  0
VERTEX
  8
0
  6
CONTINUOUS
 10
5.595480
 20
3.787080
  0
VERTEX
  8
0
  6
CONTINUOUS
 10
5.619240
 20
3.792800
  0
VERTEX
  8
0
  6
CONTINUOUS
 10
5.636400
 20
3.793240
  0
VERTEX
  8
0
  6
CONTINUOUS
 10
5.662360
 20
3.788400
  0
VERTEX
  8
0
  6
CONTINUOUS
 10
5.690080
 20
3.775200
  0
VERTEX
  8
0
  6
CONTINUOUS
 10
5.717800
 20
3.752320
  0
VERTEX
  8
0
  6
CONTINUOUS
 10
5.746400
 20
3.718440
  0
VERTEX
  8
0
  6
CONTINUOUS
 10
5.757840
 20
3.702600
  0
VERTEX
  8
0
  6
CONTINUOUS
 10
5.778960
 20
3.702600
  0
VERTEX
  8
0
  6
CONTINUOUS
 10
5.791280
 20
3.823160
  0
VERTEX
  8
0
  6
CONTINUOUS
 10
6.601760
 20
3.823160
  0
VERTEX
  8
0
  6
CONTINUOUS
 10
6.601760
 20
3.652440
  0
VERTEX
  8
0
  6
CONTINUOUS
 10
6.645320
 20
3.652440
  0
VERTEX
  8
0
  6
CONTINUOUS
 10
6.656320
 20
3.674880
  0
VERTEX
  8
0
  6
CONTINUOUS
 10
6.681400
 20
3.713160
  0
VERTEX
  8
0
  6
CONTINUOUS
 10
6.709560
 20
3.743960
  0
VERTEX
  8
0
  6
CONTINUOUS
 10
6.740360
 20
3.766840
  0
VERTEX
  8
0
  6
CONTINUOUS
 10
6.773360
 20
3.783120
  0
VERTEX
  8
0
  6
CONTINUOUS
 10
6.806800
 20
3.792360
  0
VERTEX
  8
0
  6
CONTINUOUS
 10
6.841120
 20
3.795440
  0
VERTEX
  8
0
  6
CONTINUOUS
 10
6.858280
 20
3.795000
  0
VERTEX
  8
0
  6
CONTINUOUS
 10
6.891720
 20
3.789720
  0
VERTEX
  8
0
  6
CONTINUOUS
 10
6.923840
 20
3.779160
  0
VERTEX
  8
0
  6
CONTINUOUS
 10
6.954200
 20
3.764200
  0
VERTEX
  8
0
  6
CONTINUOUS
 10
6.981480
 20
3.744840
  0
VERTEX
  8
0
  6
CONTINUOUS
 10
7.005680
 20
3.721960
  0
VERTEX
  8
0
  6
CONTINUOUS
 10
7.025480
 20
3.695560
  0
VERTEX
  8
0
  6
CONTINUOUS
 10
7.040880
 20
3.666080
  0
VERTEX
  8
0
  6
CONTINUOUS
 10
7.050120
 20
3.634400
  0
VERTEX
  8
0
  6
CONTINUOUS
 10
7.052760
 20
3.617680
  0
VERTEX
  8
0
  6
CONTINUOUS
 10
7.053640
 20
3.600520
  0
VERTEX
  8
0
  6
CONTINUOUS
 10
7.053640
 20
3.013120
  0
VERTEX
  8
0
  6
CONTINUOUS
 10
2.364120
 20
3.013120
  0
VERTEX
  8
0
  6
CONTINUOUS
 10
2.364120
 20
3.823160
  0
VERTEX
  8
0
  6
CONTINUOUS
 10
3.180760
 20
3.823160
  0
SEQEND
  8
0
  0
SOLID
  8
0
 62
    15
 10
4.998400
 20
1.443640
 11
5.001040
 21
2.200000
 12
5.019960
 22
1.419440
 13
5.023040
 23
2.176240
  0
POLYLINE
  8
0
  6
CONTINUOUS
 66
     1
 40
0.000000
 41
0.000000
  0
VERTEX
  8
0
  6
CONTINUOUS
 10
4.998400
 20
1.443640
  0
VERTEX
  8
0
  6
CONTINUOUS
 10
5.001040
 20
2.200000
  0
VERTEX
  8
0
  6
CONTINUOUS
 10
5.023040
 20
2.176240
  0
VERTEX
  8
0
  6
CONTINUOUS
 10
5.019960
 20
1.419440
  0
VERTEX
  8
0
  6
CONTINUOUS
 10
4.998400
 20
1.443640
  0
SEQEND
  8
0
  0
SOLID
  8
0
 62
    15
 10
3.189560
 20
1.533840
 11
3.192200
 21
2.290640
 12
3.223000
 22
1.533840
 13
3.225640
 23
2.290640
  0
POLYLINE
  8
0
  6
CONTINUOUS
 66
     1
 40
0.000000
 41
0.000000
  0
VERTEX
  8
0
  6
CONTINUOUS
 10
3.189560
 20
1.533840
  0
VERTEX
  8
0
  6
CONTINUOUS
 10
3.192200
 20
2.290640
  0
VERTEX
  8
0
  6
CONTINUOUS
 10
3.225640
 20
2.290640
  0
VERTEX
  8
0
  6
CONTINUOUS
 10
3.223000
 20
1.533840
  0
VERTEX
  8
0
  6
CONTINUOUS
 10
3.189560
 20
1.533840
  0
SEQEND
  8
0
  0
SOLID
  8
0
 62
    15
 10
3.223000
 20
1.533840
 11
3.225640
 21
2.290640
 12
3.236200
 22
1.559360
 13
3.239280
 23
2.316160
  0
POLYLINE
  8
0
  6
CONTINUOUS
 66
     1
 40
0.000000
 41
0.000000
  0
VERTEX
  8
0
  6
CONTINUOUS
 10
3.223000
 20
1.533840
  0
VERTEX
  8
0
  6
CONTINUOUS
 10
3.225640
 20
2.290640
  0
VERTEX
  8
0
  6
CONTINUOUS
 10
3.239280
 20
2.316160
  0
VERTEX
  8
0
  6
CONTINUOUS
 10
3.236200
 20
1.559360
  0
VERTEX
  8
0
  6
CONTINUOUS
 10
3.223000
 20
1.533840
  0
SEQEND
  8
0
  0
SOLID
  8
0
 62
    15
 10
3.236200
 20
1.559360
 11
3.239280
 21
2.316160
 12
3.250720
 22
1.580040
 13
3.253360
 23
2.336840
  0
POLYLINE
  8
0
  6
CONTINUOUS
 66
     1
 40
0.000000
 41
0.000000
  0
VERTEX
  8
0
  6
CONTINUOUS
 10
3.236200
 20
1.559360
  0
VERTEX
  8
0
  6
CONTINUOUS
 10
3.239280
 20
2.316160
  0
VERTEX
  8
0
  6
CONTINUOUS
 10
3.253360
 20
2.336840
  0
VERTEX
  8
0
  6
CONTINUOUS
 10
3.250720
 20
1.580040
  0
VERTEX
  8
0
  6
CONTINUOUS
 10
3.236200
 20
1.559360
  0
SEQEND
  8
0
  0
SOLID
  8
0
 62
    15
 10
3.250720
 20
1.580040
 11
3.253360
 21
2.336840
 12
3.265680
 22
1.596320
 13
3.268320
 23
2.353120
  0
POLYLINE
  8
0
  6
CONTINUOUS
 66
     1
 40
0.000000
 41
0.000000
  0
VERTEX
  8
0
  6
CONTINUOUS
 10
3.250720
 20
1.580040
  0
VERTEX
  8
0
  6
CONTINUOUS
 10
3.253360
 20
2.336840
  0
VERTEX
  8
0
  6
CONTINUOUS
 10
3.268320
 20
2.353120
  0
VERTEX
  8
0
  6
CONTINUOUS
 10
3.265680
 20
1.596320
  0
VERTEX
  8
0
  6
CONTINUOUS
 10
3.250720
 20
1.580040
  0
SEQEND
  8
0
  0
SOLID
  8
0
 62
    15
 10
3.265680
 20
1.596320
 11
3.268320
 21
2.353120
 12
3.280640
 22
1.608200
 13
3.283720
 23
2.365000
  0
POLYLINE
  8
0
  6
CONTINUOUS
 66
     1
 40
0.000000
 41
0.000000
  0
VERTEX
  8
0
  6
CONTINUOUS
 10
3.265680
 20
1.596320
  0
VERTEX
  8
0
  6
CONTINUOUS
 10
3.268320
 20
2.353120
  0
VERTEX
  8
0
  6
CONTINUOUS
 10
3.283720
 20
2.365000
  0
VERTEX
  8
0
  6
CONTINUOUS
 10
3.280640
 20
1.608200
  0
VERTEX
  8
0
  6
CONTINUOUS
 10
3.265680
 20
1.596320
  0
SEQEND
  8
0
  0
SOLID
  8
0
 62
    15
 10
3.280640
 20
1.608200
 11
3.283720
 21
2.365000
 12
3.311880
 22
1.621400
 13
3.314960
 23
2.378200
  0
POLYLINE
  8
0
  6
CONTINUOUS
 66
     1
 40
0.000000
 41
0.000000
  0
VERTEX
  8
0
  6
CONTINUOUS
 10
3.280640
 20
1.608200
  0
VERTEX
  8
0
  6
CONTINUOUS
 10
3.283720
 20
2.365000
  0
VERTEX
  8
0
  6
CONTINUOUS
 10
3.314960
 20
2.378200
  0
VERTEX
  8
0
  6
CONTINUOUS
 10
3.311880
 20
1.621400
  0
VERTEX
  8
0
  6
CONTINUOUS
 10
3.280640
 20
1.608200
  0
SEQEND
  8
0
  0
SOLID
  8
0
 62
    15
 10
3.311880
 20
1.621400
 11
3.314960
 21
2.378200
 12
3.343560
 22
1.620960
 13
3.346200
 23
2.377760
  0
POLYLINE
  8
0
  6
CONTINUOUS
 66
     1
 40
0.000000
 41
0.000000
  0
VERTEX
  8
0
  6
CONTINUOUS
 10
3.311880
 20
1.621400
  0
VERTEX
  8
0
  6
CONTINUOUS
 10
3.314960
 20
2.378200
  0
VERTEX
  8
0
  6
CONTINUOUS
 10
3.346200
 20
2.377760
  0
VERTEX
  8
0
  6
CONTINUOUS
 10
3.343560
 20
1.620960
  0
VERTEX
  8
0
  6
CONTINUOUS
 10
3.311880
 20
1.621400
  0
SEQEND
  8
0
  0
SOLID
  8
0
 62
    15
 10
3.343560
 20
1.620960
 11
3.346200
 21
2.377760
 12
3.374360
 22
1.609520
 13
3.377000
 23
2.366320
  0
POLYLINE
  8
0
  6
CONTINUOUS
 66
     1
 40
0.000000
 41
0.000000
  0
VERTEX
  8
0
  6
CONTINUOUS
 10
3.343560
 20
1.620960
  0
VERTEX
  8
0
  6
CONTINUOUS
 10
3.346200
 20
2.377760
  0
VERTEX
  8
0
  6
CONTINUOUS
 10
3.377000
 20
2.366320
  0
VERTEX
  8
0
  6
CONTINUOUS
 10
3.374360
 20
1.609520
  0
VERTEX
  8
0
  6
CONTINUOUS
 10
3.343560
 20
1.620960
  0
SEQEND
  8
0
  0
SOLID
  8
0
 62
    15
 10
3.374360
 20
1.609520
 11
3.377000
 21
2.366320
 12
3.403400
 22
1.589280
 13
3.406040
 23
2.345640
  0
POLYLINE
  8
0
  6
CONTINUOUS
 66
     1
 40
0.000000
 41
0.000000
  0
VERTEX
  8
0
  6
CONTINUOUS
 10
3.374360
 20
1.609520
  0
VERTEX
  8
0
  6
CONTINUOUS
 10
3.377000
 20
2.366320
  0
VERTEX
  8
0
  6
CONTINUOUS
 10
3.406040
 20
2.345640
  0
VERTEX
  8
0
  6
CONTINUOUS
 10
3.403400
 20
1.589280
  0
VERTEX
  8
0
  6
CONTINUOUS
 10
3.374360
 20
1.609520
  0
SEQEND
  8
0
  0
SOLID
  8
0
 62
    15
 10
3.403400
 20
1.589280
 11
3.406040
 21
2.345640
 12
3.429360
 22
1.562000
 13
3.432440
 23
2.318360
  0
POLYLINE
  8
0
  6
CONTINUOUS
 66
     1
 40
0.000000
 41
0.000000
  0
VERTEX
  8
0
  6
CONTINUOUS
 10
3.403400
 20
1.589280
  0
VERTEX
  8
0
  6
CONTINUOUS
 10
3.406040
 20
2.345640
  0
VERTEX
  8
0
  6
CONTINUOUS
 10
3.432440
 20
2.318360
  0
VERTEX
  8
0
  6
CONTINUOUS
 10
3.429360
 20
1.562000
  0
VERTEX
  8
0
  6
CONTINUOUS
 10
3.403400
 20
1.589280
  0
SEQEND
  8
0
  0
SOLID
  8
0
 62
    15
 10
3.429360
 20
1.562000
 11
3.432440
 21
2.318360
 12
3.451800
 22
1.529880
 13
3.454880
 23
2.286680
  0
POLYLINE
  8
0
  6
CONTINUOUS
 66
     1
 40
0.000000
 41
0.000000
  0
VERTEX
  8
0
  6
CONTINUOUS
 10
3.429360
 20
1.562000
  0
VERTEX
  8
0
  6
CONTINUOUS
 10
3.432440
 20
2.318360
  0
VERTEX
  8
0
  6
CONTINUOUS
 10
3.454880
 20
2.286680
  0
VERTEX
  8
0
  6
CONTINUOUS
 10
3.451800
 20
1.529880
  0
VERTEX
  8
0
  6
CONTINUOUS
 10
3.429360
 20
1.562000
  0
SEQEND
  8
0
  0
SOLID
  8
0
 62
    15
 10
3.451800
 20
1.529880
 11
3.454880
 21
2.286680
 12
3.462360
 22
1.510520
 13
3.465000
 23
2.267320
  0
POLYLINE
  8
0
  6
CONTINUOUS
 66
     1
 40
0.000000
 41
0.000000
  0
VERTEX
  8
0
  6
CONTINUOUS
 10
3.451800
 20
1.529880
  0
VERTEX
  8
0
  6
CONTINUOUS
 10
3.454880
 20
2.286680
  0
VERTEX
  8
0
  6
CONTINUOUS
 10
3.465000
 20
2.267320
  0
VERTEX
  8
0
  6
CONTINUOUS
 10
3.462360
 20
1.510520
  0
VERTEX
  8
0
  6
CONTINUOUS
 10
3.451800
 20
1.529880
  0
SEQEND
  8
0
  0
SOLID
  8
0
 62
    15
 10
3.462360
 20
1.510520
 11
3.465000
 21
2.267320
 12
3.478640
 22
1.484560
 13
3.481720
 23
2.241360
  0
POLYLINE
  8
0
  6
CONTINUOUS
 66
     1
 40
0.000000
 41
0.000000
  0
VERTEX
  8
0
  6
CONTINUOUS
 10
3.462360
 20
1.510520
  0
VERTEX
  8
0
  6
CONTINUOUS
 10
3.465000
 20
2.267320
  0
VERTEX
  8
0
  6
CONTINUOUS
 10
3.481720
 20
2.241360
  0
VERTEX
  8
0
  6
CONTINUOUS
 10
3.478640
 20
1.484560
  0
VERTEX
  8
0
  6
CONTINUOUS
 10
3.462360
 20
1.510520
  0
SEQEND
  8
0
  0
SOLID
  8
0
 62
    15
 10
3.478640
 20
1.484560
 11
3.481720
 21
2.241360
 12
3.501520
 22
1.455080
 13
3.504600
 23
2.211880
  0
POLYLINE
  8
0
  6
CONTINUOUS
 66
     1
 40
0.000000
 41
0.000000
  0
VERTEX
  8
0
  6
CONTINUOUS
 10
3.478640
 20
1.484560
  0
VERTEX
  8
0
  6
CONTINUOUS
 10
3.481720
 20
2.241360
  0
VERTEX
  8
0
  6
CONTINUOUS
 10
3.504600
 20
2.211880
  0
VERTEX
  8
0
  6
CONTINUOUS
 10
3.501520
 20
1.455080
  0
VERTEX
  8
0
  6
CONTINUOUS
 10
3.478640
 20
1.484560
  0
SEQEND
  8
0
  0
SOLID
  8
0
 62
    15
 10
3.501520
 20
1.455080
 11
3.504600
 21
2.211880
 12
3.530560
 22
1.424280
 13
3.533640
 23
2.180640
  0
POLYLINE
  8
0
  6
CONTINUOUS
 66
     1
 40
0.000000
 41
0.000000
  0
VERTEX
  8
0
  6
CONTINUOUS
 10
3.501520
 20
1.455080
  0
VERTEX
  8
0
  6
CONTINUOUS
 10
3.504600
 20
2.211880
  0
VERTEX
  8
0
  6
CONTINUOUS
 10
3.533640
 20
2.180640
  0
VERTEX
  8
0
  6
CONTINUOUS
 10
3.530560
 20
1.424280
  0
VERTEX
  8
0
  6
CONTINUOUS
 10
3.501520
 20
1.455080
  0
SEQEND
  8
0
  0
SOLID
  8
0
 62
    15
 10
3.530560
 20
1.424280
 11
3.533640
 21
2.180640
 12
3.565760
 22
1.394800
 13
3.568400
 23
2.151600
  0
POLYLINE
  8
0
  6
CONTINUOUS
 66
     1
 40
0.000000
 41
0.000000
  0
VERTEX
  8
0
  6
CONTINUOUS
 10
3.530560
 20
1.424280
  0
VERTEX
  8
0
  6
CONTINUOUS
 10
3.533640
 20
2.180640
  0
VERTEX
  8
0
  6
CONTINUOUS
 10
3.568400
 20
2.151600
  0
VERTEX
  8
0
  6
CONTINUOUS
 10
3.565760
 20
1.394800
  0
VERTEX
  8
0
  6
CONTINUOUS
 10
3.530560
 20
1.424280
  0
SEQEND
  8
0
  0
SOLID
  8
0
 62
    15
 10
3.565760
 20
1.394800
 11
3.568400
 21
2.151600
 12
3.606680
 22
1.370600
 13
3.609320
 23
2.126960
  0
POLYLINE
  8
0
  6
CONTINUOUS
 66
     1
 40
0.000000
 41
0.000000
  0
VERTEX
  8
0
  6
CONTINUOUS
 10
3.565760
 20
1.394800
  0
VERTEX
  8
0
  6
CONTINUOUS
 10
3.568400
 20
2.151600
  0
VERTEX
  8
0
  6
CONTINUOUS
 10
3.609320
 20
2.126960
  0
VERTEX
  8
0
  6
CONTINUOUS
 10
3.606680
 20
1.370600
  0
VERTEX
  8
0
  6
CONTINUOUS
 10
3.565760
 20
1.394800
  0
SEQEND
  8
0
  0
SOLID
  8
0
 62
    15
 10
3.606680
 20
1.370600
 11
3.609320
 21
2.126960
 12
3.653320
 22
1.353440
 13
3.656400
 23
2.110240
  0
POLYLINE
  8
0
  6
CONTINUOUS
 66
     1
 40
0.000000
 41
0.000000
  0
VERTEX
  8
0
  6
CONTINUOUS
 10
3.606680
 20
1.370600
  0
VERTEX
  8
0
  6
CONTINUOUS
 10
3.609320
 20
2.126960
  0
VERTEX
  8
0
  6
CONTINUOUS
 10
3.656400
 20
2.110240
  0
VERTEX
  8
0
  6
CONTINUOUS
 10
3.653320
 20
1.353440
  0
VERTEX
  8
0
  6
CONTINUOUS
 10
3.606680
 20
1.370600
  0
SEQEND
  8
0
  0
SOLID
  8
0
 62
    15
 10
3.653320
 20
1.353440
 11
3.656400
 21
2.110240
 12
3.706120
 22
1.346400
 13
3.708760
 23
2.103200
  0
POLYLINE
  8
0
  6
CONTINUOUS
 66
     1
 40
0.000000
 41
0.000000
  0
VERTEX
  8
0
  6
CONTINUOUS
 10
3.653320
 20
1.353440
  0
VERTEX
  8
0
  6
CONTINUOUS
 10
3.656400
 20
2.110240
  0
VERTEX
  8
0
  6
CONTINUOUS
 10
3.708760
 20
2.103200
  0
VERTEX
  8
0
  6
CONTINUOUS
 10
3.706120
 20
1.346400
  0
VERTEX
  8
0
  6
CONTINUOUS
 10
3.653320
 20
1.353440
  0
SEQEND
  8
0
  0
SOLID
  8
0
 62
    15
 10
3.706120
 20
1.346400
 11
3.708760
 21
2.103200
 12
3.710520
 22
1.346400
 13
3.713160
 23
2.103200
  0
POLYLINE
  8
0
  6
CONTINUOUS
 66
     1
 40
0.000000
 41
0.000000
  0
VERTEX
  8
0
  6
CONTINUOUS
 10
3.706120
 20
1.346400
  0
VERTEX
  8
0
  6
CONTINUOUS
 10
3.708760
 20
2.103200
  0
VERTEX
  8
0
  6
CONTINUOUS
 10
3.713160
 20
2.103200
  0
VERTEX
  8
0
  6
CONTINUOUS
 10
3.710520
 20
1.346400
  0
VERTEX
  8
0
  6
CONTINUOUS
 10
3.706120
 20
1.346400
  0
SEQEND
  8
0
  0
SOLID
  8
0
 62
    15
 10
3.710520
 20
1.346400
 11
3.713160
 21
2.103200
 12
3.745720
 22
1.349480
 13
3.748360
 23
2.106280
  0
POLYLINE
  8
0
  6
CONTINUOUS
 66
     1
 40
0.000000
 41
0.000000
  0
VERTEX
  8
0
  6
CONTINUOUS
 10
3.710520
 20
1.346400
  0
VERTEX
  8
0
  6
CONTINUOUS
 10
3.713160
 20
2.103200
  0
VERTEX
  8
0
  6
CONTINUOUS
 10
3.748360
 20
2.106280
  0
VERTEX
  8
0
  6
CONTINUOUS
 10
3.745720
 20
1.349480
  0
VERTEX
  8
0
  6
CONTINUOUS
 10
3.710520
 20
1.346400
  0
SEQEND
  8
0
  0
SOLID
  8
0
 62
    15
 10
3.745720
 20
1.349480
 11
3.748360
 21
2.106280
 12
3.778280
 22
1.355640
 13
3.781360
 23
2.112440
  0
POLYLINE
  8
0
  6
CONTINUOUS
 66
     1
 40
0.000000
 41
0.000000
  0
VERTEX
  8
0
  6
CONTINUOUS
 10
3.745720
 20
1.349480
  0
VERTEX
  8
0
  6
CONTINUOUS
 10
3.748360
 20
2.106280
  0
VERTEX
  8
0
  6
CONTINUOUS
 10
3.781360
 20
2.112440
  0
VERTEX
  8
0
  6
CONTINUOUS
 10
3.778280
 20
1.355640
  0
VERTEX
  8
0
  6
CONTINUOUS
 10
3.745720
 20
1.349480
  0
SEQEND
  8
0
  0
SOLID
  8
0
 62
    15
 10
3.778280
 20
1.355640
 11
3.781360
 21
2.112440
 12
3.809520
 22
1.365320
 13
3.812600
 23
2.122120
  0
POLYLINE
  8
0
  6
CONTINUOUS
 66
     1
 40
0.000000
 41
0.000000
  0
VERTEX
  8
0
  6
CONTINUOUS
 10
3.778280
 20
1.355640
  0
VERTEX
  8
0
  6
CONTINUOUS
 10
3.781360
 20
2.112440
  0
VERTEX
  8
0
  6
CONTINUOUS
 10
3.812600
 20
2.122120
  0
VERTEX
  8
0
  6
CONTINUOUS
 10
3.809520
 20
1.365320
  0
VERTEX
  8
0
  6
CONTINUOUS
 10
3.778280
 20
1.355640
  0
SEQEND
  8
0
  0
SOLID
  8
0
 62
    15
 10
3.809520
 20
1.365320
 11
3.812600
 21
2.122120
 12
3.839880
 22
1.378520
 13
3.842520
 23
2.135320
  0
POLYLINE
  8
0
  6
CONTINUOUS
 66
     1
 40
0.000000
 41
0.000000
  0
VERTEX
  8
0
  6
CONTINUOUS
 10
3.809520
 20
1.365320
  0
VERTEX
  8
0
  6
CONTINUOUS
 10
3.812600
 20
2.122120
  0
VERTEX
  8
0
  6
CONTINUOUS
 10
3.842520
 20
2.135320
  0
VERTEX
  8
0
  6
CONTINUOUS
 10
3.839880
 20
1.378520
  0
VERTEX
  8
0
  6
CONTINUOUS
 10
3.809520
 20
1.365320
  0
SEQEND
  8
0
  0
SOLID
  8
0
 62
    15
 10
3.839880
 20
1.378520
 11
3.842520
 21
2.135320
 12
3.869360
 22
1.395240
 13
3.872440
 23
2.152040
  0
POLYLINE
  8
0
  6
CONTINUOUS
 66
     1
 40
0.000000
 41
0.000000
  0
VERTEX
  8
0
  6
CONTINUOUS
 10
3.839880
 20
1.378520
  0
VERTEX
  8
0
  6
CONTINUOUS
 10
3.842520
 20
2.135320
  0
VERTEX
  8
0
  6
CONTINUOUS
 10
3.872440
 20
2.152040
  0
VERTEX
  8
0
  6
CONTINUOUS
 10
3.869360
 20
1.395240
  0
VERTEX
  8
0
  6
CONTINUOUS
 10
3.839880
 20
1.378520
  0
SEQEND
  8
0
  0
SOLID
  8
0
 62
    15
 10
3.869360
 20
1.395240
 11
3.872440
 21
2.152040
 12
3.899720
 22
1.416360
 13
3.902800
 23
2.173160
  0
POLYLINE
  8
0
  6
CONTINUOUS
 66
     1
 40
0.000000
 41
0.000000
  0
VERTEX
  8
0
  6
CONTINUOUS
 10
3.869360
 20
1.395240
  0
VERTEX
  8
0
  6
CONTINUOUS
 10
3.872440
 20
2.152040
  0
VERTEX
  8
0
  6
CONTINUOUS
 10
3.902800
 20
2.173160
  0
VERTEX
  8
0
  6
CONTINUOUS
 10
3.899720
 20
1.416360
  0
VERTEX
  8
0
  6
CONTINUOUS
 10
3.869360
 20
1.395240
  0
SEQEND
  8
0
  0
SOLID
  8
0
 62
    15
 10
3.899720
 20
1.416360
 11
3.902800
 21
2.173160
 12
3.931400
 22
1.441880
 13
3.934040
 23
2.198680
  0
POLYLINE
  8
0
  6
CONTINUOUS
 66
     1
 40
0.000000
 41
0.000000
  0
VERTEX
  8
0
  6
CONTINUOUS
 10
3.899720
 20
1.416360
  0
VERTEX
  8
0
  6
CONTINUOUS
 10
3.902800
 20
2.173160
  0
VERTEX
  8
0
  6
CONTINUOUS
 10
3.934040
 20
2.198680
  0
VERTEX
  8
0
  6
CONTINUOUS
 10
3.931400
 20
1.441880
  0
VERTEX
  8
0
  6
CONTINUOUS
 10
3.899720
 20
1.416360
  0
SEQEND
  8
0
  0
SOLID
  8
0
 62
    15
 10
3.931400
 20
1.441880
 11
3.934040
 21
2.198680
 12
3.964400
 22
1.471360
 13
3.967480
 23
2.228160
  0
POLYLINE
  8
0
  6
CONTINUOUS
 66
     1
 40
0.000000
 41
0.000000
  0
VERTEX
  8
0
  6
CONTINUOUS
 10
3.931400
 20
1.441880
  0
VERTEX
  8
0
  6
CONTINUOUS
 10
3.934040
 20
2.198680
  0
VERTEX
  8
0
  6
CONTINUOUS
 10
3.967480
 20
2.228160
  0
VERTEX
  8
0
  6
CONTINUOUS
 10
3.964400
 20
1.471360
  0
VERTEX
  8
0
  6
CONTINUOUS
 10
3.931400
 20
1.441880
  0
SEQEND
  8
0
  0
SOLID
  8
0
 62
    15
 10
3.964400
 20
1.471360
 11
3.967480
 21
2.228160
 12
3.966600
 22
1.473560
 13
3.969240
 23
2.230360
  0
POLYLINE
  8
0
  6
CONTINUOUS
 66
     1
 40
0.000000
 41
0.000000
  0
VERTEX
  8
0
  6
CONTINUOUS
 10
3.964400
 20
1.471360
  0
VERTEX
  8
0
  6
CONTINUOUS
 10
3.967480
 20
2.228160
  0
VERTEX
  8
0
  6
CONTINUOUS
 10
3.969240
 20
2.230360
  0
VERTEX
  8
0
  6
CONTINUOUS
 10
3.966600
 20
1.473560
  0
VERTEX
  8
0
  6
CONTINUOUS
 10
3.964400
 20
1.471360
  0
SEQEND
  8
0
  0
SOLID
  8
0
 62
    15
 10
3.966600
 20
1.473560
 11
3.969240
 21
2.230360
 12
4.081000
 22
1.367520
 13
4.084080
 23
2.123880
  0
POLYLINE
  8
0
  6
CONTINUOUS
 66
     1
 40
0.000000
 41
0.000000
  0
VERTEX
  8
0
  6
CONTINUOUS
 10
3.966600
 20
1.473560
  0
VERTEX
  8
0
  6
CONTINUOUS
 10
3.969240
 20
2.230360
  0
VERTEX
  8
0
  6
CONTINUOUS
 10
4.084080
 20
2.123880
  0
VERTEX
  8
0
  6
CONTINUOUS
 10
4.081000
 20
1.367520
  0
VERTEX
  8
0
  6
CONTINUOUS
 10
3.966600
 20
1.473560
  0
SEQEND
  8
0
  0
SOLID
  8
0
 62
    15
 10
4.081000
 20
1.367520
 11
4.084080
 21
2.123880
 12
4.083200
 22
1.367080
 13
4.086280
 23
2.123880
  0
POLYLINE
  8
0
  6
CONTINUOUS
 66
     1
 40
0.000000
 41
0.000000
  0
VERTEX
  8
0
  6
CONTINUOUS
 10
4.081000
 20
1.367520
  0
VERTEX
  8
0
  6
CONTINUOUS
 10
4.084080
 20
2.123880
  0
VERTEX
  8
0
  6
CONTINUOUS
 10
4.086280
 20
2.123880
  0
VERTEX
  8
0
  6
CONTINUOUS
 10
4.083200
 20
1.367080
  0
VERTEX
  8
0
  6
CONTINUOUS
 10
4.081000
 20
1.367520
  0
SEQEND
  8
0
  0
SOLID
  8
0
 62
    15
 10
4.083200
 20
1.367080
 11
4.086280
 21
2.123880
 12
4.135560
 22
1.418120
 13
4.138640
 23
2.174920
  0
POLYLINE
  8
0
  6
CONTINUOUS
 66
     1
 40
0.000000
 41
0.000000
  0
VERTEX
  8
0
  6
CONTINUOUS
 10
4.083200
 20
1.367080
  0
VERTEX
  8
0
  6
CONTINUOUS
 10
4.086280
 20
2.123880
  0
VERTEX
  8
0
  6
CONTINUOUS
 10
4.138640
 20
2.174920
  0
VERTEX
  8
0
  6
CONTINUOUS
 10
4.135560
 20
1.418120
  0
VERTEX
  8
0
  6
CONTINUOUS
 10
4.083200
 20
1.367080
  0
SEQEND
  8
0
  0
SOLID
  8
0
 62
    15
 10
4.135560
 20
1.418120
 11
4.138640
 21
2.174920
 12
4.189240
 22
1.459480
 13
4.191880
 23
2.216280
  0
POLYLINE
  8
0
  6
CONTINUOUS
 66
     1
 40
0.000000
 41
0.000000
  0
VERTEX
  8
0
  6
CONTINUOUS
 10
4.135560
 20
1.418120
  0
VERTEX
  8
0
  6
CONTINUOUS
 10
4.138640
 20
2.174920
  0
VERTEX
  8
0
  6
CONTINUOUS
 10
4.191880
 20
2.216280
  0
VERTEX
  8
0
  6
CONTINUOUS
 10
4.189240
 20
1.459480
  0
VERTEX
  8
0
  6
CONTINUOUS
 10
4.135560
 20
1.418120
  0
SEQEND
  8
0
  0
SOLID
  8
0
 62
    15
 10
4.189240
 20
1.459480
 11
4.191880
 21
2.216280
 12
4.243360
 22
1.492480
 13
4.246000
 23
2.248840
  0
POLYLINE
  8
0
  6
CONTINUOUS
 66
     1
 40
0.000000
 41
0.000000
  0
VERTEX
  8
0
  6
CONTINUOUS
 10
4.189240
 20
1.459480
  0
VERTEX
  8
0
  6
CONTINUOUS
 10
4.191880
 20
2.216280
  0
VERTEX
  8
0
  6
CONTINUOUS
 10
4.246000
 20
2.248840
  0
VERTEX
  8
0
  6
CONTINUOUS
 10
4.243360
 20
1.492480
  0
VERTEX
  8
0
  6
CONTINUOUS
 10
4.189240
 20
1.459480
  0
SEQEND
  8
0
  0
SOLID
  8
0
 62
    15
 10
4.243360
 20
1.492480
 11
4.246000
 21
2.248840
 12
4.297920
 22
1.516680
 13
4.300560
 23
2.273480
  0
POLYLINE
  8
0
  6
CONTINUOUS
 66
     1
 40
0.000000
 41
0.000000
  0
VERTEX
  8
0
  6
CONTINUOUS
 10
4.243360
 20
1.492480
  0
VERTEX
  8
0
  6
CONTINUOUS
 10
4.246000
 20
2.248840
  0
VERTEX
  8
0
  6
CONTINUOUS
 10
4.300560
 20
2.273480
  0
VERTEX
  8
0
  6
CONTINUOUS
 10
4.297920
 20
1.516680
  0
VERTEX
  8
0
  6
CONTINUOUS
 10
4.243360
 20
1.492480
  0
SEQEND
  8
0
  0
SOLID
  8
0
 62
    15
 10
4.297920
 20
1.516680
 11
4.300560
 21
2.273480
 12
4.352040
 22
1.533400
 13
4.355120
 23
2.290200
  0
POLYLINE
  8
0
  6
CONTINUOUS
 66
     1
 40
0.000000
 41
0.000000
  0
VERTEX
  8
0
  6
CONTINUOUS
 10
4.297920
 20
1.516680
  0
VERTEX
  8
0
  6
CONTINUOUS
 10
4.300560
 20
2.273480
  0
VERTEX
  8
0
  6
CONTINUOUS
 10
4.355120
 20
2.290200
  0
VERTEX
  8
0
  6
CONTINUOUS
 10
4.352040
 20
1.533400
  0
VERTEX
  8
0
  6
CONTINUOUS
 10
4.297920
 20
1.516680
  0
SEQEND
  8
0
  0
SOLID
  8
0
 62
    15
 10
4.352040
 20
1.533400
 11
4.355120
 21
2.290200
 12
4.406160
 22
1.543080
 13
4.408800
 23
2.299880
  0
POLYLINE
  8
0
  6
CONTINUOUS
 66
     1
 40
0.000000
 41
0.000000
  0
VERTEX
  8
0
  6
CONTINUOUS
 10
4.352040
 20
1.533400
  0
VERTEX
  8
0
  6
CONTINUOUS
 10
4.355120
 20
2.290200
  0
VERTEX
  8
0
  6
CONTINUOUS
 10
4.408800
 20
2.299880
  0
VERTEX
  8
0
  6
CONTINUOUS
 10
4.406160
 20
1.543080
  0
VERTEX
  8
0
  6
CONTINUOUS
 10
4.352040
 20
1.533400
  0
SEQEND
  8
0
  0
SOLID
  8
0
 62
    15
 10
4.406160
 20
1.543080
 11
4.408800
 21
2.299880
 12
4.459400
 22
1.546160
 13
4.462480
 23
2.302960
  0
POLYLINE
  8
0
  6
CONTINUOUS
 66
     1
 40
0.000000
 41
0.000000
  0
VERTEX
  8
0
  6
CONTINUOUS
 10
4.406160
 20
1.543080
  0
VERTEX
  8
0
  6
CONTINUOUS
 10
4.408800
 20
2.299880
  0
VERTEX
  8
0
  6
CONTINUOUS
 10
4.462480
 20
2.302960
  0
VERTEX
  8
0
  6
CONTINUOUS
 10
4.459400
 20
1.546160
  0
VERTEX
  8
0
  6
CONTINUOUS
 10
4.406160
 20
1.543080
  0
SEQEND
  8
0
  0
SOLID
  8
0
 62
    15
 10
4.459400
 20
1.546160
 11
4.462480
 21
2.302960
 12
4.511760
 22
1.543520
 13
4.514840
 23
2.300320
  0
POLYLINE
  8
0
  6
CONTINUOUS
 66
     1
 40
0.000000
 41
0.000000
  0
VERTEX
  8
0
  6
CONTINUOUS
 10
4.459400
 20
1.546160
  0
VERTEX
  8
0
  6
CONTINUOUS
 10
4.462480
 20
2.302960
  0
VERTEX
  8
0
  6
CONTINUOUS
 10
4.514840
 20
2.300320
  0
VERTEX
  8
0
  6
CONTINUOUS
 10
4.511760
 20
1.543520
  0
VERTEX
  8
0
  6
CONTINUOUS
 10
4.459400
 20
1.546160
  0
SEQEND
  8
0
  0
SOLID
  8
0
 62
    15
 10
4.511760
 20
1.543520
 11
4.514840
 21
2.300320
 12
4.562800
 22
1.535600
 13
4.565880
 23
2.292400
  0
POLYLINE
  8
0
  6
CONTINUOUS
 66
     1
 40
0.000000
 41
0.000000
  0
VERTEX
  8
0
  6
CONTINUOUS
 10
4.511760
 20
1.543520
  0
VERTEX
  8
0
  6
CONTINUOUS
 10
4.514840
 20
2.300320
  0
VERTEX
  8
0
  6
CONTINUOUS
 10
4.565880
 20
2.292400
  0
VERTEX
  8
0
  6
CONTINUOUS
 10
4.562800
 20
1.535600
  0
VERTEX
  8
0
  6
CONTINUOUS
 10
4.511760
 20
1.543520
  0
SEQEND
  8
0
  0
SOLID
  8
0
 62
    15
 10
4.562800
 20
1.535600
 11
4.565880
 21
2.292400
 12
4.612080
 22
1.523280
 13
4.615160
 23
2.280080
  0
POLYLINE
  8
0
  6
CONTINUOUS
 66
     1
 40
0.000000
 41
0.000000
  0
VERTEX
  8
0
  6
CONTINUOUS
 10
4.562800
 20
1.535600
  0
VERTEX
  8
0
  6
CONTINUOUS
 10
4.565880
 20
2.292400
  0
VERTEX
  8
0
  6
CONTINUOUS
 10
4.615160
 20
2.280080
  0
VERTEX
  8
0
  6
CONTINUOUS
 10
4.612080
 20
1.523280
  0
VERTEX
  8
0
  6
CONTINUOUS
 10
4.562800
 20
1.535600
  0
SEQEND
  8
0
  0
SOLID
  8
0
 62
    15
 10
4.612080
 20
1.523280
 11
4.615160
 21
2.280080
 12
4.659600
 22
1.506560
 13
4.662680
 23
2.263360
  0
POLYLINE
  8
0
  6
CONTINUOUS
 66
     1
 40
0.000000
 41
0.000000
  0
VERTEX
  8
0
  6
CONTINUOUS
 10
4.612080
 20
1.523280
  0
VERTEX
  8
0
  6
CONTINUOUS
 10
4.615160
 20
2.280080
  0
VERTEX
  8
0
  6
CONTINUOUS
 10
4.662680
 20
2.263360
  0
VERTEX
  8
0
  6
CONTINUOUS
 10
4.659600
 20
1.506560
  0
VERTEX
  8
0
  6
CONTINUOUS
 10
4.612080
 20
1.523280
  0
SEQEND
  8
0
  0
SOLID
  8
0
 62
    15
 10
4.659600
 20
1.506560
 11
4.662680
 21
2.263360
 12
4.704920
 22
1.486320
 13
4.707560
 23
2.243120
  0
POLYLINE
  8
0
  6
CONTINUOUS
 66
     1
 40
0.000000
 41
0.000000
  0
VERTEX
  8
0
  6
CONTINUOUS
 10
4.659600
 20
1.506560
  0
VERTEX
  8
0
  6
CONTINUOUS
 10
4.662680
 20
2.263360
  0
VERTEX
  8
0
  6
CONTINUOUS
 10
4.707560
 20
2.243120
  0
VERTEX
  8
0
  6
CONTINUOUS
 10
4.704920
 20
1.486320
  0
VERTEX
  8
0
  6
CONTINUOUS
 10
4.659600
 20
1.506560
  0
SEQEND
  8
0
  0
SOLID
  8
0
 62
    15
 10
4.704920
 20
1.486320
 11
4.707560
 21
2.243120
 12
4.787200
 22
1.438360
 13
4.789840
 23
2.195160
  0
POLYLINE
  8
0
  6
CONTINUOUS
 66
     1
 40
0.000000
 41
0.000000
  0
VERTEX
  8
0
  6
CONTINUOUS
 10
4.704920
 20
1.486320
  0
VERTEX
  8
0
  6
CONTINUOUS
 10
4.707560
 20
2.243120
  0
VERTEX
  8
0
  6
CONTINUOUS
 10
4.789840
 20
2.195160
  0
VERTEX
  8
0
  6
CONTINUOUS
 10
4.787200
 20
1.438360
  0
VERTEX
  8
0
  6
CONTINUOUS
 10
4.704920
 20
1.486320
  0
SEQEND
  8
0
  0
SOLID
  8
0
 62
    15
 10
4.787200
 20
1.438360
 11
4.789840
 21
2.195160
 12
4.823280
 22
1.411960
 13
4.826360
 23
2.168320
  0
POLYLINE
  8
0
  6
CONTINUOUS
 66
     1
 40
0.000000
 41
0.000000
  0
VERTEX
  8
0
  6
CONTINUOUS
 10
4.787200
 20
1.438360
  0
VERTEX
  8
0
  6
CONTINUOUS
 10
4.789840
 20
2.195160
  0
VERTEX
  8
0
  6
CONTINUOUS
 10
4.826360
 20
2.168320
  0
VERTEX
  8
0
  6
CONTINUOUS
 10
4.823280
 20
1.411960
  0
VERTEX
  8
0
  6
CONTINUOUS
 10
4.787200
 20
1.438360
  0
SEQEND
  8
0
  0
SOLID
  8
0
 62
    15
 10
4.823280
 20
1.411960
 11
4.826360
 21
2.168320
 12
4.856280
 22
1.383800
 13
4.858920
 23
2.140600
  0
POLYLINE
  8
0
  6
CONTINUOUS
 66
     1
 40
0.000000
 41
0.000000
  0
VERTEX
  8
0
  6
CONTINUOUS
 10
4.823280
 20
1.411960
  0
VERTEX
  8
0
  6
CONTINUOUS
 10
4.826360
 20
2.168320
  0
VERTEX
  8
0
  6
CONTINUOUS
 10
4.858920
 20
2.140600
  0
VERTEX
  8
0
  6
CONTINUOUS
 10
4.856280
 20
1.383800
  0
VERTEX
  8
0
  6
CONTINUOUS
 10
4.823280
 20
1.411960
  0
SEQEND
  8
0
  0
SOLID
  8
0
 62
    15
 10
4.856280
 20
1.383800
 11
4.858920
 21
2.140600
 12
4.858040
 22
1.382040
 13
4.861120
 23
2.138840
  0
POLYLINE
  8
0
  6
CONTINUOUS
 66
     1
 40
0.000000
 41
0.000000
  0
VERTEX
  8
0
  6
CONTINUOUS
 10
4.856280
 20
1.383800
  0
VERTEX
  8
0
  6
CONTINUOUS
 10
4.858920
 20
2.140600
  0
VERTEX
  8
0
  6
CONTINUOUS
 10
4.861120
 20
2.138840
  0
VERTEX
  8
0
  6
CONTINUOUS
 10
4.858040
 20
1.382040
  0
VERTEX
  8
0
  6
CONTINUOUS
 10
4.856280
 20
1.383800
  0
SEQEND
  8
0
  0
SOLID
  8
0
 62
    15
 10
4.858040
 20
1.382040
 11
4.861120
 21
2.138840
 12
4.976840
 22
1.473560
 13
4.979920
 23
2.230360
  0
POLYLINE
  8
0
  6
CONTINUOUS
 66
     1
 40
0.000000
 41
0.000000
  0
VERTEX
  8
0
  6
CONTINUOUS
 10
4.858040
 20
1.382040
  0
VERTEX
  8
0
  6
CONTINUOUS
 10
4.861120
 20
2.138840
  0
VERTEX
  8
0
  6
CONTINUOUS
 10
4.979920
 20
2.230360
  0
VERTEX
  8
0
  6
CONTINUOUS
 10
4.976840
 20
1.473560
  0
VERTEX
  8
0
  6
CONTINUOUS
 10
4.858040
 20
1.382040
  0
SEQEND
  8
0
  0
SOLID
  8
0
 62
    15
 10
4.976840
 20
1.473560
 11
4.979920
 21
2.230360
 12
4.979040
 22
1.471360
 13
4.981680
 23
2.228160
  0
POLYLINE
  8
0
  6
CONTINUOUS
 66
     1
 40
0.000000
 41
0.000000
  0
VERTEX
  8
0
  6
CONTINUOUS
 10
4.976840
 20
1.473560
  0
VERTEX
  8
0
  6
CONTINUOUS
 10
4.979920
 20
2.230360
  0
VERTEX
  8
0
  6
CONTINUOUS
 10
4.981680
 20
2.228160
  0
VERTEX
  8
0
  6
CONTINUOUS
 10
4.979040
 20
1.471360
  0
VERTEX
  8
0
  6
CONTINUOUS
 10
4.976840
 20
1.473560
  0
SEQEND
  8
0
  0
SOLID
  8
0
 62
    15
 10
4.979040
 20
1.471360
 11
4.981680
 21
2.228160
 12
4.998400
 22
1.443640
 13
5.001040
 23
2.200000
  0
POLYLINE
  8
0
  6
CONTINUOUS
 66
     1
 40
0.000000
 41
0.000000
  0
VERTEX
  8
0
  6
CONTINUOUS
 10
4.979040
 20
1.471360
  0
VERTEX
  8
0
  6
CONTINUOUS
 10
4.981680
 20
2.228160
  0
VERTEX
  8
0
  6
CONTINUOUS
 10
5.001040
 20
2.200000
  0
VERTEX
  8
0
  6
CONTINUOUS
 10
4.998400
 20
1.443640
  0
VERTEX
  8
0
  6
CONTINUOUS
 10
4.979040
 20
1.471360
  0
SEQEND
  8
0
  0
SOLID
  8
0
 62
    15
 10
3.175040
 20
1.650440
 11
3.177680
 21
2.407240
 12
3.189560
 22
1.533840
 13
3.192200
 23
2.290640
  0
POLYLINE
  8
0
  6
CONTINUOUS
 66
     1
 40
0.000000
 41
0.000000
  0
VERTEX
  8
0
  6
CONTINUOUS
 10
3.175040
 20
1.650440
  0
VERTEX
  8
0
  6
CONTINUOUS
 10
3.177680
 20
2.407240
  0
VERTEX
  8
0
  6
CONTINUOUS
 10
3.192200
 20
2.290640
  0
VERTEX
  8
0
  6
CONTINUOUS
 10
3.189560
 20
1.533840
  0
VERTEX
  8
0
  6
CONTINUOUS
 10
3.175040
 20
1.650440
  0
SEQEND
  8
0
  0
SOLID
  8
0
 62
    15
 10
5.019960
 20
1.419440
 11
5.023040
 21
2.176240
 12
5.044160
 22
1.399640
 13
5.046800
 23
2.156440
  0
POLYLINE
  8
0
  6
CONTINUOUS
 66
     1
 40
0.000000
 41
0.000000
  0
VERTEX
  8
0
  6
CONTINUOUS
 10
5.019960
 20
1.419440
  0
VERTEX
  8
0
  6
CONTINUOUS
 10
5.023040
 20
2.176240
  0
VERTEX
  8
0
  6
CONTINUOUS
 10
5.046800
 20
2.156440
  0
VERTEX
  8
0
  6
CONTINUOUS
 10
5.044160
 20
1.399640
  0
VERTEX
  8
0
  6
CONTINUOUS
 10
5.019960
 20
1.419440
  0
SEQEND
  8
0
  0
SOLID
  8
0
 62
    15
 10
5.044160
 20
1.399640
 11
5.046800
 21
2.156440
 12
5.069680
 22
1.382920
 13
5.072320
 23
2.139720
  0
POLYLINE
  8
0
  6
CONTINUOUS
 66
     1
 40
0.000000
 41
0.000000
  0
VERTEX
  8
0
  6
CONTINUOUS
 10
5.044160
 20
1.399640
  0
VERTEX
  8
0
  6
CONTINUOUS
 10
5.046800
 20
2.156440
  0
VERTEX
  8
0
  6
CONTINUOUS
 10
5.072320
 20
2.139720
  0
VERTEX
  8
0
  6
CONTINUOUS
 10
5.069680
 20
1.382920
  0
VERTEX
  8
0
  6
CONTINUOUS
 10
5.044160
 20
1.399640
  0
SEQEND
  8
0
  0
SOLID
  8
0
 62
    15
 10
5.069680
 20
1.382920
 11
5.072320
 21
2.139720
 12
5.124680
 22
1.360480
 13
5.127320
 23
2.117280
  0
POLYLINE
  8
0
  6
CONTINUOUS
 66
     1
 40
0.000000
 41
0.000000
  0
VERTEX
  8
0
  6
CONTINUOUS
 10
5.069680
 20
1.382920
  0
VERTEX
  8
0
  6
CONTINUOUS
 10
5.072320
 20
2.139720
  0
VERTEX
  8
0
  6
CONTINUOUS
 10
5.127320
 20
2.117280
  0
VERTEX
  8
0
  6
CONTINUOUS
 10
5.124680
 20
1.360480
  0
VERTEX
  8
0
  6
CONTINUOUS
 10
5.069680
 20
1.382920
  0
SEQEND
  8
0
  0
SOLID
  8
0
 62
    15
 10
5.124680
 20
1.360480
 11
5.127320
 21
2.117280
 12
5.182320
 22
1.349920
 13
5.184960
 23
2.106720
  0
POLYLINE
  8
0
  6
CONTINUOUS
 66
     1
 40
0.000000
 41
0.000000
  0
VERTEX
  8
0
  6
CONTINUOUS
 10
5.124680
 20
1.360480
  0
VERTEX
  8
0
  6
CONTINUOUS
 10
5.127320
 20
2.117280
  0
VERTEX
  8
0
  6
CONTINUOUS
 10
5.184960
 20
2.106720
  0
VERTEX
  8
0
  6
CONTINUOUS
 10
5.182320
 20
1.349920
  0
VERTEX
  8
0
  6
CONTINUOUS
 10
5.124680
 20
1.360480
  0
SEQEND
  8
0
  0
SOLID
  8
0
 62
    15
 10
5.182320
 20
1.349920
 11
5.184960
 21
2.106720
 12
5.239080
 22
1.350360
 13
5.242160
 23
2.107160
  0
POLYLINE
  8
0
  6
CONTINUOUS
 66
     1
 40
0.000000
 41
0.000000
  0
VERTEX
  8
0
  6
CONTINUOUS
 10
5.182320
 20
1.349920
  0
VERTEX
  8
0
  6
CONTINUOUS
 10
5.184960
 20
2.106720
  0
VERTEX
  8
0
  6
CONTINUOUS
 10
5.242160
 20
2.107160
  0
VERTEX
  8
0
  6
CONTINUOUS
 10
5.239080
 20
1.350360
  0
VERTEX
  8
0
  6
CONTINUOUS
 10
5.182320
 20
1.349920
  0
SEQEND
  8
0
  0
SOLID
  8
0
 62
    15
 10
5.239080
 20
1.350360
 11
5.242160
 21
2.107160
 12
5.293200
 22
1.360040
 13
5.295840
 23
2.116840
  0
POLYLINE
  8
0
  6
CONTINUOUS
 66
     1
 40
0.000000
 41
0.000000
  0
VERTEX
  8
0
  6
CONTINUOUS
 10
5.239080
 20
1.350360
  0
VERTEX
  8
0
  6
CONTINUOUS
 10
5.242160
 20
2.107160
  0
VERTEX
  8
0
  6
CONTINUOUS
 10
5.295840
 20
2.116840
  0
VERTEX
  8
0
  6
CONTINUOUS
 10
5.293200
 20
1.360040
  0
VERTEX
  8
0
  6
CONTINUOUS
 10
5.239080
 20
1.350360
  0
SEQEND
  8
0
  0
SOLID
  8
0
 62
    15
 10
5.293200
 20
1.360040
 11
5.295840
 21
2.116840
 12
5.340720
 22
1.377200
 13
5.343360
 23
2.134000
  0
POLYLINE
  8
0
  6
CONTINUOUS
 66
     1
 40
0.000000
 41
0.000000
  0
VERTEX
  8
0
  6
CONTINUOUS
 10
5.293200
 20
1.360040
  0
VERTEX
  8
0
  6
CONTINUOUS
 10
5.295840
 20
2.116840
  0
VERTEX
  8
0
  6
CONTINUOUS
 10
5.343360
 20
2.134000
  0
VERTEX
  8
0
  6
CONTINUOUS
 10
5.340720
 20
1.377200
  0
VERTEX
  8
0
  6
CONTINUOUS
 10
5.293200
 20
1.360040
  0
SEQEND
  8
0
  0
SOLID
  8
0
 62
    15
 10
5.340720
 20
1.377200
 11
5.343360
 21
2.134000
 12
5.379000
 22
1.400520
 13
5.382080
 23
2.157320
  0
POLYLINE
  8
0
  6
CONTINUOUS
 66
     1
 40
0.000000
 41
0.000000
  0
VERTEX
  8
0
  6
CONTINUOUS
 10
5.340720
 20
1.377200
  0
VERTEX
  8
0
  6
CONTINUOUS
 10
5.343360
 20
2.134000
  0
VERTEX
  8
0
  6
CONTINUOUS
 10
5.382080
 20
2.157320
  0
VERTEX
  8
0
  6
CONTINUOUS
 10
5.379000
 20
1.400520
  0
VERTEX
  8
0
  6
CONTINUOUS
 10
5.340720
 20
1.377200
  0
SEQEND
  8
0
  0
SOLID
  8
0
 62
    15
 10
5.379000
 20
1.400520
 11
5.382080
 21
2.157320
 12
5.408480
 22
1.425600
 13
5.411120
 23
2.182400
  0
POLYLINE
  8
0
  6
CONTINUOUS
 66
     1
 40
0.000000
 41
0.000000
  0
VERTEX
  8
0
  6
CONTINUOUS
 10
5.379000
 20
1.400520
  0
VERTEX
  8
0
  6
CONTINUOUS
 10
5.382080
 20
2.157320
  0
VERTEX
  8
0
  6
CONTINUOUS
 10
5.411120
 20
2.182400
  0
VERTEX
  8
0
  6
CONTINUOUS
 10
5.408480
 20
1.425600
  0
VERTEX
  8
0
  6
CONTINUOUS
 10
5.379000
 20
1.400520
  0
SEQEND
  8
0
  0
SOLID
  8
0
 62
    15
 10
5.408480
 20
1.425600
 11
5.411120
 21
2.182400
 12
5.431800
 22
1.448920
 13
5.434880
 23
2.205720
  0
POLYLINE
  8
0
  6
CONTINUOUS
 66
     1
 40
0.000000
 41
0.000000
  0
VERTEX
  8
0
  6
CONTINUOUS
 10
5.408480
 20
1.425600
  0
VERTEX
  8
0
  6
CONTINUOUS
 10
5.411120
 20
2.182400
  0
VERTEX
  8
0
  6
CONTINUOUS
 10
5.434880
 20
2.205720
  0
VERTEX
  8
0
  6
CONTINUOUS
 10
5.431800
 20
1.448920
  0
VERTEX
  8
0
  6
CONTINUOUS
 10
5.408480
 20
1.425600
  0
SEQEND
  8
0
  0
SOLID
  8
0
 62
    15
 10
5.431800
 20
1.448920
 11
5.434880
 21
2.205720
 12
5.450280
 22
1.470480
 13
5.453360
 23
2.227280
  0
POLYLINE
  8
0
  6
CONTINUOUS
 66
     1
 40
0.000000
 41
0.000000
  0
VERTEX
  8
0
  6
CONTINUOUS
 10
5.431800
 20
1.448920
  0
VERTEX
  8
0
  6
CONTINUOUS
 10
5.434880
 20
2.205720
  0
VERTEX
  8
0
  6
CONTINUOUS
 10
5.453360
 20
2.227280
  0
VERTEX
  8
0
  6
CONTINUOUS
 10
5.450280
 20
1.470480
  0
VERTEX
  8
0
  6
CONTINUOUS
 10
5.431800
 20
1.448920
  0
SEQEND
  8
0
  0
SOLID
  8
0
 62
    15
 10
5.450280
 20
1.470480
 11
5.453360
 21
2.227280
 12
5.464800
 22
1.490280
 13
5.467880
 23
2.247080
  0
POLYLINE
  8
0
  6
CONTINUOUS
 66
     1
 40
0.000000
 41
0.000000
  0
VERTEX
  8
0
  6
CONTINUOUS
 10
5.450280
 20
1.470480
  0
VERTEX
  8
0
  6
CONTINUOUS
 10
5.453360
 20
2.227280
  0
VERTEX
  8
0
  6
CONTINUOUS
 10
5.467880
 20
2.247080
  0
VERTEX
  8
0
  6
CONTINUOUS
 10
5.464800
 20
1.490280
  0
VERTEX
  8
0
  6
CONTINUOUS
 10
5.450280
 20
1.470480
  0
SEQEND
  8
0
  0
SOLID
  8
0
 62
    15
 10
5.464800
 20
1.490280
 11
5.467880
 21
2.247080
 12
5.476680
 22
1.508320
 13
5.479320
 23
2.265120
  0
POLYLINE
  8
0
  6
CONTINUOUS
 66
     1
 40
0.000000
 41
0.000000
  0
VERTEX
  8
0
  6
CONTINUOUS
 10
5.464800
 20
1.490280
  0
VERTEX
  8
0
  6
CONTINUOUS
 10
5.467880
 20
2.247080
  0
VERTEX
  8
0
  6
CONTINUOUS
 10
5.479320
 20
2.265120
  0
VERTEX
  8
0
  6
CONTINUOUS
 10
5.476680
 20
1.508320
  0
VERTEX
  8
0
  6
CONTINUOUS
 10
5.464800
 20
1.490280
  0
SEQEND
  8
0
  0
SOLID
  8
0
 62
    15
 10
5.476680
 20
1.508320
 11
5.479320
 21
2.265120
 12
5.481520
 22
1.516680
 13
5.484600
 23
2.273480
  0
POLYLINE
  8
0
  6
CONTINUOUS
 66
     1
 40
0.000000
 41
0.000000
  0
VERTEX
  8
0
  6
CONTINUOUS
 10
5.476680
 20
1.508320
  0
VERTEX
  8
0
  6
CONTINUOUS
 10
5.479320
 20
2.265120
  0
VERTEX
  8
0
  6
CONTINUOUS
 10
5.484600
 20
2.273480
  0
VERTEX
  8
0
  6
CONTINUOUS
 10
5.481520
 20
1.516680
  0
VERTEX
  8
0
  6
CONTINUOUS
 10
5.476680
 20
1.508320
  0
SEQEND
  8
0
  0
SOLID
  8
0
 62
    15
 10
5.481520
 20
1.516680
 11
5.484600
 21
2.273480
 12
5.486360
 22
1.524600
 13
5.489000
 23
2.281400
  0
POLYLINE
  8
0
  6
CONTINUOUS
 66
     1
 40
0.000000
 41
0.000000
  0
VERTEX
  8
0
  6
CONTINUOUS
 10
5.481520
 20
1.516680
  0
VERTEX
  8
0
  6
CONTINUOUS
 10
5.484600
 20
2.273480
  0
VERTEX
  8
0
  6
CONTINUOUS
 10
5.489000
 20
2.281400
  0
VERTEX
  8
0
  6
CONTINUOUS
 10
5.486360
 20
1.524600
  0
VERTEX
  8
0
  6
CONTINUOUS
 10
5.481520
 20
1.516680
  0
SEQEND
  8
0
  0
SOLID
  8
0
 62
    15
 10
5.486360
 20
1.524600
 11
5.489000
 21
2.281400
 12
5.503960
 22
1.550560
 13
5.507040
 23
2.307360
  0
POLYLINE
  8
0
  6
CONTINUOUS
 66
     1
 40
0.000000
 41
0.000000
  0
VERTEX
  8
0
  6
CONTINUOUS
 10
5.486360
 20
1.524600
  0
VERTEX
  8
0
  6
CONTINUOUS
 10
5.489000
 20
2.281400
  0
VERTEX
  8
0
  6
CONTINUOUS
 10
5.507040
 20
2.307360
  0
VERTEX
  8
0
  6
CONTINUOUS
 10
5.503960
 20
1.550560
  0
VERTEX
  8
0
  6
CONTINUOUS
 10
5.486360
 20
1.524600
  0
SEQEND
  8
0
  0
SOLID
  8
0
 62
    15
 10
5.503960
 20
1.550560
 11
5.507040
 21
2.307360
 12
5.522880
 22
1.570360
 13
5.525960
 23
2.327160
  0
POLYLINE
  8
0
  6
CONTINUOUS
 66
     1
 40
0.000000
 41
0.000000
  0
VERTEX
  8
0
  6
CONTINUOUS
 10
5.503960
 20
1.550560
  0
VERTEX
  8
0
  6
CONTINUOUS
 10
5.507040
 20
2.307360
  0
VERTEX
  8
0
  6
CONTINUOUS
 10
5.525960
 20
2.327160
  0
VERTEX
  8
0
  6
CONTINUOUS
 10
5.522880
 20
1.570360
  0
VERTEX
  8
0
  6
CONTINUOUS
 10
5.503960
 20
1.550560
  0
SEQEND
  8
0
  0
SOLID
  8
0
 62
    15
 10
5.522880
 20
1.570360
 11
5.525960
 21
2.327160
 12
5.546640
 22
1.590600
 13
5.549280
 23
2.347400
  0
POLYLINE
  8
0
  6
CONTINUOUS
 66
     1
 40
0.000000
 41
0.000000
  0
VERTEX
  8
0
  6
CONTINUOUS
 10
5.522880
 20
1.570360
  0
VERTEX
  8
0
  6
CONTINUOUS
 10
5.525960
 20
2.327160
  0
VERTEX
  8
0
  6
CONTINUOUS
 10
5.549280
 20
2.347400
  0
VERTEX
  8
0
  6
CONTINUOUS
 10
5.546640
 20
1.590600
  0
VERTEX
  8
0
  6
CONTINUOUS
 10
5.522880
 20
1.570360
  0
SEQEND
  8
0
  0
SOLID
  8
0
 62
    15
 10
5.546640
 20
1.590600
 11
5.549280
 21
2.347400
 12
5.573920
 22
1.607760
 13
5.577000
 23
2.364560
  0
POLYLINE
  8
0
  6
CONTINUOUS
 66
     1
 40
0.000000
 41
0.000000
  0
VERTEX
  8
0
  6
CONTINUOUS
 10
5.546640
 20
1.590600
  0
VERTEX
  8
0
  6
CONTINUOUS
 10
5.549280
 20
2.347400
  0
VERTEX
  8
0
  6
CONTINUOUS
 10
5.577000
 20
2.364560
  0
VERTEX
  8
0
  6
CONTINUOUS
 10
5.573920
 20
1.607760
  0
VERTEX
  8
0
  6
CONTINUOUS
 10
5.546640
 20
1.590600
  0
SEQEND
  8
0
  0
SOLID
  8
0
 62
    15
 10
5.573920
 20
1.607760
 11
5.577000
 21
2.364560
 12
5.605160
 22
1.618760
 13
5.607800
 23
2.375120
  0
POLYLINE
  8
0
  6
CONTINUOUS
 66
     1
 40
0.000000
 41
0.000000
  0
VERTEX
  8
0
  6
CONTINUOUS
 10
5.573920
 20
1.607760
  0
VERTEX
  8
0
  6
CONTINUOUS
 10
5.577000
 20
2.364560
  0
VERTEX
  8
0
  6
CONTINUOUS
 10
5.607800
 20
2.375120
  0
VERTEX
  8
0
  6
CONTINUOUS
 10
5.605160
 20
1.618760
  0
VERTEX
  8
0
  6
CONTINUOUS
 10
5.573920
 20
1.607760
  0
SEQEND
  8
0
  0
SOLID
  8
0
 62
    15
 10
5.605160
 20
1.618760
 11
5.607800
 21
2.375120
 12
5.638600
 22
1.619640
 13
5.641680
 23
2.376440
  0
POLYLINE
  8
0
  6
CONTINUOUS
 66
     1
 40
0.000000
 41
0.000000
  0
VERTEX
  8
0
  6
CONTINUOUS
 10
5.605160
 20
1.618760
  0
VERTEX
  8
0
  6
CONTINUOUS
 10
5.607800
 20
2.375120
  0
VERTEX
  8
0
  6
CONTINUOUS
 10
5.641680
 20
2.376440
  0
VERTEX
  8
0
  6
CONTINUOUS
 10
5.638600
 20
1.619640
  0
VERTEX
  8
0
  6
CONTINUOUS
 10
5.605160
 20
1.618760
  0
SEQEND
  8
0
  0
SOLID
  8
0
 62
    15
 10
5.638600
 20
1.619640
 11
5.641680
 21
2.376440
 12
5.674680
 22
1.607760
 13
5.677320
 23
2.364560
  0
POLYLINE
  8
0
  6
CONTINUOUS
 66
     1
 40
0.000000
 41
0.000000
  0
VERTEX
  8
0
  6
CONTINUOUS
 10
5.638600
 20
1.619640
  0
VERTEX
  8
0
  6
CONTINUOUS
 10
5.641680
 20
2.376440
  0
VERTEX
  8
0
  6
CONTINUOUS
 10
5.677320
 20
2.364560
  0
VERTEX
  8
0
  6
CONTINUOUS
 10
5.674680
 20
1.607760
  0
VERTEX
  8
0
  6
CONTINUOUS
 10
5.638600
 20
1.619640
  0
SEQEND
  8
0
  0
SOLID
  8
0
 62
    15
 10
5.674680
 20
1.607760
 11
5.677320
 21
2.364560
 12
5.693160
 22
1.595880
 13
5.695800
 23
2.352680
  0
POLYLINE
  8
0
  6
CONTINUOUS
 66
     1
 40
0.000000
 41
0.000000
  0
VERTEX
  8
0
  6
CONTINUOUS
 10
5.674680
 20
1.607760
  0
VERTEX
  8
0
  6
CONTINUOUS
 10
5.677320
 20
2.364560
  0
VERTEX
  8
0
  6
CONTINUOUS
 10
5.695800
 20
2.352680
  0
VERTEX
  8
0
  6
CONTINUOUS
 10
5.693160
 20
1.595880
  0
VERTEX
  8
0
  6
CONTINUOUS
 10
5.674680
 20
1.607760
  0
SEQEND
  8
0
  0
SOLID
  8
0
 62
    15
 10
5.693160
 20
1.595880
 11
5.695800
 21
2.352680
 12
5.711640
 22
1.579600
 13
5.714720
 23
2.336400
  0
POLYLINE
  8
0
  6
CONTINUOUS
 66
     1
 40
0.000000
 41
0.000000
  0
VERTEX
  8
0
  6
CONTINUOUS
 10
5.693160
 20
1.595880
  0
VERTEX
  8
0
  6
CONTINUOUS
 10
5.695800
 20
2.352680
  0
VERTEX
  8
0
  6
CONTINUOUS
 10
5.714720
 20
2.336400
  0
VERTEX
  8
0
  6
CONTINUOUS
 10
5.711640
 20
1.579600
  0
VERTEX
  8
0
  6
CONTINUOUS
 10
5.693160
 20
1.595880
  0
SEQEND
  8
0
  0
SOLID
  8
0
 62
    15
 10
5.711640
 20
1.579600
 11
5.714720
 21
2.336400
 12
5.731000
 22
1.558480
 13
5.733640
 23
2.315280
  0
POLYLINE
  8
0
  6
CONTINUOUS
 66
     1
 40
0.000000
 41
0.000000
  0
VERTEX
  8
0
  6
CONTINUOUS
 10
5.711640
 20
1.579600
  0
VERTEX
  8
0
  6
CONTINUOUS
 10
5.714720
 20
2.336400
  0
VERTEX
  8
0
  6
CONTINUOUS
 10
5.733640
 20
2.315280
  0
VERTEX
  8
0
  6
CONTINUOUS
 10
5.731000
 20
1.558480
  0
VERTEX
  8
0
  6
CONTINUOUS
 10
5.711640
 20
1.579600
  0
SEQEND
  8
0
  0
SOLID
  8
0
 62
    15
 10
5.731000
 20
1.558480
 11
5.733640
 21
2.315280
 12
5.749920
 22
1.532080
 13
5.752560
 23
2.288440
  0
POLYLINE
  8
0
  6
CONTINUOUS
 66
     1
 40
0.000000
 41
0.000000
  0
VERTEX
  8
0
  6
CONTINUOUS
 10
5.731000
 20
1.558480
  0
VERTEX
  8
0
  6
CONTINUOUS
 10
5.733640
 20
2.315280
  0
VERTEX
  8
0
  6
CONTINUOUS
 10
5.752560
 20
2.288440
  0
VERTEX
  8
0
  6
CONTINUOUS
 10
5.749920
 20
1.532080
  0
VERTEX
  8
0
  6
CONTINUOUS
 10
5.731000
 20
1.558480
  0
SEQEND
  8
0
  0
SOLID
  8
0
 62
    15
 10
5.749920
 20
1.532080
 11
5.752560
 21
2.288440
 12
5.752120
 22
1.529880
 13
5.754760
 23
2.286680
  0
POLYLINE
  8
0
  6
CONTINUOUS
 66
     1
 40
0.000000
 41
0.000000
  0
VERTEX
  8
0
  6
CONTINUOUS
 10
5.749920
 20
1.532080
  0
VERTEX
  8
0
  6
CONTINUOUS
 10
5.752560
 20
2.288440
  0
VERTEX
  8
0
  6
CONTINUOUS
 10
5.754760
 20
2.286680
  0
VERTEX
  8
0
  6
CONTINUOUS
 10
5.752120
 20
1.529880
  0
VERTEX
  8
0
  6
CONTINUOUS
 10
5.749920
 20
1.532080
  0
SEQEND
  8
0
  0
SOLID
  8
0
 62
    15
 10
5.752120
 20
1.529880
 11
5.754760
 21
2.286680
 12
5.772800
 22
1.529880
 13
5.775440
 23
2.286680
  0
POLYLINE
  8
0
  6
CONTINUOUS
 66
     1
 40
0.000000
 41
0.000000
  0
VERTEX
  8
0
  6
CONTINUOUS
 10
5.752120
 20
1.529880
  0
VERTEX
  8
0
  6
CONTINUOUS
 10
5.754760
 20
2.286680
  0
VERTEX
  8
0
  6
CONTINUOUS
 10
5.775440
 20
2.286680
  0
VERTEX
  8
0
  6
CONTINUOUS
 10
5.772800
 20
1.529880
  0
VERTEX
  8
0
  6
CONTINUOUS
 10
5.752120
 20
1.529880
  0
SEQEND
  8
0
  0
SOLID
  8
0
 62
    15
 10
5.772800
 20
1.529880
 11
5.775440
 21
2.286680
 12
5.785120
 22
1.650440
 13
5.788200
 23
2.407240
  0
POLYLINE
  8
0
  6
CONTINUOUS
 66
     1
 40
0.000000
 41
0.000000
  0
VERTEX
  8
0
  6
CONTINUOUS
 10
5.772800
 20
1.529880
  0
VERTEX
  8
0
  6
CONTINUOUS
 10
5.775440
 20
2.286680
  0
VERTEX
  8
0
  6
CONTINUOUS
 10
5.788200
 20
2.407240
  0
VERTEX
  8
0
  6
CONTINUOUS
 10
5.785120
 20
1.650440
  0
VERTEX
  8
0
  6
CONTINUOUS
 10
5.772800
 20
1.529880
  0
SEQEND
  8
0
  0
SOLID
  8
0
 62
    15
 10
6.595600
 20
1.479720
 11
6.598680
 21
2.236520
 12
6.639600
 22
1.479720
 13
6.642240
 23
2.236520
  0
POLYLINE
  8
0
  6
CONTINUOUS
 66
     1
 40
0.000000
 41
0.000000
  0
VERTEX
  8
0
  6
CONTINUOUS
 10
6.595600
 20
1.479720
  0
VERTEX
  8
0
  6
CONTINUOUS
 10
6.598680
 20
2.236520
  0
VERTEX
  8
0
  6
CONTINUOUS
 10
6.642240
 20
2.236520
  0
VERTEX
  8
0
  6
CONTINUOUS
 10
6.639600
 20
1.479720
  0
VERTEX
  8
0
  6
CONTINUOUS
 10
6.595600
 20
1.479720
  0
SEQEND
  8
0
  0
SOLID
  8
0
 62
    15
 10
6.595600
 20
1.650440
 11
6.598680
 21
2.407240
 12
6.595600
 22
1.479720
 13
6.598680
 23
2.236520
  0
POLYLINE
  8
0
  6
CONTINUOUS
 66
     1
 40
0.000000
 41
0.000000
  0
VERTEX
  8
0
  6
CONTINUOUS
 10
6.595600
 20
1.650440
  0
VERTEX
  8
0
  6
CONTINUOUS
 10
6.598680
 20
2.407240
  0
VERTEX
  8
0
  6
CONTINUOUS
 10
6.598680
 20
2.236520
  0
VERTEX
  8
0
  6
CONTINUOUS
 10
6.595600
 20
1.479720
  0
VERTEX
  8
0
  6
CONTINUOUS
 10
6.595600
 20
1.650440
  0
SEQEND
  8
0
  0
SOLID
  8
0
 62
    15
 10
5.785120
 20
1.650440
 11
5.788200
 21
2.407240
 12
6.595600
 22
1.650440
 13
6.598680
 23
2.407240
  0
POLYLINE
  8
0
  6
CONTINUOUS
 66
     1
 40
0.000000
 41
0.000000
  0
VERTEX
  8
0
  6
CONTINUOUS
 10
5.785120
 20
1.650440
  0
VERTEX
  8
0
  6
CONTINUOUS
 10
5.788200
 20
2.407240
  0
VERTEX
  8
0
  6
CONTINUOUS
 10
6.598680
 20
2.407240
  0
VERTEX
  8
0
  6
CONTINUOUS
 10
6.595600
 20
1.650440
  0
VERTEX
  8
0
  6
CONTINUOUS
 10
5.785120
 20
1.650440
  0
SEQEND
  8
0
  0
SOLID
  8
0
 62
    15
 10
6.639600
 20
1.479720
 11
6.642240
 21
2.236520
 12
6.662480
 22
1.522400
 13
6.665560
 23
2.279200
  0
POLYLINE
  8
0
  6
CONTINUOUS
 66
     1
 40
0.000000
 41
0.000000
  0
VERTEX
  8
0
  6
CONTINUOUS
 10
6.639600
 20
1.479720
  0
VERTEX
  8
0
  6
CONTINUOUS
 10
6.642240
 20
2.236520
  0
VERTEX
  8
0
  6
CONTINUOUS
 10
6.665560
 20
2.279200
  0
VERTEX
  8
0
  6
CONTINUOUS
 10
6.662480
 20
1.522400
  0
VERTEX
  8
0
  6
CONTINUOUS
 10
6.639600
 20
1.479720
  0
SEQEND
  8
0
  0
SOLID
  8
0
 62
    15
 10
6.662480
 20
1.522400
 11
6.665560
 21
2.279200
 12
6.689320
 22
1.557160
 13
6.691960
 23
2.313520
  0
POLYLINE
  8
0
  6
CONTINUOUS
 66
     1
 40
0.000000
 41
0.000000
  0
VERTEX
  8
0
  6
CONTINUOUS
 10
6.662480
 20
1.522400
  0
VERTEX
  8
0
  6
CONTINUOUS
 10
6.665560
 20
2.279200
  0
VERTEX
  8
0
  6
CONTINUOUS
 10
6.691960
 20
2.313520
  0
VERTEX
  8
0
  6
CONTINUOUS
 10
6.689320
 20
1.557160
  0
VERTEX
  8
0
  6
CONTINUOUS
 10
6.662480
 20
1.522400
  0
SEQEND
  8
0
  0
SOLID
  8
0
 62
    15
 10
6.689320
 20
1.557160
 11
6.691960
 21
2.313520
 12
6.718800
 22
1.584000
 13
6.721880
 23
2.340360
  0
POLYLINE
  8
0
  6
CONTINUOUS
 66
     1
 40
0.000000
 41
0.000000
  0
VERTEX
  8
0
  6
CONTINUOUS
 10
6.689320
 20
1.557160
  0
VERTEX
  8
0
  6
CONTINUOUS
 10
6.691960
 20
2.313520
  0
VERTEX
  8
0
  6
CONTINUOUS
 10
6.721880
 20
2.340360
  0
VERTEX
  8
0
  6
CONTINUOUS
 10
6.718800
 20
1.584000
  0
VERTEX
  8
0
  6
CONTINUOUS
 10
6.689320
 20
1.557160
  0
SEQEND
  8
0
  0
SOLID
  8
0
 62
    15
 10
6.718800
 20
1.584000
 11
6.721880
 21
2.340360
 12
6.750920
 22
1.603360
 13
6.753560
 23
2.360160
  0
POLYLINE
  8
0
  6
CONTINUOUS
 66
     1
 40
0.000000
 41
0.000000
  0
VERTEX
  8
0
  6
CONTINUOUS
 10
6.718800
 20
1.584000
  0
VERTEX
  8
0
  6
CONTINUOUS
 10
6.721880
 20
2.340360
  0
VERTEX
  8
0
  6
CONTINUOUS
 10
6.753560
 20
2.360160
  0
VERTEX
  8
0
  6
CONTINUOUS
 10
6.750920
 20
1.603360
  0
VERTEX
  8
0
  6
CONTINUOUS
 10
6.718800
 20
1.584000
  0
SEQEND
  8
0
  0
SOLID
  8
0
 62
    15
 10
6.750920
 20
1.603360
 11
6.753560
 21
2.360160
 12
6.783920
 22
1.616120
 13
6.787000
 23
2.372480
  0
POLYLINE
  8
0
  6
CONTINUOUS
 66
     1
 40
0.000000
 41
0.000000
  0
VERTEX
  8
0
  6
CONTINUOUS
 10
6.750920
 20
1.603360
  0
VERTEX
  8
0
  6
CONTINUOUS
 10
6.753560
 20
2.360160
  0
VERTEX
  8
0
  6
CONTINUOUS
 10
6.787000
 20
2.372480
  0
VERTEX
  8
0
  6
CONTINUOUS
 10
6.783920
 20
1.616120
  0
VERTEX
  8
0
  6
CONTINUOUS
 10
6.750920
 20
1.603360
  0
SEQEND
  8
0
  0
SOLID
  8
0
 62
    15
 10
6.783920
 20
1.616120
 11
6.787000
 21
2.372480
 12
6.818240
 22
1.622280
 13
6.820880
 23
2.379080
  0
POLYLINE
  8
0
  6
CONTINUOUS
 66
     1
 40
0.000000
 41
0.000000
  0
VERTEX
  8
0
  6
CONTINUOUS
 10
6.783920
 20
1.616120
  0
VERTEX
  8
0
  6
CONTINUOUS
 10
6.787000
 20
2.372480
  0
VERTEX
  8
0
  6
CONTINUOUS
 10
6.820880
 20
2.379080
  0
VERTEX
  8
0
  6
CONTINUOUS
 10
6.818240
 20
1.622280
  0
VERTEX
  8
0
  6
CONTINUOUS
 10
6.783920
 20
1.616120
  0
SEQEND
  8
0
  0
SOLID
  8
0
 62
    15
 10
6.818240
 20
1.622280
 11
6.820880
 21
2.379080
 12
6.852120
 22
1.622280
 13
6.855200
 23
2.379080
  0
POLYLINE
  8
0
  6
CONTINUOUS
 66
     1
 40
0.000000
 41
0.000000
  0
VERTEX
  8
0
  6
CONTINUOUS
 10
6.818240
 20
1.622280
  0
VERTEX
  8
0
  6
CONTINUOUS
 10
6.820880
 20
2.379080
  0
VERTEX
  8
0
  6
CONTINUOUS
 10
6.855200
 20
2.379080
  0
VERTEX
  8
0
  6
CONTINUOUS
 10
6.852120
 20
1.622280
  0
VERTEX
  8
0
  6
CONTINUOUS
 10
6.818240
 20
1.622280
  0
SEQEND
  8
0
  0
SOLID
  8
0
 62
    15
 10
6.852120
 20
1.622280
 11
6.855200
 21
2.379080
 12
6.886000
 22
1.617000
 13
6.888640
 23
2.373800
  0
POLYLINE
  8
0
  6
CONTINUOUS
 66
     1
 40
0.000000
 41
0.000000
  0
VERTEX
  8
0
  6
CONTINUOUS
 10
6.852120
 20
1.622280
  0
VERTEX
  8
0
  6
CONTINUOUS
 10
6.855200
 20
2.379080
  0
VERTEX
  8
0
  6
CONTINUOUS
 10
6.888640
 20
2.373800
  0
VERTEX
  8
0
  6
CONTINUOUS
 10
6.886000
 20
1.617000
  0
VERTEX
  8
0
  6
CONTINUOUS
 10
6.852120
 20
1.622280
  0
SEQEND
  8
0
  0
SOLID
  8
0
 62
    15
 10
6.886000
 20
1.617000
 11
6.888640
 21
2.373800
 12
6.918120
 22
1.606880
 13
6.920760
 23
2.363240
  0
POLYLINE
  8
0
  6
CONTINUOUS
 66
     1
 40
0.000000
 41
0.000000
  0
VERTEX
  8
0
  6
CONTINUOUS
 10
6.886000
 20
1.617000
  0
VERTEX
  8
0
  6
CONTINUOUS
 10
6.888640
 20
2.373800
  0
VERTEX
  8
0
  6
CONTINUOUS
 10
6.920760
 20
2.363240
  0
VERTEX
  8
0
  6
CONTINUOUS
 10
6.918120
 20
1.606880
  0
VERTEX
  8
0
  6
CONTINUOUS
 10
6.886000
 20
1.617000
  0
SEQEND
  8
0
  0
SOLID
  8
0
 62
    15
 10
6.918120
 20
1.606880
 11
6.920760
 21
2.363240
 12
6.948040
 22
1.591480
 13
6.951120
 23
2.348280
  0
POLYLINE
  8
0
  6
CONTINUOUS
 66
     1
 40
0.000000
 41
0.000000
  0
VERTEX
  8
0
  6
CONTINUOUS
 10
6.918120
 20
1.606880
  0
VERTEX
  8
0
  6
CONTINUOUS
 10
6.920760
 20
2.363240
  0
VERTEX
  8
0
  6
CONTINUOUS
 10
6.951120
 20
2.348280
  0
VERTEX
  8
0
  6
CONTINUOUS
 10
6.948040
 20
1.591480
  0
VERTEX
  8
0
  6
CONTINUOUS
 10
6.918120
 20
1.606880
  0
SEQEND
  8
0
  0
SOLID
  8
0
 62
    15
 10
6.948040
 20
1.591480
 11
6.951120
 21
2.348280
 12
6.975760
 22
1.572560
 13
6.978400
 23
2.328920
  0
POLYLINE
  8
0
  6
CONTINUOUS
 66
     1
 40
0.000000
 41
0.000000
  0
VERTEX
  8
0
  6
CONTINUOUS
 10
6.948040
 20
1.591480
  0
VERTEX
  8
0
  6
CONTINUOUS
 10
6.951120
 20
2.348280
  0
VERTEX
  8
0
  6
CONTINUOUS
 10
6.978400
 20
2.328920
  0
VERTEX
  8
0
  6
CONTINUOUS
 10
6.975760
 20
1.572560
  0
VERTEX
  8
0
  6
CONTINUOUS
 10
6.948040
 20
1.591480
  0
SEQEND
  8
0
  0
SOLID
  8
0
 62
    15
 10
6.975760
 20
1.572560
 11
6.978400
 21
2.328920
 12
6.999960
 22
1.549240
 13
7.002600
 23
2.306040
  0
POLYLINE
  8
0
  6
CONTINUOUS
 66
     1
 40
0.000000
 41
0.000000
  0
VERTEX
  8
0
  6
CONTINUOUS
 10
6.975760
 20
1.572560
  0
VERTEX
  8
0
  6
CONTINUOUS
 10
6.978400
 20
2.328920
  0
VERTEX
  8
0
  6
CONTINUOUS
 10
7.002600
 20
2.306040
  0
VERTEX
  8
0
  6
CONTINUOUS
 10
6.999960
 20
1.549240
  0
VERTEX
  8
0
  6
CONTINUOUS
 10
6.975760
 20
1.572560
  0
SEQEND
  8
0
  0
SOLID
  8
0
 62
    15
 10
6.999960
 20
1.549240
 11
7.002600
 21
2.306040
 12
7.019760
 22
1.522840
 13
7.022400
 23
2.279640
  0
POLYLINE
  8
0
  6
CONTINUOUS
 66
     1
 40
0.000000
 41
0.000000
  0
VERTEX
  8
0
  6
CONTINUOUS
 10
6.999960
 20
1.549240
  0
VERTEX
  8
0
  6
CONTINUOUS
 10
7.002600
 20
2.306040
  0
VERTEX
  8
0
  6
CONTINUOUS
 10
7.022400
 20
2.279640
  0
VERTEX
  8
0
  6
CONTINUOUS
 10
7.019760
 20
1.522840
  0
VERTEX
  8
0
  6
CONTINUOUS
 10
6.999960
 20
1.549240
  0
SEQEND
  8
0
  0
SOLID
  8
0
 62
    15
 10
7.034720
 20
1.493360
 11
7.037800
 21
2.250160
 12
7.044400
 22
1.461680
 13
7.047040
 23
2.218480
  0
POLYLINE
  8
0
  6
CONTINUOUS
 66
     1
 40
0.000000
 41
0.000000
  0
VERTEX
  8
0
  6
CONTINUOUS
 10
7.034720
 20
1.493360
  0
VERTEX
  8
0
  6
CONTINUOUS
 10
7.037800
 20
2.250160
  0
VERTEX
  8
0
  6
CONTINUOUS
 10
7.047040
 20
2.218480
  0
VERTEX
  8
0
  6
CONTINUOUS
 10
7.044400
 20
1.461680
  0
VERTEX
  8
0
  6
CONTINUOUS
 10
7.034720
 20
1.493360
  0
SEQEND
  8
0
  0
SOLID
  8
0
 62
    15
 10
7.019760
 20
1.522840
 11
7.022400
 21
2.279640
 12
7.034720
 22
1.493360
 13
7.037800
 23
2.250160
  0
POLYLINE
  8
0
  6
CONTINUOUS
 66
     1
 40
0.000000
 41
0.000000
  0
VERTEX
  8
0
  6
CONTINUOUS
 10
7.019760
 20
1.522840
  0
VERTEX
  8
0
  6
CONTINUOUS
 10
7.022400
 20
2.279640
  0
VERTEX
  8
0
  6
CONTINUOUS
 10
7.037800
 20
2.250160
  0
VERTEX
  8
0
  6
CONTINUOUS
 10
7.034720
 20
1.493360
  0
VERTEX
  8
0
  6
CONTINUOUS
 10
7.019760
 20
1.522840
  0
SEQEND
  8
0
  0
SOLID
  8
0
 62
    15
 10
7.044400
 20
1.461680
 11
7.047040
 21
2.218480
 12
7.047920
 22
1.427800
 13
7.050560
 23
2.184600
  0
POLYLINE
  8
0
  6
CONTINUOUS
 66
     1
 40
0.000000
 41
0.000000
  0
VERTEX
  8
0
  6
CONTINUOUS
 10
7.044400
 20
1.461680
  0
VERTEX
  8
0
  6
CONTINUOUS
 10
7.047040
 20
2.218480
  0
VERTEX
  8
0
  6
CONTINUOUS
 10
7.050560
 20
2.184600
  0
VERTEX
  8
0
  6
CONTINUOUS
 10
7.047920
 20
1.427800
  0
VERTEX
  8
0
  6
CONTINUOUS
 10
7.044400
 20
1.461680
  0
SEQEND
  8
0
  0
SOLID
  8
0
 62
    15
 10
7.047920
 20
1.427800
 11
7.050560
 21
2.184600
 12
7.047920
 22
0.840400
 13
7.050560
 23
1.596760
  0
POLYLINE
  8
0
  6
CONTINUOUS
 66
     1
 40
0.000000
 41
0.000000
  0
VERTEX
  8
0
  6
CONTINUOUS
 10
7.047920
 20
1.427800
  0
VERTEX
  8
0
  6
CONTINUOUS
 10
7.050560
 20
2.184600
  0
VERTEX
  8
0
  6
CONTINUOUS
 10
7.050560
 20
1.596760
  0
VERTEX
  8
0
  6
CONTINUOUS
 10
7.047920
 20
0.840400
  0
VERTEX
  8
0
  6
CONTINUOUS
 10
7.047920
 20
1.427800
  0
SEQEND
  8
0
  0
SOLID
  8
0
 62
    15
 10
2.358400
 20
1.650440
 11
2.361040
 21
2.407240
 12
3.168440
 22
1.650440
 13
3.171520
 23
2.407240
  0
POLYLINE
  8
0
  6
CONTINUOUS
 66
     1
 40
0.000000
 41
0.000000
  0
VERTEX
  8
0
  6
CONTINUOUS
 10
2.358400
 20
1.650440
  0
VERTEX
  8
0
  6
CONTINUOUS
 10
2.361040
 20
2.407240
  0
VERTEX
  8
0
  6
CONTINUOUS
 10
3.171520
 20
2.407240
  0
VERTEX
  8
0
  6
CONTINUOUS
 10
3.168440
 20
1.650440
  0
VERTEX
  8
0
  6
CONTINUOUS
 10
2.358400
 20
1.650440
  0
SEQEND
  8
0
  0
SOLID
  8
0
 62
    15
 10
3.168440
 20
1.650440
 11
3.171520
 21
2.407240
 12
3.175040
 22
1.650440
 13
3.177680
 23
2.407240
  0
POLYLINE
  8
0
  6
CONTINUOUS
 66
     1
 40
0.000000
 41
0.000000
  0
VERTEX
  8
0
  6
CONTINUOUS
 10
3.168440
 20
1.650440
  0
VERTEX
  8
0
  6
CONTINUOUS
 10
3.171520
 20
2.407240
  0
VERTEX
  8
0
  6
CONTINUOUS
 10
3.177680
 20
2.407240
  0
VERTEX
  8
0
  6
CONTINUOUS
 10
3.175040
 20
1.650440
  0
VERTEX
  8
0
  6
CONTINUOUS
 10
3.168440
 20
1.650440
  0
SEQEND
  8
0
  0
POLYLINE
  8
0
  6
CONTINUOUS
 66
     1
 40
0.000000
 41
0.000000
  0
VERTEX
  8
0
  6
CONTINUOUS
 10
3.175040
 20
1.650440
  0
VERTEX
  8
0
  6
CONTINUOUS
 10
3.189560
 20
1.533840
  0
VERTEX
  8
0
  6
CONTINUOUS
 10
3.223000
 20
1.533840
  0
VERTEX
  8
0
  6
CONTINUOUS
 10
3.236200
 20
1.559360
  0
VERTEX
  8
0
  6
CONTINUOUS
 10
3.250720
 20
1.580040
  0
VERTEX
  8
0
  6
CONTINUOUS
 10
3.265680
 20
1.596320
  0
VERTEX
  8
0
  6
CONTINUOUS
 10
3.280640
 20
1.608200
  0
VERTEX
  8
0
  6
CONTINUOUS
 10
3.311880
 20
1.621400
  0
VERTEX
  8
0
  6
CONTINUOUS
 10
3.343560
 20
1.620960
  0
VERTEX
  8
0
  6
CONTINUOUS
 10
3.374360
 20
1.609520
  0
VERTEX
  8
0
  6
CONTINUOUS
 10
3.403400
 20
1.589280
  0
VERTEX
  8
0
  6
CONTINUOUS
 10
3.429360
 20
1.562000
  0
VERTEX
  8
0
  6
CONTINUOUS
 10
3.451800
 20
1.529880
  0
VERTEX
  8
0
  6
CONTINUOUS
 10
3.478640
 20
1.484560
  0
VERTEX
  8
0
  6
CONTINUOUS
 10
3.501520
 20
1.455080
  0
VERTEX
  8
0
  6
CONTINUOUS
 10
3.530560
 20
1.424280
  0
VERTEX
  8
0
  6
CONTINUOUS
 10
3.565760
 20
1.394800
  0
VERTEX
  8
0
  6
CONTINUOUS
 10
3.606680
 20
1.370600
  0
VERTEX
  8
0
  6
CONTINUOUS
 10
3.653320
 20
1.353440
  0
VERTEX
  8
0
  6
CONTINUOUS
 10
3.710520
 20
1.346400
  0
VERTEX
  8
0
  6
CONTINUOUS
 10
3.745720
 20
1.349480
  0
VERTEX
  8
0
  6
CONTINUOUS
 10
3.778280
 20
1.355640
  0
VERTEX
  8
0
  6
CONTINUOUS
 10
3.809520
 20
1.365320
  0
VERTEX
  8
0
  6
CONTINUOUS
 10
3.839880
 20
1.378520
  0
VERTEX
  8
0
  6
CONTINUOUS
 10
3.869360
 20
1.395240
  0
VERTEX
  8
0
  6
CONTINUOUS
 10
3.899720
 20
1.416360
  0
VERTEX
  8
0
  6
CONTINUOUS
 10
3.931400
 20
1.441880
  0
VERTEX
  8
0
  6
CONTINUOUS
 10
3.966600
 20
1.473560
  0
VERTEX
  8
0
  6
CONTINUOUS
 10
4.081000
 20
1.367520
  0
VERTEX
  8
0
  6
CONTINUOUS
 10
4.083200
 20
1.367080
  0
VERTEX
  8
0
  6
CONTINUOUS
 10
4.135560
 20
1.418120
  0
VERTEX
  8
0
  6
CONTINUOUS
 10
4.189240
 20
1.459480
  0
VERTEX
  8
0
  6
CONTINUOUS
 10
4.243360
 20
1.492480
  0
VERTEX
  8
0
  6
CONTINUOUS
 10
4.297920
 20
1.516680
  0
VERTEX
  8
0
  6
CONTINUOUS
 10
4.352040
 20
1.533400
  0
VERTEX
  8
0
  6
CONTINUOUS
 10
4.406160
 20
1.543080
  0
VERTEX
  8
0
  6
CONTINUOUS
 10
4.459400
 20
1.546160
  0
VERTEX
  8
0
  6
CONTINUOUS
 10
4.511760
 20
1.543520
  0
VERTEX
  8
0
  6
CONTINUOUS
 10
4.562800
 20
1.535600
  0
VERTEX
  8
0
  6
CONTINUOUS
 10
4.612080
 20
1.523280
  0
VERTEX
  8
0
  6
CONTINUOUS
 10
4.659600
 20
1.506560
  0
VERTEX
  8
0
  6
CONTINUOUS
 10
4.704920
 20
1.486320
  0
VERTEX
  8
0
  6
CONTINUOUS
 10
4.787200
 20
1.438360
  0
VERTEX
  8
0
  6
CONTINUOUS
 10
4.823280
 20
1.411960
  0
VERTEX
  8
0
  6
CONTINUOUS
 10
4.858040
 20
1.382040
  0
VERTEX
  8
0
  6
CONTINUOUS
 10
4.976840
 20
1.473560
  0
VERTEX
  8
0
  6
CONTINUOUS
 10
4.998400
 20
1.443640
  0
VERTEX
  8
0
  6
CONTINUOUS
 10
5.019960
 20
1.419440
  0
VERTEX
  8
0
  6
CONTINUOUS
 10
5.044160
 20
1.399640
  0
VERTEX
  8
0
  6
CONTINUOUS
 10
5.069680
 20
1.382920
  0
VERTEX
  8
0
  6
CONTINUOUS
 10
5.124680
 20
1.360480
  0
VERTEX
  8
0
  6
CONTINUOUS
 10
5.182320
 20
1.349920
  0
VERTEX
  8
0
  6
CONTINUOUS
 10
5.239080
 20
1.350360
  0
VERTEX
  8
0
  6
CONTINUOUS
 10
5.293200
 20
1.360040
  0
VERTEX
  8
0
  6
CONTINUOUS
 10
5.340720
 20
1.377200
  0
VERTEX
  8
0
  6
CONTINUOUS
 10
5.379000
 20
1.400520
  0
VERTEX
  8
0
  6
CONTINUOUS
 10
5.408480
 20
1.425600
  0
VERTEX
  8
0
  6
CONTINUOUS
 10
5.431800
 20
1.448920
  0
VERTEX
  8
0
  6
CONTINUOUS
 10
5.450280
 20
1.470480
  0
VERTEX
  8
0
  6
CONTINUOUS
 10
5.476680
 20
1.508320
  0
VERTEX
  8
0
  6
CONTINUOUS
 10
5.503960
 20
1.550560
  0
VERTEX
  8
0
  6
CONTINUOUS
 10
5.522880
 20
1.570360
  0
VERTEX
  8
0
  6
CONTINUOUS
 10
5.546640
 20
1.590600
  0
VERTEX
  8
0
  6
CONTINUOUS
 10
5.573920
 20
1.607760
  0
VERTEX
  8
0
  6
CONTINUOUS
 10
5.605160
 20
1.618760
  0
VERTEX
  8
0
  6
CONTINUOUS
 10
5.638600
 20
1.619640
  0
VERTEX
  8
0
  6
CONTINUOUS
 10
5.674680
 20
1.607760
  0
VERTEX
  8
0
  6
CONTINUOUS
 10
5.693160
 20
1.595880
  0
VERTEX
  8
0
  6
CONTINUOUS
 10
5.711640
 20
1.579600
  0
VERTEX
  8
0
  6
CONTINUOUS
 10
5.731000
 20
1.558480
  0
VERTEX
  8
0
  6
CONTINUOUS
 10
5.752120
 20
1.529880
  0
VERTEX
  8
0
  6
CONTINUOUS
 10
5.772800
 20
1.529880
  0
VERTEX
  8
0
  6
CONTINUOUS
 10
5.785120
 20
1.650440
  0
VERTEX
  8
0
  6
CONTINUOUS
 10
6.595600
 20
1.650440
  0
VERTEX
  8
0
  6
CONTINUOUS
 10
6.595600
 20
1.479720
  0
VERTEX
  8
0
  6
CONTINUOUS
 10
6.639600
 20
1.479720
  0
VERTEX
  8
0
  6
CONTINUOUS
 10
6.662480
 20
1.522400
  0
VERTEX
  8
0
  6
CONTINUOUS
 10
6.689320
 20
1.557160
  0
VERTEX
  8
0
  6
CONTINUOUS
 10
6.718800
 20
1.584000
  0
VERTEX
  8
0
  6
CONTINUOUS
 10
6.750920
 20
1.603360
  0
VERTEX
  8
0
  6
CONTINUOUS
 10
6.783920
 20
1.616120
  0
VERTEX
  8
0
  6
CONTINUOUS
 10
6.818240
 20
1.622280
  0
VERTEX
  8
0
  6
CONTINUOUS
 10
6.852120
 20
1.622280
  0
VERTEX
  8
0
  6
CONTINUOUS
 10
6.886000
 20
1.617000
  0
VERTEX
  8
0
  6
CONTINUOUS
 10
6.918120
 20
1.606880
  0
VERTEX
  8
0
  6
CONTINUOUS
 10
6.948040
 20
1.591480
  0
VERTEX
  8
0
  6
CONTINUOUS
 10
6.975760
 20
1.572560
  0
VERTEX
  8
0
  6
CONTINUOUS
 10
6.999960
 20
1.549240
  0
VERTEX
  8
0
  6
CONTINUOUS
 10
7.019760
 20
1.522840
  0
VERTEX
  8
0
  6
CONTINUOUS
 10
7.034720
 20
1.493360
  0
VERTEX
  8
0
  6
CONTINUOUS
 10
7.044400
 20
1.461680
  0
VERTEX
  8
0
  6
CONTINUOUS
 10
7.047920
 20
1.427800
  0
VERTEX
  8
0
  6
CONTINUOUS
 10
7.047920
 20
0.840400
  0
VERTEX
  8
0
  6
CONTINUOUS
 10
2.358400
 20
0.840400
  0
VERTEX
  8
0
  6
CONTINUOUS
 10
2.358400
 20
1.650440
  0
VERTEX
  8
0
  6
CONTINUOUS
 10
3.175040
 20
1.650440
  0
SEQEND
  8
0
  0
TEXT
  8
0
 10
4.564560
 20
0.589160
 40
0.138106
  1
297
 41
1.000000
  7
SN0
 71
     0
 72
     5
 11
4.841526
 21
0.589160
  0
TEXT
  8
0
 10
4.159320
 20
0.397760
 40
0.138106
  1
3/4" x 4-11/16"
 41
1.000000
  7
SN0
 71
     0
 72
     5
 11
5.243985
 21
0.397760
  0
LINE
  8
0
  6
DOT
 10
6.592520
 20
1.481920
 11
6.592520
 21
0.842600
  0
TEXT
  8
0
 10
7.733880
 20
4.081880
 40
0.138106
  1
case
 41
1.000000
  7
SN0
 71
     0
 72
     5
 11
8.084742
 21
4.081880
  0
TEXT
  8
0
 10
7.770840
 20
3.890040
 40
0.138106
  1
297
 41
1.000000
  7
SN0
 71
     0
 72
     5
 11
8.047806
 21
3.890040
  0
ENDSEC
  0
EOF
