  0
SECTION
  2
HEADER
  9
$ACADVER
  1
AC1006
  9
$EXTMIN
 10
4.522760
 20
0.425040
  9
$EXTMAX
 10
7.991720
 20
3.934920
  9
$LTSCALE
 40
0.044000
  9
$PDMODE
 70
    35
  9
$PDSIZE
 40
0.035200
  0
ENDSEC
  0
SECTION
  2
TABLES
  0
TABLE
  2
LTYPE
 70
     9
  0
LTYPE
  2
CONTINUOUS
 70
    64
  3
Solid line
 72
    65
 73
     0
 40
0.000000
  0
LTYPE
  2
DASHED
 70
    64
  3
__ __ __ __ __ __ __ __ __ __ __ __ __ __ __
 72
    65
 73
     2
 40
0.000330
 49
0.000220
 49
-0.000110
  0
LTYPE
  2
HIDDEN
 70
    64
  3
 _ _ _ _ _ _ _ _ _ _ _ _ _ _ _ _ _ _ _ _ _ _
 72
    65
 73
     2
 40
0.000165
 49
0.000110
 49
-0.000055
  0
LTYPE
  2
CENTER
 70
    64
  3
____ _ ____ _ ____ _ ____ _ ____ _ ____ _ ____
 72
    65
 73
     4
 40
0.000880
 49
0.000550
 49
-0.000110
 49
0.000110
 49
-0.000110
  0
LTYPE
  2
PHANTOM
 70
    64
  3
_____ _ _ _____ _ _ _____ _ _ _____ _ _ ____
 72
    65
 73
     6
 40
0.001100
 49
0.000550
 49
-0.000110
 49
0.000110
 49
-0.000110
 49
0.000110
 49
-0.000110
  0
LTYPE
  2
DOT
 70
    64
  3
...............................................
 72
    65
 73
     2
 40
0.000110
 49
0.000000
 49
-0.000110
  0
LTYPE
  2
DASHDOT
 70
    64
  3
__ . __ . __ . __ . __ . __ . __ . __ . __ . __
 72
    65
 73
     4
 40
0.000440
 49
0.000220
 49
-0.000110
 49
0.000000
 49
-0.000110
  0
LTYPE
  2
BORDER
 70
    64
  3
__ __ . __ __ . __ __ . __ __ . __ __ . __ __
 72
    65
 73
     6
 40
0.000770
 49
0.000220
 49
-0.000110
 49
0.000220
 49
-0.000110
 49
0.000000
 49
-0.000110
  0
LTYPE
  2
DIVIDE
 70
    64
  3
__ . . __ . . __ . . __ . . __ . . __ . . __
 72
    65
 73
     6
 40
0.000550
 49
0.000220
 49
-0.000110
 49
0.000000
 49
-0.000110
 49
0.000000
 49
-0.000110
  0
LTYPE
  2
DOTDOT
 70
    64
  3
 . .  . .  . .  . .  . .  . . 
 72
    65
 73
     5
 40
0.000242
 49
-0.000110
 49
0.000000
 49
-0.000110
 49
0.000000
 49
-0.000110
  0
ENDTAB
  0
TABLE
  2
STYLE
 70
     2
  0
STYLE
 70
     0
  2
SN0
 40
0.000000
 41
0.000440
 50
0.000000
 71
     0
 42
0.000000
  3
ROMAND
  0
STYLE
 70
    68
  2
SV0
 40
0.000000
 41
0.000440
 50
0.000000
 71
     0
 42
0.000000
  3
ROMAND
  0
ENDTAB
  0
TABLE
  2
LAYER
 70
     3
  0
LAYER
  2
FOREGROUND
 70
    64
 62
     7
  6
CONTINUOUS
  0
LAYER
  2
BACKGROUND
 70
    65
 62
    -7
  6
CONTINUOUS
  0
LAYER
  2
0
 70
    64
 62
     7
  6
CONTINUOUS
  0
ENDTAB
  0
ENDSEC
  0
SECTION
  2
ENTITIES
  0
POLYLINE
  8
FOREGROUND
  6
CONTINUOUS
 66
     1
 40
0.000000
 41
0.000000
  0
VERTEX
  8
FOREGROUND
  6
CONTINUOUS
 10
0.000000
 20
4.359960
  0
VERTEX
  8
FOREGROUND
  6
CONTINUOUS
 10
8.499920
 20
4.359960
  0
VERTEX
  8
FOREGROUND
  6
CONTINUOUS
 10
8.499920
 20
-6.640040
  0
VERTEX
  8
FOREGROUND
  6
CONTINUOUS
 10
0.000000
 20
-6.640040
  0
VERTEX
  8
FOREGROUND
  6
CONTINUOUS
 10
0.000000
 20
4.359960
  0
SEQEND
  8
0
  0
POLYLINE
  8
FOREGROUND
  6
CONTINUOUS
 66
     1
 40
0.000000
 41
0.000000
  0
VERTEX
  8
FOREGROUND
  6
CONTINUOUS
 10
0.000000
 20
4.359960
  0
VERTEX
  8
FOREGROUND
  6
CONTINUOUS
 10
8.499920
 20
4.359960
  0
VERTEX
  8
FOREGROUND
  6
CONTINUOUS
 10
8.499920
 20
-6.640040
  0
VERTEX
  8
FOREGROUND
  6
CONTINUOUS
 10
0.000000
 20
-6.640040
  0
VERTEX
  8
FOREGROUND
  6
CONTINUOUS
 10
0.000000
 20
4.359960
  0
SEQEND
  8
0
  0
POLYLINE
  8
0
  6
CONTINUOUS
 66
     1
 40
0.014080
 41
0.014080
  0
VERTEX
  8
0
  6
CONTINUOUS
 10
6.803720
 20
3.523080
  0
VERTEX
  8
0
  6
CONTINUOUS
 10
6.776000
 20
3.535840
  0
VERTEX
  8
0
  6
CONTINUOUS
 10
6.738600
 20
3.559160
  0
VERTEX
  8
0
  6
CONTINUOUS
 10
6.705600
 20
3.587320
  0
VERTEX
  8
0
  6
CONTINUOUS
 10
6.686240
 20
3.608000
  0
VERTEX
  8
0
  6
CONTINUOUS
 10
6.668200
 20
3.630880
  0
VERTEX
  8
0
  6
CONTINUOUS
 10
6.652800
 20
3.655080
  0
VERTEX
  8
0
  6
CONTINUOUS
 10
6.638720
 20
3.680600
  0
VERTEX
  8
0
  6
CONTINUOUS
 10
6.626400
 20
3.707880
  0
VERTEX
  8
0
  6
CONTINUOUS
 10
6.615840
 20
3.736480
  0
VERTEX
  8
0
  6
CONTINUOUS
 10
6.607480
 20
3.765960
  0
VERTEX
  8
0
  6
CONTINUOUS
 10
6.600440
 20
3.796760
  0
VERTEX
  8
0
  6
CONTINUOUS
 10
6.595160
 20
3.828000
  0
VERTEX
  8
0
  6
CONTINUOUS
 10
6.589440
 20
3.893560
  0
VERTEX
  8
0
  6
CONTINUOUS
 10
6.589000
 20
3.927440
  0
VERTEX
  8
0
  6
CONTINUOUS
 10
6.466240
 20
3.927440
  0
VERTEX
  8
0
  6
CONTINUOUS
 10
6.466240
 20
1.362680
  0
VERTEX
  8
0
  6
CONTINUOUS
 10
7.199720
 20
1.362680
  0
VERTEX
  8
0
  6
CONTINUOUS
 10
7.197520
 20
2.037640
  0
VERTEX
  8
0
  6
CONTINUOUS
 10
7.170240
 20
2.038520
  0
VERTEX
  8
0
  6
CONTINUOUS
 10
7.122720
 20
2.043360
  0
VERTEX
  8
0
  6
CONTINUOUS
 10
7.078720
 20
2.051280
  0
VERTEX
  8
0
  6
CONTINUOUS
 10
7.038680
 20
2.063160
  0
VERTEX
  8
0
  6
CONTINUOUS
 10
7.002600
 20
2.078120
  0
VERTEX
  8
0
  6
CONTINUOUS
 10
6.970920
 20
2.097040
  0
VERTEX
  8
0
  6
CONTINUOUS
 10
6.943640
 20
2.119040
  0
VERTEX
  8
0
  6
CONTINUOUS
 10
6.931760
 20
2.131360
  0
VERTEX
  8
0
  6
CONTINUOUS
 10
6.911960
 20
2.159080
  0
VERTEX
  8
0
  6
CONTINUOUS
 10
6.904040
 20
2.174040
  0
VERTEX
  8
0
  6
CONTINUOUS
 10
6.892160
 20
2.207040
  0
VERTEX
  8
0
  6
CONTINUOUS
 10
6.888200
 20
2.224640
  0
VERTEX
  8
0
  6
CONTINUOUS
 10
6.885560
 20
2.243560
  0
VERTEX
  8
0
  6
CONTINUOUS
 10
6.884680
 20
2.262920
  0
VERTEX
  8
0
  6
CONTINUOUS
 10
6.887760
 20
2.304720
  0
VERTEX
  8
0
  6
CONTINUOUS
 10
6.891280
 20
2.327160
  0
VERTEX
  8
0
  6
CONTINUOUS
 10
6.903600
 20
2.374240
  0
VERTEX
  8
0
  6
CONTINUOUS
 10
6.922520
 20
2.425280
  0
VERTEX
  8
0
  6
CONTINUOUS
 10
6.948480
 20
2.479840
  0
VERTEX
  8
0
  6
CONTINUOUS
 10
6.995120
 20
2.563000
  0
VERTEX
  8
0
  6
CONTINUOUS
 10
7.037800
 20
2.645280
  0
VERTEX
  8
0
  6
CONTINUOUS
 10
7.074760
 20
2.727120
  0
VERTEX
  8
0
  6
CONTINUOUS
 10
7.094560
 20
2.780800
  0
VERTEX
  8
0
  6
CONTINUOUS
 10
7.109520
 20
2.833600
  0
VERTEX
  8
0
  6
CONTINUOUS
 10
7.114800
 20
2.859120
  0
VERTEX
  8
0
  6
CONTINUOUS
 10
7.120520
 20
2.908840
  0
VERTEX
  8
0
  6
CONTINUOUS
 10
7.120960
 20
2.933040
  0
VERTEX
  8
0
  6
CONTINUOUS
 10
7.119640
 20
2.956800
  0
VERTEX
  8
0
  6
CONTINUOUS
 10
7.116560
 20
2.979680
  0
VERTEX
  8
0
  6
CONTINUOUS
 10
7.110840
 20
3.001680
  0
VERTEX
  8
0
  6
CONTINUOUS
 10
7.098960
 20
3.033800
  0
VERTEX
  8
0
  6
CONTINUOUS
 10
7.081800
 20
3.064160
  0
VERTEX
  8
0
  6
CONTINUOUS
 10
7.058920
 20
3.092320
  0
VERTEX
  8
0
  6
CONTINUOUS
 10
7.029880
 20
3.118280
  0
VERTEX
  8
0
  6
CONTINUOUS
 10
6.995120
 20
3.141600
  0
VERTEX
  8
0
  6
CONTINUOUS
 10
6.953320
 20
3.163160
  0
VERTEX
  8
0
  6
CONTINUOUS
 10
6.904920
 20
3.181640
  0
VERTEX
  8
0
  6
CONTINUOUS
 10
6.849040
 20
3.197480
  0
VERTEX
  8
0
  6
CONTINUOUS
 10
6.807680
 20
3.206280
  0
VERTEX
  8
0
  6
CONTINUOUS
 10
6.805920
 20
3.210680
  0
VERTEX
  8
0
  6
CONTINUOUS
 10
6.805920
 20
3.519120
  0
VERTEX
  8
0
  6
CONTINUOUS
 10
6.803720
 20
3.523080
  0
SEQEND
  8
0
  0
TEXT
  8
0
 10
7.630920
 20
3.773000
 40
0.138031
  1
base
 41
1.000000
  7
SN0
 71
     0
 72
     5
 11
7.990507
 21
3.773000
  0
TEXT
  8
0
 10
7.672720
 20
3.581600
 40
0.138031
  1
296
 41
1.000000
  7
SN0
 71
     0
 72
     5
 11
7.949474
 21
3.581600
  0
SOLID
  8
0
 62
    15
 10
4.942080
 20
1.833480
 11
5.578320
 21
2.191640
 12
4.945600
 22
1.795200
 13
5.581400
 23
2.153360
  0
POLYLINE
  8
0
  6
CONTINUOUS
 66
     1
 40
0.000000
 41
0.000000
  0
VERTEX
  8
0
  6
CONTINUOUS
 10
4.942080
 20
1.833480
  0
VERTEX
  8
0
  6
CONTINUOUS
 10
5.578320
 20
2.191640
  0
VERTEX
  8
0
  6
CONTINUOUS
 10
5.581400
 20
2.153360
  0
VERTEX
  8
0
  6
CONTINUOUS
 10
4.945600
 20
1.795200
  0
VERTEX
  8
0
  6
CONTINUOUS
 10
4.942080
 20
1.833480
  0
SEQEND
  8
0
  0
SOLID
  8
0
 62
    15
 10
4.863320
 20
2.780800
 11
5.499120
 21
3.139400
 12
4.865520
 22
2.776840
 13
5.501320
 23
3.135000
  0
POLYLINE
  8
0
  6
CONTINUOUS
 66
     1
 40
0.000000
 41
0.000000
  0
VERTEX
  8
0
  6
CONTINUOUS
 10
4.863320
 20
2.780800
  0
VERTEX
  8
0
  6
CONTINUOUS
 10
5.499120
 20
3.139400
  0
VERTEX
  8
0
  6
CONTINUOUS
 10
5.501320
 20
3.135000
  0
VERTEX
  8
0
  6
CONTINUOUS
 10
4.865520
 20
2.776840
  0
VERTEX
  8
0
  6
CONTINUOUS
 10
4.863320
 20
2.780800
  0
SEQEND
  8
0
  0
SOLID
  8
0
 62
    15
 10
4.865520
 20
2.776840
 11
5.501320
 21
3.135000
 12
4.906880
 22
2.768040
 13
5.542680
 23
3.126200
  0
POLYLINE
  8
0
  6
CONTINUOUS
 66
     1
 40
0.000000
 41
0.000000
  0
VERTEX
  8
0
  6
CONTINUOUS
 10
4.865520
 20
2.776840
  0
VERTEX
  8
0
  6
CONTINUOUS
 10
5.501320
 20
3.135000
  0
VERTEX
  8
0
  6
CONTINUOUS
 10
5.542680
 20
3.126200
  0
VERTEX
  8
0
  6
CONTINUOUS
 10
4.906880
 20
2.768040
  0
VERTEX
  8
0
  6
CONTINUOUS
 10
4.865520
 20
2.776840
  0
SEQEND
  8
0
  0
SOLID
  8
0
 62
    15
 10
4.906880
 20
2.768040
 11
5.542680
 21
3.126200
 12
4.944720
 22
2.757480
 13
5.580520
 23
3.116080
  0
POLYLINE
  8
0
  6
CONTINUOUS
 66
     1
 40
0.000000
 41
0.000000
  0
VERTEX
  8
0
  6
CONTINUOUS
 10
4.906880
 20
2.768040
  0
VERTEX
  8
0
  6
CONTINUOUS
 10
5.542680
 20
3.126200
  0
VERTEX
  8
0
  6
CONTINUOUS
 10
5.580520
 20
3.116080
  0
VERTEX
  8
0
  6
CONTINUOUS
 10
4.944720
 20
2.757480
  0
VERTEX
  8
0
  6
CONTINUOUS
 10
4.906880
 20
2.768040
  0
SEQEND
  8
0
  0
SOLID
  8
0
 62
    15
 10
4.944720
 20
2.757480
 11
5.580520
 21
3.116080
 12
4.979480
 22
2.746040
 13
5.615280
 23
3.104640
  0
POLYLINE
  8
0
  6
CONTINUOUS
 66
     1
 40
0.000000
 41
0.000000
  0
VERTEX
  8
0
  6
CONTINUOUS
 10
4.944720
 20
2.757480
  0
VERTEX
  8
0
  6
CONTINUOUS
 10
5.580520
 20
3.116080
  0
VERTEX
  8
0
  6
CONTINUOUS
 10
5.615280
 20
3.104640
  0
VERTEX
  8
0
  6
CONTINUOUS
 10
4.979480
 20
2.746040
  0
VERTEX
  8
0
  6
CONTINUOUS
 10
4.944720
 20
2.757480
  0
SEQEND
  8
0
  0
SOLID
  8
0
 62
    15
 10
4.979480
 20
2.746040
 11
5.615280
 21
3.104640
 12
5.011160
 22
2.733720
 13
5.646960
 23
3.091880
  0
POLYLINE
  8
0
  6
CONTINUOUS
 66
     1
 40
0.000000
 41
0.000000
  0
VERTEX
  8
0
  6
CONTINUOUS
 10
4.979480
 20
2.746040
  0
VERTEX
  8
0
  6
CONTINUOUS
 10
5.615280
 20
3.104640
  0
VERTEX
  8
0
  6
CONTINUOUS
 10
5.646960
 20
3.091880
  0
VERTEX
  8
0
  6
CONTINUOUS
 10
5.011160
 20
2.733720
  0
VERTEX
  8
0
  6
CONTINUOUS
 10
4.979480
 20
2.746040
  0
SEQEND
  8
0
  0
SOLID
  8
0
 62
    15
 10
5.011160
 20
2.733720
 11
5.646960
 21
3.091880
 12
5.064840
 22
2.704680
 13
5.701080
 23
3.063280
  0
POLYLINE
  8
0
  6
CONTINUOUS
 66
     1
 40
0.000000
 41
0.000000
  0
VERTEX
  8
0
  6
CONTINUOUS
 10
5.011160
 20
2.733720
  0
VERTEX
  8
0
  6
CONTINUOUS
 10
5.646960
 20
3.091880
  0
VERTEX
  8
0
  6
CONTINUOUS
 10
5.701080
 20
3.063280
  0
VERTEX
  8
0
  6
CONTINUOUS
 10
5.064840
 20
2.704680
  0
VERTEX
  8
0
  6
CONTINUOUS
 10
5.011160
 20
2.733720
  0
SEQEND
  8
0
  0
SOLID
  8
0
 62
    15
 10
5.064840
 20
2.704680
 11
5.701080
 21
3.063280
 12
5.107520
 22
2.671680
 13
5.743320
 23
3.029840
  0
POLYLINE
  8
0
  6
CONTINUOUS
 66
     1
 40
0.000000
 41
0.000000
  0
VERTEX
  8
0
  6
CONTINUOUS
 10
5.064840
 20
2.704680
  0
VERTEX
  8
0
  6
CONTINUOUS
 10
5.701080
 20
3.063280
  0
VERTEX
  8
0
  6
CONTINUOUS
 10
5.743320
 20
3.029840
  0
VERTEX
  8
0
  6
CONTINUOUS
 10
5.107520
 20
2.671680
  0
VERTEX
  8
0
  6
CONTINUOUS
 10
5.064840
 20
2.704680
  0
SEQEND
  8
0
  0
SOLID
  8
0
 62
    15
 10
5.107520
 20
2.671680
 11
5.743320
 21
3.029840
 12
5.139200
 22
2.634280
 13
5.775000
 23
2.992880
  0
POLYLINE
  8
0
  6
CONTINUOUS
 66
     1
 40
0.000000
 41
0.000000
  0
VERTEX
  8
0
  6
CONTINUOUS
 10
5.107520
 20
2.671680
  0
VERTEX
  8
0
  6
CONTINUOUS
 10
5.743320
 20
3.029840
  0
VERTEX
  8
0
  6
CONTINUOUS
 10
5.775000
 20
2.992880
  0
VERTEX
  8
0
  6
CONTINUOUS
 10
5.139200
 20
2.634280
  0
VERTEX
  8
0
  6
CONTINUOUS
 10
5.107520
 20
2.671680
  0
SEQEND
  8
0
  0
SOLID
  8
0
 62
    15
 10
5.139200
 20
2.634280
 11
5.775000
 21
2.992880
 12
5.161200
 22
2.593800
 13
5.797000
 23
2.952400
  0
POLYLINE
  8
0
  6
CONTINUOUS
 66
     1
 40
0.000000
 41
0.000000
  0
VERTEX
  8
0
  6
CONTINUOUS
 10
5.139200
 20
2.634280
  0
VERTEX
  8
0
  6
CONTINUOUS
 10
5.775000
 20
2.992880
  0
VERTEX
  8
0
  6
CONTINUOUS
 10
5.797000
 20
2.952400
  0
VERTEX
  8
0
  6
CONTINUOUS
 10
5.161200
 20
2.593800
  0
VERTEX
  8
0
  6
CONTINUOUS
 10
5.139200
 20
2.634280
  0
SEQEND
  8
0
  0
SOLID
  8
0
 62
    15
 10
5.161200
 20
2.593800
 11
5.797000
 21
2.952400
 12
5.173960
 22
2.550240
 13
5.809760
 23
2.908400
  0
POLYLINE
  8
0
  6
CONTINUOUS
 66
     1
 40
0.000000
 41
0.000000
  0
VERTEX
  8
0
  6
CONTINUOUS
 10
5.161200
 20
2.593800
  0
VERTEX
  8
0
  6
CONTINUOUS
 10
5.797000
 20
2.952400
  0
VERTEX
  8
0
  6
CONTINUOUS
 10
5.809760
 20
2.908400
  0
VERTEX
  8
0
  6
CONTINUOUS
 10
5.173960
 20
2.550240
  0
VERTEX
  8
0
  6
CONTINUOUS
 10
5.161200
 20
2.593800
  0
SEQEND
  8
0
  0
SOLID
  8
0
 62
    15
 10
5.173960
 20
2.550240
 11
5.809760
 21
2.908400
 12
5.178800
 22
2.503600
 13
5.814600
 23
2.862200
  0
POLYLINE
  8
0
  6
CONTINUOUS
 66
     1
 40
0.000000
 41
0.000000
  0
VERTEX
  8
0
  6
CONTINUOUS
 10
5.173960
 20
2.550240
  0
VERTEX
  8
0
  6
CONTINUOUS
 10
5.809760
 20
2.908400
  0
VERTEX
  8
0
  6
CONTINUOUS
 10
5.814600
 20
2.862200
  0
VERTEX
  8
0
  6
CONTINUOUS
 10
5.178800
 20
2.503600
  0
VERTEX
  8
0
  6
CONTINUOUS
 10
5.173960
 20
2.550240
  0
SEQEND
  8
0
  0
SOLID
  8
0
 62
    15
 10
5.178800
 20
2.503600
 11
5.814600
 21
2.862200
 12
5.176160
 22
2.454760
 13
5.811960
 23
2.813360
  0
POLYLINE
  8
0
  6
CONTINUOUS
 66
     1
 40
0.000000
 41
0.000000
  0
VERTEX
  8
0
  6
CONTINUOUS
 10
5.178800
 20
2.503600
  0
VERTEX
  8
0
  6
CONTINUOUS
 10
5.814600
 20
2.862200
  0
VERTEX
  8
0
  6
CONTINUOUS
 10
5.811960
 20
2.813360
  0
VERTEX
  8
0
  6
CONTINUOUS
 10
5.176160
 20
2.454760
  0
VERTEX
  8
0
  6
CONTINUOUS
 10
5.178800
 20
2.503600
  0
SEQEND
  8
0
  0
SOLID
  8
0
 62
    15
 10
5.176160
 20
2.454760
 11
5.811960
 21
2.813360
 12
5.166920
 22
2.403720
 13
5.802720
 23
2.762320
  0
POLYLINE
  8
0
  6
CONTINUOUS
 66
     1
 40
0.000000
 41
0.000000
  0
VERTEX
  8
0
  6
CONTINUOUS
 10
5.176160
 20
2.454760
  0
VERTEX
  8
0
  6
CONTINUOUS
 10
5.811960
 20
2.813360
  0
VERTEX
  8
0
  6
CONTINUOUS
 10
5.802720
 20
2.762320
  0
VERTEX
  8
0
  6
CONTINUOUS
 10
5.166920
 20
2.403720
  0
VERTEX
  8
0
  6
CONTINUOUS
 10
5.176160
 20
2.454760
  0
SEQEND
  8
0
  0
SOLID
  8
0
 62
    15
 10
5.166920
 20
2.403720
 11
5.802720
 21
2.762320
 12
5.151960
 22
2.351360
 13
5.787760
 23
2.709960
  0
POLYLINE
  8
0
  6
CONTINUOUS
 66
     1
 40
0.000000
 41
0.000000
  0
VERTEX
  8
0
  6
CONTINUOUS
 10
5.166920
 20
2.403720
  0
VERTEX
  8
0
  6
CONTINUOUS
 10
5.802720
 20
2.762320
  0
VERTEX
  8
0
  6
CONTINUOUS
 10
5.787760
 20
2.709960
  0
VERTEX
  8
0
  6
CONTINUOUS
 10
5.151960
 20
2.351360
  0
VERTEX
  8
0
  6
CONTINUOUS
 10
5.166920
 20
2.403720
  0
SEQEND
  8
0
  0
SOLID
  8
0
 62
    15
 10
5.151960
 20
2.351360
 11
5.787760
 21
2.709960
 12
5.132160
 22
2.297680
 13
5.767960
 23
2.656280
  0
POLYLINE
  8
0
  6
CONTINUOUS
 66
     1
 40
0.000000
 41
0.000000
  0
VERTEX
  8
0
  6
CONTINUOUS
 10
5.151960
 20
2.351360
  0
VERTEX
  8
0
  6
CONTINUOUS
 10
5.787760
 20
2.709960
  0
VERTEX
  8
0
  6
CONTINUOUS
 10
5.767960
 20
2.656280
  0
VERTEX
  8
0
  6
CONTINUOUS
 10
5.132160
 20
2.297680
  0
VERTEX
  8
0
  6
CONTINUOUS
 10
5.151960
 20
2.351360
  0
SEQEND
  8
0
  0
SOLID
  8
0
 62
    15
 10
5.132160
 20
2.297680
 11
5.767960
 21
2.656280
 12
5.081560
 22
2.188560
 13
5.717360
 23
2.546720
  0
POLYLINE
  8
0
  6
CONTINUOUS
 66
     1
 40
0.000000
 41
0.000000
  0
VERTEX
  8
0
  6
CONTINUOUS
 10
5.132160
 20
2.297680
  0
VERTEX
  8
0
  6
CONTINUOUS
 10
5.767960
 20
2.656280
  0
VERTEX
  8
0
  6
CONTINUOUS
 10
5.717360
 20
2.546720
  0
VERTEX
  8
0
  6
CONTINUOUS
 10
5.081560
 20
2.188560
  0
VERTEX
  8
0
  6
CONTINUOUS
 10
5.132160
 20
2.297680
  0
SEQEND
  8
0
  0
SOLID
  8
0
 62
    15
 10
5.081560
 20
2.188560
 11
5.717360
 21
2.546720
 12
5.021720
 22
2.079000
 13
5.657520
 23
2.437160
  0
POLYLINE
  8
0
  6
CONTINUOUS
 66
     1
 40
0.000000
 41
0.000000
  0
VERTEX
  8
0
  6
CONTINUOUS
 10
5.081560
 20
2.188560
  0
VERTEX
  8
0
  6
CONTINUOUS
 10
5.717360
 20
2.546720
  0
VERTEX
  8
0
  6
CONTINUOUS
 10
5.657520
 20
2.437160
  0
VERTEX
  8
0
  6
CONTINUOUS
 10
5.021720
 20
2.079000
  0
VERTEX
  8
0
  6
CONTINUOUS
 10
5.081560
 20
2.188560
  0
SEQEND
  8
0
  0
SOLID
  8
0
 62
    15
 10
5.021720
 20
2.079000
 11
5.657520
 21
2.437160
 12
4.991800
 22
2.022240
 13
5.628040
 23
2.380840
  0
POLYLINE
  8
0
  6
CONTINUOUS
 66
     1
 40
0.000000
 41
0.000000
  0
VERTEX
  8
0
  6
CONTINUOUS
 10
5.021720
 20
2.079000
  0
VERTEX
  8
0
  6
CONTINUOUS
 10
5.657520
 20
2.437160
  0
VERTEX
  8
0
  6
CONTINUOUS
 10
5.628040
 20
2.380840
  0
VERTEX
  8
0
  6
CONTINUOUS
 10
4.991800
 20
2.022240
  0
VERTEX
  8
0
  6
CONTINUOUS
 10
5.021720
 20
2.079000
  0
SEQEND
  8
0
  0
SOLID
  8
0
 62
    15
 10
4.991800
 20
2.022240
 11
5.628040
 21
2.380840
 12
4.969360
 22
1.969880
 13
5.605600
 23
2.328040
  0
POLYLINE
  8
0
  6
CONTINUOUS
 66
     1
 40
0.000000
 41
0.000000
  0
VERTEX
  8
0
  6
CONTINUOUS
 10
4.991800
 20
2.022240
  0
VERTEX
  8
0
  6
CONTINUOUS
 10
5.628040
 20
2.380840
  0
VERTEX
  8
0
  6
CONTINUOUS
 10
5.605600
 20
2.328040
  0
VERTEX
  8
0
  6
CONTINUOUS
 10
4.969360
 20
1.969880
  0
VERTEX
  8
0
  6
CONTINUOUS
 10
4.991800
 20
2.022240
  0
SEQEND
  8
0
  0
SOLID
  8
0
 62
    15
 10
4.969360
 20
1.969880
 11
5.605600
 21
2.328040
 12
4.953960
 22
1.920600
 13
5.589760
 23
2.279200
  0
POLYLINE
  8
0
  6
CONTINUOUS
 66
     1
 40
0.000000
 41
0.000000
  0
VERTEX
  8
0
  6
CONTINUOUS
 10
4.969360
 20
1.969880
  0
VERTEX
  8
0
  6
CONTINUOUS
 10
5.605600
 20
2.328040
  0
VERTEX
  8
0
  6
CONTINUOUS
 10
5.589760
 20
2.279200
  0
VERTEX
  8
0
  6
CONTINUOUS
 10
4.953960
 20
1.920600
  0
VERTEX
  8
0
  6
CONTINUOUS
 10
4.969360
 20
1.969880
  0
SEQEND
  8
0
  0
SOLID
  8
0
 62
    15
 10
4.953960
 20
1.920600
 11
5.589760
 21
2.279200
 12
4.944720
 22
1.875280
 13
5.580960
 23
2.233440
  0
POLYLINE
  8
0
  6
CONTINUOUS
 66
     1
 40
0.000000
 41
0.000000
  0
VERTEX
  8
0
  6
CONTINUOUS
 10
4.953960
 20
1.920600
  0
VERTEX
  8
0
  6
CONTINUOUS
 10
5.589760
 20
2.279200
  0
VERTEX
  8
0
  6
CONTINUOUS
 10
5.580960
 20
2.233440
  0
VERTEX
  8
0
  6
CONTINUOUS
 10
4.944720
 20
1.875280
  0
VERTEX
  8
0
  6
CONTINUOUS
 10
4.953960
 20
1.920600
  0
SEQEND
  8
0
  0
SOLID
  8
0
 62
    15
 10
4.944720
 20
1.875280
 11
5.580960
 21
2.233440
 12
4.942080
 22
1.833480
 13
5.578320
 23
2.191640
  0
POLYLINE
  8
0
  6
CONTINUOUS
 66
     1
 40
0.000000
 41
0.000000
  0
VERTEX
  8
0
  6
CONTINUOUS
 10
4.944720
 20
1.875280
  0
VERTEX
  8
0
  6
CONTINUOUS
 10
5.580960
 20
2.233440
  0
VERTEX
  8
0
  6
CONTINUOUS
 10
5.578320
 20
2.191640
  0
VERTEX
  8
0
  6
CONTINUOUS
 10
4.942080
 20
1.833480
  0
VERTEX
  8
0
  6
CONTINUOUS
 10
4.944720
 20
1.875280
  0
SEQEND
  8
0
  0
SOLID
  8
0
 62
    15
 10
4.863320
 20
3.089240
 11
5.499120
 21
3.447840
 12
4.863320
 22
2.780800
 13
5.499120
 23
3.139400
  0
POLYLINE
  8
0
  6
CONTINUOUS
 66
     1
 40
0.000000
 41
0.000000
  0
VERTEX
  8
0
  6
CONTINUOUS
 10
4.863320
 20
3.089240
  0
VERTEX
  8
0
  6
CONTINUOUS
 10
5.499120
 20
3.447840
  0
VERTEX
  8
0
  6
CONTINUOUS
 10
5.499120
 20
3.139400
  0
VERTEX
  8
0
  6
CONTINUOUS
 10
4.863320
 20
2.780800
  0
VERTEX
  8
0
  6
CONTINUOUS
 10
4.863320
 20
3.089240
  0
SEQEND
  8
0
  0
SOLID
  8
0
 62
    15
 10
4.945600
 20
1.795200
 11
5.581400
 21
2.153360
 12
4.954400
 22
1.760440
 13
5.590640
 23
2.119040
  0
POLYLINE
  8
0
  6
CONTINUOUS
 66
     1
 40
0.000000
 41
0.000000
  0
VERTEX
  8
0
  6
CONTINUOUS
 10
4.945600
 20
1.795200
  0
VERTEX
  8
0
  6
CONTINUOUS
 10
5.581400
 20
2.153360
  0
VERTEX
  8
0
  6
CONTINUOUS
 10
5.590640
 20
2.119040
  0
VERTEX
  8
0
  6
CONTINUOUS
 10
4.954400
 20
1.760440
  0
VERTEX
  8
0
  6
CONTINUOUS
 10
4.945600
 20
1.795200
  0
SEQEND
  8
0
  0
SOLID
  8
0
 62
    15
 10
4.954400
 20
1.760440
 11
5.590640
 21
2.119040
 12
4.969360
 22
1.729200
 13
5.605160
 23
2.087800
  0
POLYLINE
  8
0
  6
CONTINUOUS
 66
     1
 40
0.000000
 41
0.000000
  0
VERTEX
  8
0
  6
CONTINUOUS
 10
4.954400
 20
1.760440
  0
VERTEX
  8
0
  6
CONTINUOUS
 10
5.590640
 20
2.119040
  0
VERTEX
  8
0
  6
CONTINUOUS
 10
5.605160
 20
2.087800
  0
VERTEX
  8
0
  6
CONTINUOUS
 10
4.969360
 20
1.729200
  0
VERTEX
  8
0
  6
CONTINUOUS
 10
4.954400
 20
1.760440
  0
SEQEND
  8
0
  0
SOLID
  8
0
 62
    15
 10
4.969360
 20
1.729200
 11
5.605160
 21
2.087800
 12
4.989160
 22
1.701920
 13
5.624960
 23
2.060080
  0
POLYLINE
  8
0
  6
CONTINUOUS
 66
     1
 40
0.000000
 41
0.000000
  0
VERTEX
  8
0
  6
CONTINUOUS
 10
4.969360
 20
1.729200
  0
VERTEX
  8
0
  6
CONTINUOUS
 10
5.605160
 20
2.087800
  0
VERTEX
  8
0
  6
CONTINUOUS
 10
5.624960
 20
2.060080
  0
VERTEX
  8
0
  6
CONTINUOUS
 10
4.989160
 20
1.701920
  0
VERTEX
  8
0
  6
CONTINUOUS
 10
4.969360
 20
1.729200
  0
SEQEND
  8
0
  0
SOLID
  8
0
 62
    15
 10
4.989160
 20
1.701920
 11
5.624960
 21
2.060080
 12
5.013800
 22
1.677720
 13
5.650040
 23
2.036320
  0
POLYLINE
  8
0
  6
CONTINUOUS
 66
     1
 40
0.000000
 41
0.000000
  0
VERTEX
  8
0
  6
CONTINUOUS
 10
4.989160
 20
1.701920
  0
VERTEX
  8
0
  6
CONTINUOUS
 10
5.624960
 20
2.060080
  0
VERTEX
  8
0
  6
CONTINUOUS
 10
5.650040
 20
2.036320
  0
VERTEX
  8
0
  6
CONTINUOUS
 10
5.013800
 20
1.677720
  0
VERTEX
  8
0
  6
CONTINUOUS
 10
4.989160
 20
1.701920
  0
SEQEND
  8
0
  0
SOLID
  8
0
 62
    15
 10
5.013800
 20
1.677720
 11
5.650040
 21
2.036320
 12
5.043720
 22
1.657480
 13
5.679520
 23
2.016080
  0
POLYLINE
  8
0
  6
CONTINUOUS
 66
     1
 40
0.000000
 41
0.000000
  0
VERTEX
  8
0
  6
CONTINUOUS
 10
5.013800
 20
1.677720
  0
VERTEX
  8
0
  6
CONTINUOUS
 10
5.650040
 20
2.036320
  0
VERTEX
  8
0
  6
CONTINUOUS
 10
5.679520
 20
2.016080
  0
VERTEX
  8
0
  6
CONTINUOUS
 10
5.043720
 20
1.657480
  0
VERTEX
  8
0
  6
CONTINUOUS
 10
5.013800
 20
1.677720
  0
SEQEND
  8
0
  0
SOLID
  8
0
 62
    15
 10
5.043720
 20
1.657480
 11
5.679520
 21
2.016080
 12
5.077600
 22
1.640320
 13
5.713400
 23
1.998920
  0
POLYLINE
  8
0
  6
CONTINUOUS
 66
     1
 40
0.000000
 41
0.000000
  0
VERTEX
  8
0
  6
CONTINUOUS
 10
5.043720
 20
1.657480
  0
VERTEX
  8
0
  6
CONTINUOUS
 10
5.679520
 20
2.016080
  0
VERTEX
  8
0
  6
CONTINUOUS
 10
5.713400
 20
1.998920
  0
VERTEX
  8
0
  6
CONTINUOUS
 10
5.077600
 20
1.640320
  0
VERTEX
  8
0
  6
CONTINUOUS
 10
5.043720
 20
1.657480
  0
SEQEND
  8
0
  0
SOLID
  8
0
 62
    15
 10
5.077600
 20
1.640320
 11
5.713400
 21
1.998920
 12
5.115880
 22
1.627120
 13
5.751680
 23
1.985720
  0
POLYLINE
  8
0
  6
CONTINUOUS
 66
     1
 40
0.000000
 41
0.000000
  0
VERTEX
  8
0
  6
CONTINUOUS
 10
5.077600
 20
1.640320
  0
VERTEX
  8
0
  6
CONTINUOUS
 10
5.713400
 20
1.998920
  0
VERTEX
  8
0
  6
CONTINUOUS
 10
5.751680
 20
1.985720
  0
VERTEX
  8
0
  6
CONTINUOUS
 10
5.115880
 20
1.627120
  0
VERTEX
  8
0
  6
CONTINUOUS
 10
5.077600
 20
1.640320
  0
SEQEND
  8
0
  0
SOLID
  8
0
 62
    15
 10
5.115880
 20
1.627120
 11
5.751680
 21
1.985720
 12
5.157680
 22
1.617440
 13
5.793920
 23
1.975600
  0
POLYLINE
  8
0
  6
CONTINUOUS
 66
     1
 40
0.000000
 41
0.000000
  0
VERTEX
  8
0
  6
CONTINUOUS
 10
5.115880
 20
1.627120
  0
VERTEX
  8
0
  6
CONTINUOUS
 10
5.751680
 20
1.985720
  0
VERTEX
  8
0
  6
CONTINUOUS
 10
5.793920
 20
1.975600
  0
VERTEX
  8
0
  6
CONTINUOUS
 10
5.157680
 20
1.617440
  0
VERTEX
  8
0
  6
CONTINUOUS
 10
5.115880
 20
1.627120
  0
SEQEND
  8
0
  0
SOLID
  8
0
 62
    15
 10
5.157680
 20
1.617440
 11
5.793920
 21
1.975600
 12
5.203440
 22
1.610840
 13
5.839680
 23
1.969440
  0
POLYLINE
  8
0
  6
CONTINUOUS
 66
     1
 40
0.000000
 41
0.000000
  0
VERTEX
  8
0
  6
CONTINUOUS
 10
5.157680
 20
1.617440
  0
VERTEX
  8
0
  6
CONTINUOUS
 10
5.793920
 20
1.975600
  0
VERTEX
  8
0
  6
CONTINUOUS
 10
5.839680
 20
1.969440
  0
VERTEX
  8
0
  6
CONTINUOUS
 10
5.203440
 20
1.610840
  0
VERTEX
  8
0
  6
CONTINUOUS
 10
5.157680
 20
1.617440
  0
SEQEND
  8
0
  0
SOLID
  8
0
 62
    15
 10
5.203440
 20
1.610840
 11
5.839680
 21
1.969440
 12
5.252720
 22
1.608200
 13
5.888960
 23
1.966360
  0
POLYLINE
  8
0
  6
CONTINUOUS
 66
     1
 40
0.000000
 41
0.000000
  0
VERTEX
  8
0
  6
CONTINUOUS
 10
5.203440
 20
1.610840
  0
VERTEX
  8
0
  6
CONTINUOUS
 10
5.839680
 20
1.969440
  0
VERTEX
  8
0
  6
CONTINUOUS
 10
5.888960
 20
1.966360
  0
VERTEX
  8
0
  6
CONTINUOUS
 10
5.252720
 20
1.608200
  0
VERTEX
  8
0
  6
CONTINUOUS
 10
5.203440
 20
1.610840
  0
SEQEND
  8
0
  0
SOLID
  8
0
 62
    15
 10
5.252720
 20
1.608200
 11
5.888960
 21
1.966360
 12
5.254920
 22
1.608200
 13
5.890720
 23
1.966360
  0
POLYLINE
  8
0
  6
CONTINUOUS
 66
     1
 40
0.000000
 41
0.000000
  0
VERTEX
  8
0
  6
CONTINUOUS
 10
5.252720
 20
1.608200
  0
VERTEX
  8
0
  6
CONTINUOUS
 10
5.888960
 20
1.966360
  0
VERTEX
  8
0
  6
CONTINUOUS
 10
5.890720
 20
1.966360
  0
VERTEX
  8
0
  6
CONTINUOUS
 10
5.254920
 20
1.608200
  0
VERTEX
  8
0
  6
CONTINUOUS
 10
5.252720
 20
1.608200
  0
SEQEND
  8
0
  0
SOLID
  8
0
 62
    15
 10
5.254920
 20
1.608200
 11
5.890720
 21
1.966360
 12
5.257120
 22
0.932800
 13
5.892920
 23
1.291400
  0
POLYLINE
  8
0
  6
CONTINUOUS
 66
     1
 40
0.000000
 41
0.000000
  0
VERTEX
  8
0
  6
CONTINUOUS
 10
5.254920
 20
1.608200
  0
VERTEX
  8
0
  6
CONTINUOUS
 10
5.890720
 20
1.966360
  0
VERTEX
  8
0
  6
CONTINUOUS
 10
5.892920
 20
1.291400
  0
VERTEX
  8
0
  6
CONTINUOUS
 10
5.257120
 20
0.932800
  0
VERTEX
  8
0
  6
CONTINUOUS
 10
5.254920
 20
1.608200
  0
SEQEND
  8
0
  0
SOLID
  8
0
 62
    15
 10
4.523640
 20
3.497560
 11
5.159440
 21
3.856160
 12
4.646400
 22
3.497560
 13
5.282640
 23
3.856160
  0
POLYLINE
  8
0
  6
CONTINUOUS
 66
     1
 40
0.000000
 41
0.000000
  0
VERTEX
  8
0
  6
CONTINUOUS
 10
4.523640
 20
3.497560
  0
VERTEX
  8
0
  6
CONTINUOUS
 10
5.159440
 20
3.856160
  0
VERTEX
  8
0
  6
CONTINUOUS
 10
5.282640
 20
3.856160
  0
VERTEX
  8
0
  6
CONTINUOUS
 10
4.646400
 20
3.497560
  0
VERTEX
  8
0
  6
CONTINUOUS
 10
4.523640
 20
3.497560
  0
SEQEND
  8
0
  0
SOLID
  8
0
 62
    15
 10
4.646400
 20
3.497560
 11
5.282640
 21
3.856160
 12
4.649040
 22
3.430680
 13
5.284840
 23
3.789280
  0
POLYLINE
  8
0
  6
CONTINUOUS
 66
     1
 40
0.000000
 41
0.000000
  0
VERTEX
  8
0
  6
CONTINUOUS
 10
4.646400
 20
3.497560
  0
VERTEX
  8
0
  6
CONTINUOUS
 10
5.282640
 20
3.856160
  0
VERTEX
  8
0
  6
CONTINUOUS
 10
5.284840
 20
3.789280
  0
VERTEX
  8
0
  6
CONTINUOUS
 10
4.649040
 20
3.430680
  0
VERTEX
  8
0
  6
CONTINUOUS
 10
4.646400
 20
3.497560
  0
SEQEND
  8
0
  0
SOLID
  8
0
 62
    15
 10
4.649040
 20
3.430680
 11
5.284840
 21
3.789280
 12
4.657840
 22
3.366880
 13
5.293640
 23
3.725040
  0
POLYLINE
  8
0
  6
CONTINUOUS
 66
     1
 40
0.000000
 41
0.000000
  0
VERTEX
  8
0
  6
CONTINUOUS
 10
4.649040
 20
3.430680
  0
VERTEX
  8
0
  6
CONTINUOUS
 10
5.284840
 20
3.789280
  0
VERTEX
  8
0
  6
CONTINUOUS
 10
5.293640
 20
3.725040
  0
VERTEX
  8
0
  6
CONTINUOUS
 10
4.657840
 20
3.366880
  0
VERTEX
  8
0
  6
CONTINUOUS
 10
4.649040
 20
3.430680
  0
SEQEND
  8
0
  0
SOLID
  8
0
 62
    15
 10
4.657840
 20
3.366880
 11
5.293640
 21
3.725040
 12
4.673680
 22
3.306600
 13
5.309480
 23
3.665200
  0
POLYLINE
  8
0
  6
CONTINUOUS
 66
     1
 40
0.000000
 41
0.000000
  0
VERTEX
  8
0
  6
CONTINUOUS
 10
4.657840
 20
3.366880
  0
VERTEX
  8
0
  6
CONTINUOUS
 10
5.293640
 20
3.725040
  0
VERTEX
  8
0
  6
CONTINUOUS
 10
5.309480
 20
3.665200
  0
VERTEX
  8
0
  6
CONTINUOUS
 10
4.673680
 20
3.306600
  0
VERTEX
  8
0
  6
CONTINUOUS
 10
4.657840
 20
3.366880
  0
SEQEND
  8
0
  0
SOLID
  8
0
 62
    15
 10
4.673680
 20
3.306600
 11
5.309480
 21
3.665200
 12
4.696120
 22
3.251160
 13
5.331920
 23
3.609320
  0
POLYLINE
  8
0
  6
CONTINUOUS
 66
     1
 40
0.000000
 41
0.000000
  0
VERTEX
  8
0
  6
CONTINUOUS
 10
4.673680
 20
3.306600
  0
VERTEX
  8
0
  6
CONTINUOUS
 10
5.309480
 20
3.665200
  0
VERTEX
  8
0
  6
CONTINUOUS
 10
5.331920
 20
3.609320
  0
VERTEX
  8
0
  6
CONTINUOUS
 10
4.696120
 20
3.251160
  0
VERTEX
  8
0
  6
CONTINUOUS
 10
4.673680
 20
3.306600
  0
SEQEND
  8
0
  0
SOLID
  8
0
 62
    15
 10
4.696120
 20
3.251160
 11
5.331920
 21
3.609320
 12
4.726040
 22
3.201000
 13
5.361840
 23
3.559600
  0
POLYLINE
  8
0
  6
CONTINUOUS
 66
     1
 40
0.000000
 41
0.000000
  0
VERTEX
  8
0
  6
CONTINUOUS
 10
4.696120
 20
3.251160
  0
VERTEX
  8
0
  6
CONTINUOUS
 10
5.331920
 20
3.609320
  0
VERTEX
  8
0
  6
CONTINUOUS
 10
5.361840
 20
3.559600
  0
VERTEX
  8
0
  6
CONTINUOUS
 10
4.726040
 20
3.201000
  0
VERTEX
  8
0
  6
CONTINUOUS
 10
4.696120
 20
3.251160
  0
SEQEND
  8
0
  0
SOLID
  8
0
 62
    15
 10
4.726040
 20
3.201000
 11
5.361840
 21
3.559600
 12
4.763000
 22
3.157440
 13
5.399240
 23
3.516040
  0
POLYLINE
  8
0
  6
CONTINUOUS
 66
     1
 40
0.000000
 41
0.000000
  0
VERTEX
  8
0
  6
CONTINUOUS
 10
4.726040
 20
3.201000
  0
VERTEX
  8
0
  6
CONTINUOUS
 10
5.361840
 20
3.559600
  0
VERTEX
  8
0
  6
CONTINUOUS
 10
5.399240
 20
3.516040
  0
VERTEX
  8
0
  6
CONTINUOUS
 10
4.763000
 20
3.157440
  0
VERTEX
  8
0
  6
CONTINUOUS
 10
4.726040
 20
3.201000
  0
SEQEND
  8
0
  0
SOLID
  8
0
 62
    15
 10
4.763000
 20
3.157440
 11
5.399240
 21
3.516040
 12
4.808320
 22
3.121360
 13
5.444120
 23
3.479960
  0
POLYLINE
  8
0
  6
CONTINUOUS
 66
     1
 40
0.000000
 41
0.000000
  0
VERTEX
  8
0
  6
CONTINUOUS
 10
4.763000
 20
3.157440
  0
VERTEX
  8
0
  6
CONTINUOUS
 10
5.399240
 20
3.516040
  0
VERTEX
  8
0
  6
CONTINUOUS
 10
5.444120
 20
3.479960
  0
VERTEX
  8
0
  6
CONTINUOUS
 10
4.808320
 20
3.121360
  0
VERTEX
  8
0
  6
CONTINUOUS
 10
4.763000
 20
3.157440
  0
SEQEND
  8
0
  0
SOLID
  8
0
 62
    15
 10
4.808320
 20
3.121360
 11
5.444120
 21
3.479960
 12
4.861120
 22
3.093640
 13
5.496920
 23
3.451800
  0
POLYLINE
  8
0
  6
CONTINUOUS
 66
     1
 40
0.000000
 41
0.000000
  0
VERTEX
  8
0
  6
CONTINUOUS
 10
4.808320
 20
3.121360
  0
VERTEX
  8
0
  6
CONTINUOUS
 10
5.444120
 20
3.479960
  0
VERTEX
  8
0
  6
CONTINUOUS
 10
5.496920
 20
3.451800
  0
VERTEX
  8
0
  6
CONTINUOUS
 10
4.861120
 20
3.093640
  0
VERTEX
  8
0
  6
CONTINUOUS
 10
4.808320
 20
3.121360
  0
SEQEND
  8
0
  0
SOLID
  8
0
 62
    15
 10
4.861120
 20
3.093640
 11
5.496920
 21
3.451800
 12
4.863320
 22
3.089240
 13
5.499120
 23
3.447840
  0
POLYLINE
  8
0
  6
CONTINUOUS
 66
     1
 40
0.000000
 41
0.000000
  0
VERTEX
  8
0
  6
CONTINUOUS
 10
4.861120
 20
3.093640
  0
VERTEX
  8
0
  6
CONTINUOUS
 10
5.496920
 20
3.451800
  0
VERTEX
  8
0
  6
CONTINUOUS
 10
5.499120
 20
3.447840
  0
VERTEX
  8
0
  6
CONTINUOUS
 10
4.863320
 20
3.089240
  0
VERTEX
  8
0
  6
CONTINUOUS
 10
4.861120
 20
3.093640
  0
SEQEND
  8
0
  0
POLYLINE
  8
0
  6
CONTINUOUS
 66
     1
 40
0.000000
 41
0.000000
  0
VERTEX
  8
0
  6
CONTINUOUS
 10
4.863320
 20
3.089240
  0
VERTEX
  8
0
  6
CONTINUOUS
 10
4.863320
 20
2.780800
  0
VERTEX
  8
0
  6
CONTINUOUS
 10
4.865520
 20
2.776840
  0
VERTEX
  8
0
  6
CONTINUOUS
 10
4.906880
 20
2.768040
  0
VERTEX
  8
0
  6
CONTINUOUS
 10
4.944720
 20
2.757480
  0
VERTEX
  8
0
  6
CONTINUOUS
 10
4.979480
 20
2.746040
  0
VERTEX
  8
0
  6
CONTINUOUS
 10
5.011160
 20
2.733720
  0
VERTEX
  8
0
  6
CONTINUOUS
 10
5.064840
 20
2.704680
  0
VERTEX
  8
0
  6
CONTINUOUS
 10
5.107520
 20
2.671680
  0
VERTEX
  8
0
  6
CONTINUOUS
 10
5.139200
 20
2.634280
  0
VERTEX
  8
0
  6
CONTINUOUS
 10
5.161200
 20
2.593800
  0
VERTEX
  8
0
  6
CONTINUOUS
 10
5.173960
 20
2.550240
  0
VERTEX
  8
0
  6
CONTINUOUS
 10
5.178800
 20
2.503600
  0
VERTEX
  8
0
  6
CONTINUOUS
 10
5.176160
 20
2.454760
  0
VERTEX
  8
0
  6
CONTINUOUS
 10
5.166920
 20
2.403720
  0
VERTEX
  8
0
  6
CONTINUOUS
 10
5.151960
 20
2.351360
  0
VERTEX
  8
0
  6
CONTINUOUS
 10
5.132160
 20
2.297680
  0
VERTEX
  8
0
  6
CONTINUOUS
 10
5.081560
 20
2.188560
  0
VERTEX
  8
0
  6
CONTINUOUS
 10
5.021720
 20
2.079000
  0
VERTEX
  8
0
  6
CONTINUOUS
 10
4.991800
 20
2.022240
  0
VERTEX
  8
0
  6
CONTINUOUS
 10
4.969360
 20
1.969880
  0
VERTEX
  8
0
  6
CONTINUOUS
 10
4.953960
 20
1.920600
  0
VERTEX
  8
0
  6
CONTINUOUS
 10
4.944720
 20
1.875280
  0
VERTEX
  8
0
  6
CONTINUOUS
 10
4.942080
 20
1.833480
  0
VERTEX
  8
0
  6
CONTINUOUS
 10
4.945600
 20
1.795200
  0
VERTEX
  8
0
  6
CONTINUOUS
 10
4.954400
 20
1.760440
  0
VERTEX
  8
0
  6
CONTINUOUS
 10
4.969360
 20
1.729200
  0
VERTEX
  8
0
  6
CONTINUOUS
 10
4.989160
 20
1.701920
  0
VERTEX
  8
0
  6
CONTINUOUS
 10
5.013800
 20
1.677720
  0
VERTEX
  8
0
  6
CONTINUOUS
 10
5.043720
 20
1.657480
  0
VERTEX
  8
0
  6
CONTINUOUS
 10
5.077600
 20
1.640320
  0
VERTEX
  8
0
  6
CONTINUOUS
 10
5.115880
 20
1.627120
  0
VERTEX
  8
0
  6
CONTINUOUS
 10
5.157680
 20
1.617440
  0
VERTEX
  8
0
  6
CONTINUOUS
 10
5.203440
 20
1.610840
  0
VERTEX
  8
0
  6
CONTINUOUS
 10
5.252720
 20
1.608200
  0
VERTEX
  8
0
  6
CONTINUOUS
 10
5.254920
 20
1.608200
  0
VERTEX
  8
0
  6
CONTINUOUS
 10
5.257120
 20
0.932800
  0
VERTEX
  8
0
  6
CONTINUOUS
 10
4.523640
 20
0.932800
  0
VERTEX
  8
0
  6
CONTINUOUS
 10
4.523640
 20
3.497560
  0
VERTEX
  8
0
  6
CONTINUOUS
 10
4.646400
 20
3.497560
  0
VERTEX
  8
0
  6
CONTINUOUS
 10
4.649040
 20
3.430680
  0
VERTEX
  8
0
  6
CONTINUOUS
 10
4.657840
 20
3.366880
  0
VERTEX
  8
0
  6
CONTINUOUS
 10
4.673680
 20
3.306600
  0
VERTEX
  8
0
  6
CONTINUOUS
 10
4.696120
 20
3.251160
  0
VERTEX
  8
0
  6
CONTINUOUS
 10
4.726040
 20
3.201000
  0
VERTEX
  8
0
  6
CONTINUOUS
 10
4.763000
 20
3.157440
  0
VERTEX
  8
0
  6
CONTINUOUS
 10
4.808320
 20
3.121360
  0
VERTEX
  8
0
  6
CONTINUOUS
 10
4.861120
 20
3.093640
  0
VERTEX
  8
0
  6
CONTINUOUS
 10
4.863320
 20
3.089240
  0
SEQEND
  8
0
  0
TEXT
  8
0
 10
4.913920
 20
0.660440
 40
0.138031
  1
BA  296
 41
1.000000
  7
SN0
 71
     0
 72
     5
 11
5.503404
 21
0.660440
  0
TEXT
  8
0
 10
4.711960
 20
0.469040
 40
0.138031
  1
3/4" x 2-9/16"
 41
1.000000
  7
SN0
 71
     0
 72
     5
 11
5.703852
 21
0.469040
  0
ENDSEC
  0
EOF
