  0
SECTION
  2
HEADER
  9
$ACADVER
  1
AC1006
  9
$EXTMIN
 10
1.877920
 20
0.454080
  9
$EXTMAX
 10
8.003600
 20
3.600960
  9
$LTSCALE
 40
0.044000
  9
$PDMODE
 70
    35
  9
$PDSIZE
 40
0.035200
  0
ENDSEC
  0
SECTION
  2
TABLES
  0
TABLE
  2
LTYPE
 70
     9
  0
LTYPE
  2
CONTINUOUS
 70
    64
  3
Solid line
 72
    65
 73
     0
 40
0.000000
  0
LTYPE
  2
DASHED
 70
    64
  3
__ __ __ __ __ __ __ __ __ __ __ __ __ __ __
 72
    65
 73
     2
 40
0.000330
 49
0.000220
 49
-0.000110
  0
LTYPE
  2
HIDDEN
 70
    64
  3
 _ _ _ _ _ _ _ _ _ _ _ _ _ _ _ _ _ _ _ _ _ _
 72
    65
 73
     2
 40
0.000165
 49
0.000110
 49
-0.000055
  0
LTYPE
  2
CENTER
 70
    64
  3
____ _ ____ _ ____ _ ____ _ ____ _ ____ _ ____
 72
    65
 73
     4
 40
0.000880
 49
0.000550
 49
-0.000110
 49
0.000110
 49
-0.000110
  0
LTYPE
  2
PHANTOM
 70
    64
  3
_____ _ _ _____ _ _ _____ _ _ _____ _ _ ____
 72
    65
 73
     6
 40
0.001100
 49
0.000550
 49
-0.000110
 49
0.000110
 49
-0.000110
 49
0.000110
 49
-0.000110
  0
LTYPE
  2
DOT
 70
    64
  3
...............................................
 72
    65
 73
     2
 40
0.000110
 49
0.000000
 49
-0.000110
  0
LTYPE
  2
DASHDOT
 70
    64
  3
__ . __ . __ . __ . __ . __ . __ . __ . __ . __
 72
    65
 73
     4
 40
0.000440
 49
0.000220
 49
-0.000110
 49
0.000000
 49
-0.000110
  0
LTYPE
  2
BORDER
 70
    64
  3
__ __ . __ __ . __ __ . __ __ . __ __ . __ __
 72
    65
 73
     6
 40
0.000770
 49
0.000220
 49
-0.000110
 49
0.000220
 49
-0.000110
 49
0.000000
 49
-0.000110
  0
LTYPE
  2
DIVIDE
 70
    64
  3
__ . . __ . . __ . . __ . . __ . . __ . . __
 72
    65
 73
     6
 40
0.000550
 49
0.000220
 49
-0.000110
 49
0.000000
 49
-0.000110
 49
0.000000
 49
-0.000110
  0
LTYPE
  2
DOTDOT
 70
    64
  3
 . .  . .  . .  . .  . .  . . 
 72
    65
 73
     5
 40
0.000242
 49
-0.000110
 49
0.000000
 49
-0.000110
 49
0.000000
 49
-0.000110
  0
ENDTAB
  0
TABLE
  2
STYLE
 70
     2
  0
STYLE
 70
     0
  2
SN0
 40
0.000000
 41
0.000440
 50
0.000000
 71
     0
 42
0.000000
  3
ROMAND
  0
STYLE
 70
    68
  2
SV0
 40
0.000000
 41
0.000440
 50
0.000000
 71
     0
 42
0.000000
  3
ROMAND
  0
ENDTAB
  0
TABLE
  2
LAYER
 70
     3
  0
LAYER
  2
FOREGROUND
 70
    64
 62
     7
  6
CONTINUOUS
  0
LAYER
  2
BACKGROUND
 70
    65
 62
    -7
  6
CONTINUOUS
  0
LAYER
  2
0
 70
    64
 62
     7
  6
CONTINUOUS
  0
ENDTAB
  0
ENDSEC
  0
SECTION
  2
ENTITIES
  0
POLYLINE
  8
FOREGROUND
  6
CONTINUOUS
 66
     1
 40
0.000000
 41
0.000000
  0
VERTEX
  8
FOREGROUND
  6
CONTINUOUS
 10
0.000000
 20
4.055040
  0
VERTEX
  8
FOREGROUND
  6
CONTINUOUS
 10
8.499920
 20
4.055040
  0
VERTEX
  8
FOREGROUND
  6
CONTINUOUS
 10
8.499920
 20
-6.944960
  0
VERTEX
  8
FOREGROUND
  6
CONTINUOUS
 10
0.000000
 20
-6.944960
  0
VERTEX
  8
FOREGROUND
  6
CONTINUOUS
 10
0.000000
 20
4.055040
  0
SEQEND
  8
0
  0
POLYLINE
  8
FOREGROUND
  6
CONTINUOUS
 66
     1
 40
0.000000
 41
0.000000
  0
VERTEX
  8
FOREGROUND
  6
CONTINUOUS
 10
0.000000
 20
4.055040
  0
VERTEX
  8
FOREGROUND
  6
CONTINUOUS
 10
8.499920
 20
4.055040
  0
VERTEX
  8
FOREGROUND
  6
CONTINUOUS
 10
8.499920
 20
-6.944960
  0
VERTEX
  8
FOREGROUND
  6
CONTINUOUS
 10
0.000000
 20
-6.944960
  0
VERTEX
  8
FOREGROUND
  6
CONTINUOUS
 10
0.000000
 20
4.055040
  0
SEQEND
  8
0
  0
POLYLINE
  8
0
  6
CONTINUOUS
 66
     1
 40
0.014080
 41
0.014080
  0
VERTEX
  8
0
  6
CONTINUOUS
 10
4.506920
 20
3.508560
  0
VERTEX
  8
0
  6
CONTINUOUS
 10
4.831200
 20
3.506360
  0
VERTEX
  8
0
  6
CONTINUOUS
 10
4.925360
 20
3.501960
  0
VERTEX
  8
0
  6
CONTINUOUS
 10
5.067040
 20
3.490520
  0
VERTEX
  8
0
  6
CONTINUOUS
 10
5.192000
 20
3.475560
  0
VERTEX
  8
0
  6
CONTINUOUS
 10
5.328840
 20
3.454440
  0
VERTEX
  8
0
  6
CONTINUOUS
 10
5.424320
 20
3.435520
  0
VERTEX
  8
0
  6
CONTINUOUS
 10
5.522880
 20
3.413080
  0
VERTEX
  8
0
  6
CONTINUOUS
 10
5.621880
 20
3.386680
  0
VERTEX
  8
0
  6
CONTINUOUS
 10
5.721320
 20
3.355440
  0
VERTEX
  8
0
  6
CONTINUOUS
 10
5.819880
 20
3.319360
  0
VERTEX
  8
0
  6
CONTINUOUS
 10
5.937800
 20
3.270960
  0
VERTEX
  8
0
  6
CONTINUOUS
 10
6.002480
 20
3.248080
  0
VERTEX
  8
0
  6
CONTINUOUS
 10
6.062320
 20
3.230480
  0
VERTEX
  8
0
  6
CONTINUOUS
 10
6.118200
 20
3.217720
  0
VERTEX
  8
0
  6
CONTINUOUS
 10
6.170120
 20
3.209360
  0
VERTEX
  8
0
  6
CONTINUOUS
 10
6.218520
 20
3.205400
  0
VERTEX
  8
0
  6
CONTINUOUS
 10
6.263400
 20
3.204960
  0
VERTEX
  8
0
  6
CONTINUOUS
 10
6.305640
 20
3.207600
  0
VERTEX
  8
0
  6
CONTINUOUS
 10
6.345240
 20
3.213760
  0
VERTEX
  8
0
  6
CONTINUOUS
 10
6.400680
 20
3.227400
  0
VERTEX
  8
0
  6
CONTINUOUS
 10
6.451720
 20
3.246320
  0
VERTEX
  8
0
  6
CONTINUOUS
 10
6.515960
 20
3.276240
  0
VERTEX
  8
0
  6
CONTINUOUS
 10
6.589880
 20
3.317160
  0
VERTEX
  8
0
  6
CONTINUOUS
 10
6.691080
 20
3.382280
  0
VERTEX
  8
0
  6
CONTINUOUS
 10
6.724520
 20
3.401640
  0
VERTEX
  8
0
  6
CONTINUOUS
 10
6.777320
 20
3.428040
  0
VERTEX
  8
0
  6
CONTINUOUS
 10
6.813400
 20
3.441680
  0
VERTEX
  8
0
  6
CONTINUOUS
 10
6.849920
 20
3.451360
  0
VERTEX
  8
0
  6
CONTINUOUS
 10
6.886880
 20
3.455320
  0
VERTEX
  8
0
  6
CONTINUOUS
 10
6.923400
 20
3.453120
  0
VERTEX
  8
0
  6
CONTINUOUS
 10
6.941880
 20
3.449160
  0
VERTEX
  8
0
  6
CONTINUOUS
 10
6.959920
 20
3.443440
  0
VERTEX
  8
0
  6
CONTINUOUS
 10
6.995560
 20
3.424960
  0
VERTEX
  8
0
  6
CONTINUOUS
 10
7.029880
 20
3.397240
  0
VERTEX
  8
0
  6
CONTINUOUS
 10
7.054520
 20
3.369080
  0
VERTEX
  8
0
  6
CONTINUOUS
 10
7.078720
 20
3.334760
  0
VERTEX
  8
0
  6
CONTINUOUS
 10
7.108640
 20
3.278000
  0
VERTEX
  8
0
  6
CONTINUOUS
 10
7.109960
 20
3.271400
  0
VERTEX
  8
0
  6
CONTINUOUS
 10
7.109960
 20
2.751320
  0
VERTEX
  8
0
  6
CONTINUOUS
 10
7.105560
 20
2.747800
  0
VERTEX
  8
0
  6
CONTINUOUS
 10
1.883200
 20
2.747800
  0
VERTEX
  8
0
  6
CONTINUOUS
 10
1.885400
 20
2.748680
  0
VERTEX
  8
0
  6
CONTINUOUS
 10
1.885400
 20
3.268760
  0
VERTEX
  8
0
  6
CONTINUOUS
 10
1.886720
 20
3.275360
  0
VERTEX
  8
0
  6
CONTINUOUS
 10
1.916640
 20
3.332120
  0
VERTEX
  8
0
  6
CONTINUOUS
 10
1.940840
 20
3.366440
  0
VERTEX
  8
0
  6
CONTINUOUS
 10
1.965480
 20
3.394160
  0
VERTEX
  8
0
  6
CONTINUOUS
 10
1.982640
 20
3.409560
  0
VERTEX
  8
0
  6
CONTINUOUS
 10
1.999800
 20
3.422320
  0
VERTEX
  8
0
  6
CONTINUOUS
 10
2.017400
 20
3.432440
  0
VERTEX
  8
0
  6
CONTINUOUS
 10
2.053480
 20
3.446520
  0
VERTEX
  8
0
  6
CONTINUOUS
 10
2.090000
 20
3.452240
  0
VERTEX
  8
0
  6
CONTINUOUS
 10
2.108480
 20
3.452240
  0
VERTEX
  8
0
  6
CONTINUOUS
 10
2.145440
 20
3.448280
  0
VERTEX
  8
0
  6
CONTINUOUS
 10
2.181960
 20
3.439040
  0
VERTEX
  8
0
  6
CONTINUOUS
 10
2.236080
 20
3.417040
  0
VERTEX
  8
0
  6
CONTINUOUS
 10
2.270840
 20
3.399000
  0
VERTEX
  8
0
  6
CONTINUOUS
 10
2.365440
 20
3.340040
  0
VERTEX
  8
0
  6
CONTINUOUS
 10
2.417360
 20
3.307040
  0
VERTEX
  8
0
  6
CONTINUOUS
 10
2.479400
 20
3.273160
  0
VERTEX
  8
0
  6
CONTINUOUS
 10
2.543640
 20
3.243240
  0
VERTEX
  8
0
  6
CONTINUOUS
 10
2.594680
 20
3.224320
  0
VERTEX
  8
0
  6
CONTINUOUS
 10
2.650120
 20
3.210680
  0
VERTEX
  8
0
  6
CONTINUOUS
 10
2.689720
 20
3.204520
  0
VERTEX
  8
0
  6
CONTINUOUS
 10
2.731960
 20
3.201880
  0
VERTEX
  8
0
  6
CONTINUOUS
 10
2.753960
 20
3.201440
  0
VERTEX
  8
0
  6
CONTINUOUS
 10
2.800600
 20
3.204080
  0
VERTEX
  8
0
  6
CONTINUOUS
 10
2.850760
 20
3.210240
  0
VERTEX
  8
0
  6
CONTINUOUS
 10
2.877160
 20
3.214640
  0
VERTEX
  8
0
  6
CONTINUOUS
 10
2.962520
 20
3.235760
  0
VERTEX
  8
0
  6
CONTINUOUS
 10
3.024560
 20
3.256000
  0
VERTEX
  8
0
  6
CONTINUOUS
 10
3.091880
 20
3.281520
  0
VERTEX
  8
0
  6
CONTINUOUS
 10
3.175480
 20
3.316720
  0
VERTEX
  8
0
  6
CONTINUOUS
 10
3.274040
 20
3.352800
  0
VERTEX
  8
0
  6
CONTINUOUS
 10
3.373480
 20
3.384040
  0
VERTEX
  8
0
  6
CONTINUOUS
 10
3.472480
 20
3.410440
  0
VERTEX
  8
0
  6
CONTINUOUS
 10
3.571040
 20
3.432880
  0
VERTEX
  8
0
  6
CONTINUOUS
 10
3.666520
 20
3.451800
  0
VERTEX
  8
0
  6
CONTINUOUS
 10
3.803360
 20
3.472920
  0
VERTEX
  8
0
  6
CONTINUOUS
 10
3.928320
 20
3.487880
  0
VERTEX
  8
0
  6
CONTINUOUS
 10
4.070000
 20
3.499320
  0
VERTEX
  8
0
  6
CONTINUOUS
 10
4.184840
 20
3.504160
  0
VERTEX
  8
0
  6
CONTINUOUS
 10
4.242480
 20
3.504600
  0
VERTEX
  8
0
  6
CONTINUOUS
 10
4.241600
 20
3.504600
  0
VERTEX
  8
0
  6
CONTINUOUS
 10
4.488440
 20
3.505920
  0
VERTEX
  8
0
  6
CONTINUOUS
 10
4.506920
 20
3.508560
  0
SEQEND
  8
0
  0
SOLID
  8
0
 62
    15
 10
1.971640
 20
0.957880
 11
1.972080
 21
1.716880
 12
1.973840
 22
0.958760
 13
1.974720
 23
1.717760
  0
POLYLINE
  8
0
  6
CONTINUOUS
 66
     1
 40
0.000000
 41
0.000000
  0
VERTEX
  8
0
  6
CONTINUOUS
 10
1.971640
 20
0.957880
  0
VERTEX
  8
0
  6
CONTINUOUS
 10
1.972080
 20
1.716880
  0
VERTEX
  8
0
  6
CONTINUOUS
 10
1.974720
 20
1.717760
  0
VERTEX
  8
0
  6
CONTINUOUS
 10
1.973840
 20
0.958760
  0
VERTEX
  8
0
  6
CONTINUOUS
 10
1.971640
 20
0.957880
  0
SEQEND
  8
0
  0
SOLID
  8
0
 62
    15
 10
4.842200
 20
1.717320
 11
4.843080
 21
2.476320
 12
4.843960
 22
1.717320
 13
4.844840
 23
2.476320
  0
POLYLINE
  8
0
  6
CONTINUOUS
 66
     1
 40
0.000000
 41
0.000000
  0
VERTEX
  8
0
  6
CONTINUOUS
 10
4.842200
 20
1.717320
  0
VERTEX
  8
0
  6
CONTINUOUS
 10
4.843080
 20
2.476320
  0
VERTEX
  8
0
  6
CONTINUOUS
 10
4.844840
 20
2.476320
  0
VERTEX
  8
0
  6
CONTINUOUS
 10
4.843960
 20
1.717320
  0
VERTEX
  8
0
  6
CONTINUOUS
 10
4.842200
 20
1.717320
  0
SEQEND
  8
0
  0
SOLID
  8
0
 62
    15
 10
4.843960
 20
1.717320
 11
4.844840
 21
2.476320
 12
4.860240
 22
1.717320
 13
4.860680
 23
2.476320
  0
POLYLINE
  8
0
  6
CONTINUOUS
 66
     1
 40
0.000000
 41
0.000000
  0
VERTEX
  8
0
  6
CONTINUOUS
 10
4.843960
 20
1.717320
  0
VERTEX
  8
0
  6
CONTINUOUS
 10
4.844840
 20
2.476320
  0
VERTEX
  8
0
  6
CONTINUOUS
 10
4.860680
 20
2.476320
  0
VERTEX
  8
0
  6
CONTINUOUS
 10
4.860240
 20
1.717320
  0
VERTEX
  8
0
  6
CONTINUOUS
 10
4.843960
 20
1.717320
  0
SEQEND
  8
0
  0
SOLID
  8
0
 62
    15
 10
4.860240
 20
1.717320
 11
4.860680
 21
2.476320
 12
4.889720
 22
1.717320
 13
4.890160
 23
2.476320
  0
POLYLINE
  8
0
  6
CONTINUOUS
 66
     1
 40
0.000000
 41
0.000000
  0
VERTEX
  8
0
  6
CONTINUOUS
 10
4.860240
 20
1.717320
  0
VERTEX
  8
0
  6
CONTINUOUS
 10
4.860680
 20
2.476320
  0
VERTEX
  8
0
  6
CONTINUOUS
 10
4.890160
 20
2.476320
  0
VERTEX
  8
0
  6
CONTINUOUS
 10
4.889720
 20
1.717320
  0
VERTEX
  8
0
  6
CONTINUOUS
 10
4.860240
 20
1.717320
  0
SEQEND
  8
0
  0
SOLID
  8
0
 62
    15
 10
4.889720
 20
1.717320
 11
4.890160
 21
2.476320
 12
4.931080
 22
1.716000
 13
4.931960
 23
2.475000
  0
POLYLINE
  8
0
  6
CONTINUOUS
 66
     1
 40
0.000000
 41
0.000000
  0
VERTEX
  8
0
  6
CONTINUOUS
 10
4.889720
 20
1.717320
  0
VERTEX
  8
0
  6
CONTINUOUS
 10
4.890160
 20
2.476320
  0
VERTEX
  8
0
  6
CONTINUOUS
 10
4.931960
 20
2.475000
  0
VERTEX
  8
0
  6
CONTINUOUS
 10
4.931080
 20
1.716000
  0
VERTEX
  8
0
  6
CONTINUOUS
 10
4.889720
 20
1.717320
  0
SEQEND
  8
0
  0
SOLID
  8
0
 62
    15
 10
4.931080
 20
1.716000
 11
4.931960
 21
2.475000
 12
4.983880
 22
1.713800
 13
4.984320
 23
2.472800
  0
POLYLINE
  8
0
  6
CONTINUOUS
 66
     1
 40
0.000000
 41
0.000000
  0
VERTEX
  8
0
  6
CONTINUOUS
 10
4.931080
 20
1.716000
  0
VERTEX
  8
0
  6
CONTINUOUS
 10
4.931960
 20
2.475000
  0
VERTEX
  8
0
  6
CONTINUOUS
 10
4.984320
 20
2.472800
  0
VERTEX
  8
0
  6
CONTINUOUS
 10
4.983880
 20
1.713800
  0
VERTEX
  8
0
  6
CONTINUOUS
 10
4.931080
 20
1.716000
  0
SEQEND
  8
0
  0
SOLID
  8
0
 62
    15
 10
4.983880
 20
1.713800
 11
4.984320
 21
2.472800
 12
5.045920
 22
1.709840
 13
5.046800
 23
2.468840
  0
POLYLINE
  8
0
  6
CONTINUOUS
 66
     1
 40
0.000000
 41
0.000000
  0
VERTEX
  8
0
  6
CONTINUOUS
 10
4.983880
 20
1.713800
  0
VERTEX
  8
0
  6
CONTINUOUS
 10
4.984320
 20
2.472800
  0
VERTEX
  8
0
  6
CONTINUOUS
 10
5.046800
 20
2.468840
  0
VERTEX
  8
0
  6
CONTINUOUS
 10
5.045920
 20
1.709840
  0
VERTEX
  8
0
  6
CONTINUOUS
 10
4.983880
 20
1.713800
  0
SEQEND
  8
0
  0
SOLID
  8
0
 62
    15
 10
5.045920
 20
1.709840
 11
5.046800
 21
2.468840
 12
5.117200
 22
1.704120
 13
5.117640
 23
2.463120
  0
POLYLINE
  8
0
  6
CONTINUOUS
 66
     1
 40
0.000000
 41
0.000000
  0
VERTEX
  8
0
  6
CONTINUOUS
 10
5.045920
 20
1.709840
  0
VERTEX
  8
0
  6
CONTINUOUS
 10
5.046800
 20
2.468840
  0
VERTEX
  8
0
  6
CONTINUOUS
 10
5.117640
 20
2.463120
  0
VERTEX
  8
0
  6
CONTINUOUS
 10
5.117200
 20
1.704120
  0
VERTEX
  8
0
  6
CONTINUOUS
 10
5.045920
 20
1.709840
  0
SEQEND
  8
0
  0
SOLID
  8
0
 62
    15
 10
5.117200
 20
1.704120
 11
5.117640
 21
2.463120
 12
5.195520
 22
1.696200
 13
5.196400
 23
2.455200
  0
POLYLINE
  8
0
  6
CONTINUOUS
 66
     1
 40
0.000000
 41
0.000000
  0
VERTEX
  8
0
  6
CONTINUOUS
 10
5.117200
 20
1.704120
  0
VERTEX
  8
0
  6
CONTINUOUS
 10
5.117640
 20
2.463120
  0
VERTEX
  8
0
  6
CONTINUOUS
 10
5.196400
 20
2.455200
  0
VERTEX
  8
0
  6
CONTINUOUS
 10
5.195520
 20
1.696200
  0
VERTEX
  8
0
  6
CONTINUOUS
 10
5.117200
 20
1.704120
  0
SEQEND
  8
0
  0
SOLID
  8
0
 62
    15
 10
5.195520
 20
1.696200
 11
5.196400
 21
2.455200
 12
5.280440
 22
1.686080
 13
5.280880
 23
2.445080
  0
POLYLINE
  8
0
  6
CONTINUOUS
 66
     1
 40
0.000000
 41
0.000000
  0
VERTEX
  8
0
  6
CONTINUOUS
 10
5.195520
 20
1.696200
  0
VERTEX
  8
0
  6
CONTINUOUS
 10
5.196400
 20
2.455200
  0
VERTEX
  8
0
  6
CONTINUOUS
 10
5.280880
 20
2.445080
  0
VERTEX
  8
0
  6
CONTINUOUS
 10
5.280440
 20
1.686080
  0
VERTEX
  8
0
  6
CONTINUOUS
 10
5.195520
 20
1.696200
  0
SEQEND
  8
0
  0
SOLID
  8
0
 62
    15
 10
5.280440
 20
1.686080
 11
5.280880
 21
2.445080
 12
5.370640
 22
1.672440
 13
5.371080
 23
2.431440
  0
POLYLINE
  8
0
  6
CONTINUOUS
 66
     1
 40
0.000000
 41
0.000000
  0
VERTEX
  8
0
  6
CONTINUOUS
 10
5.280440
 20
1.686080
  0
VERTEX
  8
0
  6
CONTINUOUS
 10
5.280880
 20
2.445080
  0
VERTEX
  8
0
  6
CONTINUOUS
 10
5.371080
 20
2.431440
  0
VERTEX
  8
0
  6
CONTINUOUS
 10
5.370640
 20
1.672440
  0
VERTEX
  8
0
  6
CONTINUOUS
 10
5.280440
 20
1.686080
  0
SEQEND
  8
0
  0
SOLID
  8
0
 62
    15
 10
5.370640
 20
1.672440
 11
5.371080
 21
2.431440
 12
5.464800
 22
1.655720
 13
5.465240
 23
2.414720
  0
POLYLINE
  8
0
  6
CONTINUOUS
 66
     1
 40
0.000000
 41
0.000000
  0
VERTEX
  8
0
  6
CONTINUOUS
 10
5.370640
 20
1.672440
  0
VERTEX
  8
0
  6
CONTINUOUS
 10
5.371080
 20
2.431440
  0
VERTEX
  8
0
  6
CONTINUOUS
 10
5.465240
 20
2.414720
  0
VERTEX
  8
0
  6
CONTINUOUS
 10
5.464800
 20
1.655720
  0
VERTEX
  8
0
  6
CONTINUOUS
 10
5.370640
 20
1.672440
  0
SEQEND
  8
0
  0
SOLID
  8
0
 62
    15
 10
5.464800
 20
1.655720
 11
5.465240
 21
2.414720
 12
5.562040
 22
1.635040
 13
5.562480
 23
2.394040
  0
POLYLINE
  8
0
  6
CONTINUOUS
 66
     1
 40
0.000000
 41
0.000000
  0
VERTEX
  8
0
  6
CONTINUOUS
 10
5.464800
 20
1.655720
  0
VERTEX
  8
0
  6
CONTINUOUS
 10
5.465240
 20
2.414720
  0
VERTEX
  8
0
  6
CONTINUOUS
 10
5.562480
 20
2.394040
  0
VERTEX
  8
0
  6
CONTINUOUS
 10
5.562040
 20
1.635040
  0
VERTEX
  8
0
  6
CONTINUOUS
 10
5.464800
 20
1.655720
  0
SEQEND
  8
0
  0
SOLID
  8
0
 62
    15
 10
5.562040
 20
1.635040
 11
5.562480
 21
2.394040
 12
5.660600
 22
1.610840
 13
5.661480
 23
2.369840
  0
POLYLINE
  8
0
  6
CONTINUOUS
 66
     1
 40
0.000000
 41
0.000000
  0
VERTEX
  8
0
  6
CONTINUOUS
 10
5.562040
 20
1.635040
  0
VERTEX
  8
0
  6
CONTINUOUS
 10
5.562480
 20
2.394040
  0
VERTEX
  8
0
  6
CONTINUOUS
 10
5.661480
 20
2.369840
  0
VERTEX
  8
0
  6
CONTINUOUS
 10
5.660600
 20
1.610840
  0
VERTEX
  8
0
  6
CONTINUOUS
 10
5.562040
 20
1.635040
  0
SEQEND
  8
0
  0
SOLID
  8
0
 62
    15
 10
5.660600
 20
1.610840
 11
5.661480
 21
2.369840
 12
5.760480
 22
1.581800
 13
5.760920
 23
2.340800
  0
POLYLINE
  8
0
  6
CONTINUOUS
 66
     1
 40
0.000000
 41
0.000000
  0
VERTEX
  8
0
  6
CONTINUOUS
 10
5.660600
 20
1.610840
  0
VERTEX
  8
0
  6
CONTINUOUS
 10
5.661480
 20
2.369840
  0
VERTEX
  8
0
  6
CONTINUOUS
 10
5.760920
 20
2.340800
  0
VERTEX
  8
0
  6
CONTINUOUS
 10
5.760480
 20
1.581800
  0
VERTEX
  8
0
  6
CONTINUOUS
 10
5.660600
 20
1.610840
  0
SEQEND
  8
0
  0
SOLID
  8
0
 62
    15
 10
5.760480
 20
1.581800
 11
5.760920
 21
2.340800
 12
5.859480
 22
1.548360
 13
5.859920
 23
2.307360
  0
POLYLINE
  8
0
  6
CONTINUOUS
 66
     1
 40
0.000000
 41
0.000000
  0
VERTEX
  8
0
  6
CONTINUOUS
 10
5.760480
 20
1.581800
  0
VERTEX
  8
0
  6
CONTINUOUS
 10
5.760920
 20
2.340800
  0
VERTEX
  8
0
  6
CONTINUOUS
 10
5.859920
 20
2.307360
  0
VERTEX
  8
0
  6
CONTINUOUS
 10
5.859480
 20
1.548360
  0
VERTEX
  8
0
  6
CONTINUOUS
 10
5.760480
 20
1.581800
  0
SEQEND
  8
0
  0
SOLID
  8
0
 62
    15
 10
5.859480
 20
1.548360
 11
5.859920
 21
2.307360
 12
5.956720
 22
1.509200
 13
5.957600
 23
2.268200
  0
POLYLINE
  8
0
  6
CONTINUOUS
 66
     1
 40
0.000000
 41
0.000000
  0
VERTEX
  8
0
  6
CONTINUOUS
 10
5.859480
 20
1.548360
  0
VERTEX
  8
0
  6
CONTINUOUS
 10
5.859920
 20
2.307360
  0
VERTEX
  8
0
  6
CONTINUOUS
 10
5.957600
 20
2.268200
  0
VERTEX
  8
0
  6
CONTINUOUS
 10
5.956720
 20
1.509200
  0
VERTEX
  8
0
  6
CONTINUOUS
 10
5.859480
 20
1.548360
  0
SEQEND
  8
0
  0
SOLID
  8
0
 62
    15
 10
5.956720
 20
1.509200
 11
5.957600
 21
2.268200
 12
6.026240
 22
1.481040
 13
6.026680
 23
2.240040
  0
POLYLINE
  8
0
  6
CONTINUOUS
 66
     1
 40
0.000000
 41
0.000000
  0
VERTEX
  8
0
  6
CONTINUOUS
 10
5.956720
 20
1.509200
  0
VERTEX
  8
0
  6
CONTINUOUS
 10
5.957600
 20
2.268200
  0
VERTEX
  8
0
  6
CONTINUOUS
 10
6.026680
 20
2.240040
  0
VERTEX
  8
0
  6
CONTINUOUS
 10
6.026240
 20
1.481040
  0
VERTEX
  8
0
  6
CONTINUOUS
 10
5.956720
 20
1.509200
  0
SEQEND
  8
0
  0
SOLID
  8
0
 62
    15
 10
6.026240
 20
1.481040
 11
6.026680
 21
2.240040
 12
6.090920
 22
1.458160
 13
6.091360
 23
2.217160
  0
POLYLINE
  8
0
  6
CONTINUOUS
 66
     1
 40
0.000000
 41
0.000000
  0
VERTEX
  8
0
  6
CONTINUOUS
 10
6.026240
 20
1.481040
  0
VERTEX
  8
0
  6
CONTINUOUS
 10
6.026680
 20
2.240040
  0
VERTEX
  8
0
  6
CONTINUOUS
 10
6.091360
 20
2.217160
  0
VERTEX
  8
0
  6
CONTINUOUS
 10
6.090920
 20
1.458160
  0
VERTEX
  8
0
  6
CONTINUOUS
 10
6.026240
 20
1.481040
  0
SEQEND
  8
0
  0
SOLID
  8
0
 62
    15
 10
6.090920
 20
1.458160
 11
6.091360
 21
2.217160
 12
6.150760
 22
1.440560
 13
6.151640
 23
2.199560
  0
POLYLINE
  8
0
  6
CONTINUOUS
 66
     1
 40
0.000000
 41
0.000000
  0
VERTEX
  8
0
  6
CONTINUOUS
 10
6.090920
 20
1.458160
  0
VERTEX
  8
0
  6
CONTINUOUS
 10
6.091360
 20
2.217160
  0
VERTEX
  8
0
  6
CONTINUOUS
 10
6.151640
 20
2.199560
  0
VERTEX
  8
0
  6
CONTINUOUS
 10
6.150760
 20
1.440560
  0
VERTEX
  8
0
  6
CONTINUOUS
 10
6.090920
 20
1.458160
  0
SEQEND
  8
0
  0
SOLID
  8
0
 62
    15
 10
6.150760
 20
1.440560
 11
6.151640
 21
2.199560
 12
6.206640
 22
1.427800
 13
6.207080
 23
2.186800
  0
POLYLINE
  8
0
  6
CONTINUOUS
 66
     1
 40
0.000000
 41
0.000000
  0
VERTEX
  8
0
  6
CONTINUOUS
 10
6.150760
 20
1.440560
  0
VERTEX
  8
0
  6
CONTINUOUS
 10
6.151640
 20
2.199560
  0
VERTEX
  8
0
  6
CONTINUOUS
 10
6.207080
 20
2.186800
  0
VERTEX
  8
0
  6
CONTINUOUS
 10
6.206640
 20
1.427800
  0
VERTEX
  8
0
  6
CONTINUOUS
 10
6.150760
 20
1.440560
  0
SEQEND
  8
0
  0
SOLID
  8
0
 62
    15
 10
6.206640
 20
1.427800
 11
6.207080
 21
2.186800
 12
6.258560
 22
1.419440
 13
6.259000
 23
2.178440
  0
POLYLINE
  8
0
  6
CONTINUOUS
 66
     1
 40
0.000000
 41
0.000000
  0
VERTEX
  8
0
  6
CONTINUOUS
 10
6.206640
 20
1.427800
  0
VERTEX
  8
0
  6
CONTINUOUS
 10
6.207080
 20
2.186800
  0
VERTEX
  8
0
  6
CONTINUOUS
 10
6.259000
 20
2.178440
  0
VERTEX
  8
0
  6
CONTINUOUS
 10
6.258560
 20
1.419440
  0
VERTEX
  8
0
  6
CONTINUOUS
 10
6.206640
 20
1.427800
  0
SEQEND
  8
0
  0
SOLID
  8
0
 62
    15
 10
6.258560
 20
1.419440
 11
6.259000
 21
2.178440
 12
6.306960
 22
1.415480
 13
6.307400
 23
2.174480
  0
POLYLINE
  8
0
  6
CONTINUOUS
 66
     1
 40
0.000000
 41
0.000000
  0
VERTEX
  8
0
  6
CONTINUOUS
 10
6.258560
 20
1.419440
  0
VERTEX
  8
0
  6
CONTINUOUS
 10
6.259000
 20
2.178440
  0
VERTEX
  8
0
  6
CONTINUOUS
 10
6.307400
 20
2.174480
  0
VERTEX
  8
0
  6
CONTINUOUS
 10
6.306960
 20
1.415480
  0
VERTEX
  8
0
  6
CONTINUOUS
 10
6.258560
 20
1.419440
  0
SEQEND
  8
0
  0
SOLID
  8
0
 62
    15
 10
6.306960
 20
1.415480
 11
6.307400
 21
2.174480
 12
6.351840
 22
1.414600
 13
6.352280
 23
2.173600
  0
POLYLINE
  8
0
  6
CONTINUOUS
 66
     1
 40
0.000000
 41
0.000000
  0
VERTEX
  8
0
  6
CONTINUOUS
 10
6.306960
 20
1.415480
  0
VERTEX
  8
0
  6
CONTINUOUS
 10
6.307400
 20
2.174480
  0
VERTEX
  8
0
  6
CONTINUOUS
 10
6.352280
 20
2.173600
  0
VERTEX
  8
0
  6
CONTINUOUS
 10
6.351840
 20
1.414600
  0
VERTEX
  8
0
  6
CONTINUOUS
 10
6.306960
 20
1.415480
  0
SEQEND
  8
0
  0
SOLID
  8
0
 62
    15
 10
6.351840
 20
1.414600
 11
6.352280
 21
2.173600
 12
6.394080
 22
1.417680
 13
6.394520
 23
2.176680
  0
POLYLINE
  8
0
  6
CONTINUOUS
 66
     1
 40
0.000000
 41
0.000000
  0
VERTEX
  8
0
  6
CONTINUOUS
 10
6.351840
 20
1.414600
  0
VERTEX
  8
0
  6
CONTINUOUS
 10
6.352280
 20
2.173600
  0
VERTEX
  8
0
  6
CONTINUOUS
 10
6.394520
 20
2.176680
  0
VERTEX
  8
0
  6
CONTINUOUS
 10
6.394080
 20
1.417680
  0
VERTEX
  8
0
  6
CONTINUOUS
 10
6.351840
 20
1.414600
  0
SEQEND
  8
0
  0
SOLID
  8
0
 62
    15
 10
6.394080
 20
1.417680
 11
6.394520
 21
2.176680
 12
6.471080
 22
1.432200
 13
6.471520
 23
2.191200
  0
POLYLINE
  8
0
  6
CONTINUOUS
 66
     1
 40
0.000000
 41
0.000000
  0
VERTEX
  8
0
  6
CONTINUOUS
 10
6.394080
 20
1.417680
  0
VERTEX
  8
0
  6
CONTINUOUS
 10
6.394520
 20
2.176680
  0
VERTEX
  8
0
  6
CONTINUOUS
 10
6.471520
 20
2.191200
  0
VERTEX
  8
0
  6
CONTINUOUS
 10
6.471080
 20
1.432200
  0
VERTEX
  8
0
  6
CONTINUOUS
 10
6.394080
 20
1.417680
  0
SEQEND
  8
0
  0
SOLID
  8
0
 62
    15
 10
6.471080
 20
1.432200
 11
6.471520
 21
2.191200
 12
6.540160
 22
1.455960
 13
6.541040
 23
2.214960
  0
POLYLINE
  8
0
  6
CONTINUOUS
 66
     1
 40
0.000000
 41
0.000000
  0
VERTEX
  8
0
  6
CONTINUOUS
 10
6.471080
 20
1.432200
  0
VERTEX
  8
0
  6
CONTINUOUS
 10
6.471520
 20
2.191200
  0
VERTEX
  8
0
  6
CONTINUOUS
 10
6.541040
 20
2.214960
  0
VERTEX
  8
0
  6
CONTINUOUS
 10
6.540160
 20
1.455960
  0
VERTEX
  8
0
  6
CONTINUOUS
 10
6.471080
 20
1.432200
  0
SEQEND
  8
0
  0
SOLID
  8
0
 62
    15
 10
6.540160
 20
1.455960
 11
6.541040
 21
2.214960
 12
6.604400
 22
1.486320
 13
6.604840
 23
2.245320
  0
POLYLINE
  8
0
  6
CONTINUOUS
 66
     1
 40
0.000000
 41
0.000000
  0
VERTEX
  8
0
  6
CONTINUOUS
 10
6.540160
 20
1.455960
  0
VERTEX
  8
0
  6
CONTINUOUS
 10
6.541040
 20
2.214960
  0
VERTEX
  8
0
  6
CONTINUOUS
 10
6.604840
 20
2.245320
  0
VERTEX
  8
0
  6
CONTINUOUS
 10
6.604400
 20
1.486320
  0
VERTEX
  8
0
  6
CONTINUOUS
 10
6.540160
 20
1.455960
  0
SEQEND
  8
0
  0
SOLID
  8
0
 62
    15
 10
6.604400
 20
1.486320
 11
6.604840
 21
2.245320
 12
6.666440
 22
1.519760
 13
6.666880
 23
2.278760
  0
POLYLINE
  8
0
  6
CONTINUOUS
 66
     1
 40
0.000000
 41
0.000000
  0
VERTEX
  8
0
  6
CONTINUOUS
 10
6.604400
 20
1.486320
  0
VERTEX
  8
0
  6
CONTINUOUS
 10
6.604840
 20
2.245320
  0
VERTEX
  8
0
  6
CONTINUOUS
 10
6.666880
 20
2.278760
  0
VERTEX
  8
0
  6
CONTINUOUS
 10
6.666440
 20
1.519760
  0
VERTEX
  8
0
  6
CONTINUOUS
 10
6.604400
 20
1.486320
  0
SEQEND
  8
0
  0
SOLID
  8
0
 62
    15
 10
6.666440
 20
1.519760
 11
6.666880
 21
2.278760
 12
6.691080
 22
1.535160
 13
6.691520
 23
2.294160
  0
POLYLINE
  8
0
  6
CONTINUOUS
 66
     1
 40
0.000000
 41
0.000000
  0
VERTEX
  8
0
  6
CONTINUOUS
 10
6.666440
 20
1.519760
  0
VERTEX
  8
0
  6
CONTINUOUS
 10
6.666880
 20
2.278760
  0
VERTEX
  8
0
  6
CONTINUOUS
 10
6.691520
 20
2.294160
  0
VERTEX
  8
0
  6
CONTINUOUS
 10
6.691080
 20
1.535160
  0
VERTEX
  8
0
  6
CONTINUOUS
 10
6.666440
 20
1.519760
  0
SEQEND
  8
0
  0
SOLID
  8
0
 62
    15
 10
6.691080
 20
1.535160
 11
6.691520
 21
2.294160
 12
6.718360
 22
1.552760
 13
6.718800
 23
2.311760
  0
POLYLINE
  8
0
  6
CONTINUOUS
 66
     1
 40
0.000000
 41
0.000000
  0
VERTEX
  8
0
  6
CONTINUOUS
 10
6.691080
 20
1.535160
  0
VERTEX
  8
0
  6
CONTINUOUS
 10
6.691520
 20
2.294160
  0
VERTEX
  8
0
  6
CONTINUOUS
 10
6.718800
 20
2.311760
  0
VERTEX
  8
0
  6
CONTINUOUS
 10
6.718360
 20
1.552760
  0
VERTEX
  8
0
  6
CONTINUOUS
 10
6.691080
 20
1.535160
  0
SEQEND
  8
0
  0
SOLID
  8
0
 62
    15
 10
6.718360
 20
1.552760
 11
6.718800
 21
2.311760
 12
6.779520
 22
1.592360
 13
6.780400
 23
2.351360
  0
POLYLINE
  8
0
  6
CONTINUOUS
 66
     1
 40
0.000000
 41
0.000000
  0
VERTEX
  8
0
  6
CONTINUOUS
 10
6.718360
 20
1.552760
  0
VERTEX
  8
0
  6
CONTINUOUS
 10
6.718800
 20
2.311760
  0
VERTEX
  8
0
  6
CONTINUOUS
 10
6.780400
 20
2.351360
  0
VERTEX
  8
0
  6
CONTINUOUS
 10
6.779520
 20
1.592360
  0
VERTEX
  8
0
  6
CONTINUOUS
 10
6.718360
 20
1.552760
  0
SEQEND
  8
0
  0
SOLID
  8
0
 62
    15
 10
6.779520
 20
1.592360
 11
6.780400
 21
2.351360
 12
6.847720
 22
1.629760
 13
6.848600
 23
2.388760
  0
POLYLINE
  8
0
  6
CONTINUOUS
 66
     1
 40
0.000000
 41
0.000000
  0
VERTEX
  8
0
  6
CONTINUOUS
 10
6.779520
 20
1.592360
  0
VERTEX
  8
0
  6
CONTINUOUS
 10
6.780400
 20
2.351360
  0
VERTEX
  8
0
  6
CONTINUOUS
 10
6.848600
 20
2.388760
  0
VERTEX
  8
0
  6
CONTINUOUS
 10
6.847720
 20
1.629760
  0
VERTEX
  8
0
  6
CONTINUOUS
 10
6.779520
 20
1.592360
  0
SEQEND
  8
0
  0
SOLID
  8
0
 62
    15
 10
6.847720
 20
1.629760
 11
6.848600
 21
2.388760
 12
6.883800
 22
1.645160
 13
6.884240
 23
2.404160
  0
POLYLINE
  8
0
  6
CONTINUOUS
 66
     1
 40
0.000000
 41
0.000000
  0
VERTEX
  8
0
  6
CONTINUOUS
 10
6.847720
 20
1.629760
  0
VERTEX
  8
0
  6
CONTINUOUS
 10
6.848600
 20
2.388760
  0
VERTEX
  8
0
  6
CONTINUOUS
 10
6.884240
 20
2.404160
  0
VERTEX
  8
0
  6
CONTINUOUS
 10
6.883800
 20
1.645160
  0
VERTEX
  8
0
  6
CONTINUOUS
 10
6.847720
 20
1.629760
  0
SEQEND
  8
0
  0
SOLID
  8
0
 62
    15
 10
6.883800
 20
1.645160
 11
6.884240
 21
2.404160
 12
6.919880
 22
1.657040
 13
6.920760
 23
2.416040
  0
POLYLINE
  8
0
  6
CONTINUOUS
 66
     1
 40
0.000000
 41
0.000000
  0
VERTEX
  8
0
  6
CONTINUOUS
 10
6.883800
 20
1.645160
  0
VERTEX
  8
0
  6
CONTINUOUS
 10
6.884240
 20
2.404160
  0
VERTEX
  8
0
  6
CONTINUOUS
 10
6.920760
 20
2.416040
  0
VERTEX
  8
0
  6
CONTINUOUS
 10
6.919880
 20
1.657040
  0
VERTEX
  8
0
  6
CONTINUOUS
 10
6.883800
 20
1.645160
  0
SEQEND
  8
0
  0
SOLID
  8
0
 62
    15
 10
6.919880
 20
1.657040
 11
6.920760
 21
2.416040
 12
6.956840
 22
1.664080
 13
6.957280
 23
2.423080
  0
POLYLINE
  8
0
  6
CONTINUOUS
 66
     1
 40
0.000000
 41
0.000000
  0
VERTEX
  8
0
  6
CONTINUOUS
 10
6.919880
 20
1.657040
  0
VERTEX
  8
0
  6
CONTINUOUS
 10
6.920760
 20
2.416040
  0
VERTEX
  8
0
  6
CONTINUOUS
 10
6.957280
 20
2.423080
  0
VERTEX
  8
0
  6
CONTINUOUS
 10
6.956840
 20
1.664080
  0
VERTEX
  8
0
  6
CONTINUOUS
 10
6.919880
 20
1.657040
  0
SEQEND
  8
0
  0
SOLID
  8
0
 62
    15
 10
6.956840
 20
1.664080
 11
6.957280
 21
2.423080
 12
6.993800
 22
1.664960
 13
6.994240
 23
2.423960
  0
POLYLINE
  8
0
  6
CONTINUOUS
 66
     1
 40
0.000000
 41
0.000000
  0
VERTEX
  8
0
  6
CONTINUOUS
 10
6.956840
 20
1.664080
  0
VERTEX
  8
0
  6
CONTINUOUS
 10
6.957280
 20
2.423080
  0
VERTEX
  8
0
  6
CONTINUOUS
 10
6.994240
 20
2.423960
  0
VERTEX
  8
0
  6
CONTINUOUS
 10
6.993800
 20
1.664960
  0
VERTEX
  8
0
  6
CONTINUOUS
 10
6.956840
 20
1.664080
  0
SEQEND
  8
0
  0
SOLID
  8
0
 62
    15
 10
6.993800
 20
1.664960
 11
6.994240
 21
2.423960
 12
7.030320
 22
1.659240
 13
7.030760
 23
2.418240
  0
POLYLINE
  8
0
  6
CONTINUOUS
 66
     1
 40
0.000000
 41
0.000000
  0
VERTEX
  8
0
  6
CONTINUOUS
 10
6.993800
 20
1.664960
  0
VERTEX
  8
0
  6
CONTINUOUS
 10
6.994240
 20
2.423960
  0
VERTEX
  8
0
  6
CONTINUOUS
 10
7.030760
 20
2.418240
  0
VERTEX
  8
0
  6
CONTINUOUS
 10
7.030320
 20
1.659240
  0
VERTEX
  8
0
  6
CONTINUOUS
 10
6.993800
 20
1.664960
  0
SEQEND
  8
0
  0
SOLID
  8
0
 62
    15
 10
7.030320
 20
1.659240
 11
7.030760
 21
2.418240
 12
7.066400
 22
1.645160
 13
7.066840
 23
2.404160
  0
POLYLINE
  8
0
  6
CONTINUOUS
 66
     1
 40
0.000000
 41
0.000000
  0
VERTEX
  8
0
  6
CONTINUOUS
 10
7.030320
 20
1.659240
  0
VERTEX
  8
0
  6
CONTINUOUS
 10
7.030760
 20
2.418240
  0
VERTEX
  8
0
  6
CONTINUOUS
 10
7.066840
 20
2.404160
  0
VERTEX
  8
0
  6
CONTINUOUS
 10
7.066400
 20
1.645160
  0
VERTEX
  8
0
  6
CONTINUOUS
 10
7.030320
 20
1.659240
  0
SEQEND
  8
0
  0
SOLID
  8
0
 62
    15
 10
7.066400
 20
1.645160
 11
7.066840
 21
2.404160
 12
7.101160
 22
1.622280
 13
7.101600
 23
2.381280
  0
POLYLINE
  8
0
  6
CONTINUOUS
 66
     1
 40
0.000000
 41
0.000000
  0
VERTEX
  8
0
  6
CONTINUOUS
 10
7.066400
 20
1.645160
  0
VERTEX
  8
0
  6
CONTINUOUS
 10
7.066840
 20
2.404160
  0
VERTEX
  8
0
  6
CONTINUOUS
 10
7.101600
 20
2.381280
  0
VERTEX
  8
0
  6
CONTINUOUS
 10
7.101160
 20
1.622280
  0
VERTEX
  8
0
  6
CONTINUOUS
 10
7.066400
 20
1.645160
  0
SEQEND
  8
0
  0
SOLID
  8
0
 62
    15
 10
7.101160
 20
1.622280
 11
7.101600
 21
2.381280
 12
7.134600
 22
1.589280
 13
7.135480
 23
2.348280
  0
POLYLINE
  8
0
  6
CONTINUOUS
 66
     1
 40
0.000000
 41
0.000000
  0
VERTEX
  8
0
  6
CONTINUOUS
 10
7.101160
 20
1.622280
  0
VERTEX
  8
0
  6
CONTINUOUS
 10
7.101600
 20
2.381280
  0
VERTEX
  8
0
  6
CONTINUOUS
 10
7.135480
 20
2.348280
  0
VERTEX
  8
0
  6
CONTINUOUS
 10
7.134600
 20
1.589280
  0
VERTEX
  8
0
  6
CONTINUOUS
 10
7.101160
 20
1.622280
  0
SEQEND
  8
0
  0
SOLID
  8
0
 62
    15
 10
7.166720
 20
1.544840
 11
7.167600
 21
2.303840
 12
7.197080
 22
1.488080
 13
7.197520
 23
2.247080
  0
POLYLINE
  8
0
  6
CONTINUOUS
 66
     1
 40
0.000000
 41
0.000000
  0
VERTEX
  8
0
  6
CONTINUOUS
 10
7.166720
 20
1.544840
  0
VERTEX
  8
0
  6
CONTINUOUS
 10
7.167600
 20
2.303840
  0
VERTEX
  8
0
  6
CONTINUOUS
 10
7.197520
 20
2.247080
  0
VERTEX
  8
0
  6
CONTINUOUS
 10
7.197080
 20
1.488080
  0
VERTEX
  8
0
  6
CONTINUOUS
 10
7.166720
 20
1.544840
  0
SEQEND
  8
0
  0
SOLID
  8
0
 62
    15
 10
7.134600
 20
1.589280
 11
7.135480
 21
2.348280
 12
7.166720
 22
1.544840
 13
7.167600
 23
2.303840
  0
POLYLINE
  8
0
  6
CONTINUOUS
 66
     1
 40
0.000000
 41
0.000000
  0
VERTEX
  8
0
  6
CONTINUOUS
 10
7.134600
 20
1.589280
  0
VERTEX
  8
0
  6
CONTINUOUS
 10
7.135480
 20
2.348280
  0
VERTEX
  8
0
  6
CONTINUOUS
 10
7.167600
 20
2.303840
  0
VERTEX
  8
0
  6
CONTINUOUS
 10
7.166720
 20
1.544840
  0
VERTEX
  8
0
  6
CONTINUOUS
 10
7.134600
 20
1.589280
  0
SEQEND
  8
0
  0
SOLID
  8
0
 62
    15
 10
7.197080
 20
1.488080
 11
7.197520
 21
2.247080
 12
7.198400
 22
1.481480
 13
7.198840
 23
2.240480
  0
POLYLINE
  8
0
  6
CONTINUOUS
 66
     1
 40
0.000000
 41
0.000000
  0
VERTEX
  8
0
  6
CONTINUOUS
 10
7.197080
 20
1.488080
  0
VERTEX
  8
0
  6
CONTINUOUS
 10
7.197520
 20
2.247080
  0
VERTEX
  8
0
  6
CONTINUOUS
 10
7.198840
 20
2.240480
  0
VERTEX
  8
0
  6
CONTINUOUS
 10
7.198400
 20
1.481480
  0
VERTEX
  8
0
  6
CONTINUOUS
 10
7.197080
 20
1.488080
  0
SEQEND
  8
0
  0
SOLID
  8
0
 62
    15
 10
7.198400
 20
1.481480
 11
7.198840
 21
2.240480
 12
7.198400
 22
0.961400
 13
7.198840
 23
1.720400
  0
POLYLINE
  8
0
  6
CONTINUOUS
 66
     1
 40
0.000000
 41
0.000000
  0
VERTEX
  8
0
  6
CONTINUOUS
 10
7.198400
 20
1.481480
  0
VERTEX
  8
0
  6
CONTINUOUS
 10
7.198840
 20
2.240480
  0
VERTEX
  8
0
  6
CONTINUOUS
 10
7.198840
 20
1.720400
  0
VERTEX
  8
0
  6
CONTINUOUS
 10
7.198400
 20
0.961400
  0
VERTEX
  8
0
  6
CONTINUOUS
 10
7.198400
 20
1.481480
  0
SEQEND
  8
0
  0
SOLID
  8
0
 62
    15
 10
4.595800
 20
1.718640
 11
4.596240
 21
2.477640
 12
4.842200
 22
1.717320
 13
4.843080
 23
2.476320
  0
POLYLINE
  8
0
  6
CONTINUOUS
 66
     1
 40
0.000000
 41
0.000000
  0
VERTEX
  8
0
  6
CONTINUOUS
 10
4.595800
 20
1.718640
  0
VERTEX
  8
0
  6
CONTINUOUS
 10
4.596240
 20
2.477640
  0
VERTEX
  8
0
  6
CONTINUOUS
 10
4.843080
 20
2.476320
  0
VERTEX
  8
0
  6
CONTINUOUS
 10
4.842200
 20
1.717320
  0
VERTEX
  8
0
  6
CONTINUOUS
 10
4.595800
 20
1.718640
  0
SEQEND
  8
0
  0
SOLID
  8
0
 62
    15
 10
1.973840
 20
1.478400
 11
1.974720
 21
2.237400
 12
1.975160
 22
1.485000
 13
1.976040
 23
2.244000
  0
POLYLINE
  8
0
  6
CONTINUOUS
 66
     1
 40
0.000000
 41
0.000000
  0
VERTEX
  8
0
  6
CONTINUOUS
 10
1.973840
 20
1.478400
  0
VERTEX
  8
0
  6
CONTINUOUS
 10
1.974720
 20
2.237400
  0
VERTEX
  8
0
  6
CONTINUOUS
 10
1.976040
 20
2.244000
  0
VERTEX
  8
0
  6
CONTINUOUS
 10
1.975160
 20
1.485000
  0
VERTEX
  8
0
  6
CONTINUOUS
 10
1.973840
 20
1.478400
  0
SEQEND
  8
0
  0
SOLID
  8
0
 62
    15
 10
1.975160
 20
1.485000
 11
1.976040
 21
2.244000
 12
2.005520
 22
1.541760
 13
2.005960
 23
2.301200
  0
POLYLINE
  8
0
  6
CONTINUOUS
 66
     1
 40
0.000000
 41
0.000000
  0
VERTEX
  8
0
  6
CONTINUOUS
 10
1.975160
 20
1.485000
  0
VERTEX
  8
0
  6
CONTINUOUS
 10
1.976040
 20
2.244000
  0
VERTEX
  8
0
  6
CONTINUOUS
 10
2.005960
 20
2.301200
  0
VERTEX
  8
0
  6
CONTINUOUS
 10
2.005520
 20
1.541760
  0
VERTEX
  8
0
  6
CONTINUOUS
 10
1.975160
 20
1.485000
  0
SEQEND
  8
0
  0
SOLID
  8
0
 62
    15
 10
2.005520
 20
1.541760
 11
2.005960
 21
2.301200
 12
2.037640
 22
1.586200
 13
2.038080
 23
2.345200
  0
POLYLINE
  8
0
  6
CONTINUOUS
 66
     1
 40
0.000000
 41
0.000000
  0
VERTEX
  8
0
  6
CONTINUOUS
 10
2.005520
 20
1.541760
  0
VERTEX
  8
0
  6
CONTINUOUS
 10
2.005960
 20
2.301200
  0
VERTEX
  8
0
  6
CONTINUOUS
 10
2.038080
 20
2.345200
  0
VERTEX
  8
0
  6
CONTINUOUS
 10
2.037640
 20
1.586200
  0
VERTEX
  8
0
  6
CONTINUOUS
 10
2.005520
 20
1.541760
  0
SEQEND
  8
0
  0
SOLID
  8
0
 62
    15
 10
2.037640
 20
1.586200
 11
2.038080
 21
2.345200
 12
2.071080
 22
1.619640
 13
2.071520
 23
2.378640
  0
POLYLINE
  8
0
  6
CONTINUOUS
 66
     1
 40
0.000000
 41
0.000000
  0
VERTEX
  8
0
  6
CONTINUOUS
 10
2.037640
 20
1.586200
  0
VERTEX
  8
0
  6
CONTINUOUS
 10
2.038080
 20
2.345200
  0
VERTEX
  8
0
  6
CONTINUOUS
 10
2.071520
 20
2.378640
  0
VERTEX
  8
0
  6
CONTINUOUS
 10
2.071080
 20
1.619640
  0
VERTEX
  8
0
  6
CONTINUOUS
 10
2.037640
 20
1.586200
  0
SEQEND
  8
0
  0
SOLID
  8
0
 62
    15
 10
2.071080
 20
1.619640
 11
2.071520
 21
2.378640
 12
2.105840
 22
1.642520
 13
2.106720
 23
2.401520
  0
POLYLINE
  8
0
  6
CONTINUOUS
 66
     1
 40
0.000000
 41
0.000000
  0
VERTEX
  8
0
  6
CONTINUOUS
 10
2.071080
 20
1.619640
  0
VERTEX
  8
0
  6
CONTINUOUS
 10
2.071520
 20
2.378640
  0
VERTEX
  8
0
  6
CONTINUOUS
 10
2.106720
 20
2.401520
  0
VERTEX
  8
0
  6
CONTINUOUS
 10
2.105840
 20
1.642520
  0
VERTEX
  8
0
  6
CONTINUOUS
 10
2.071080
 20
1.619640
  0
SEQEND
  8
0
  0
SOLID
  8
0
 62
    15
 10
2.105840
 20
1.642520
 11
2.106720
 21
2.401520
 12
2.141920
 22
1.656160
 13
2.142360
 23
2.415600
  0
POLYLINE
  8
0
  6
CONTINUOUS
 66
     1
 40
0.000000
 41
0.000000
  0
VERTEX
  8
0
  6
CONTINUOUS
 10
2.105840
 20
1.642520
  0
VERTEX
  8
0
  6
CONTINUOUS
 10
2.106720
 20
2.401520
  0
VERTEX
  8
0
  6
CONTINUOUS
 10
2.142360
 20
2.415600
  0
VERTEX
  8
0
  6
CONTINUOUS
 10
2.141920
 20
1.656160
  0
VERTEX
  8
0
  6
CONTINUOUS
 10
2.105840
 20
1.642520
  0
SEQEND
  8
0
  0
SOLID
  8
0
 62
    15
 10
2.141920
 20
1.656160
 11
2.142360
 21
2.415600
 12
2.178440
 22
1.662320
 13
2.178880
 23
2.421320
  0
POLYLINE
  8
0
  6
CONTINUOUS
 66
     1
 40
0.000000
 41
0.000000
  0
VERTEX
  8
0
  6
CONTINUOUS
 10
2.141920
 20
1.656160
  0
VERTEX
  8
0
  6
CONTINUOUS
 10
2.142360
 20
2.415600
  0
VERTEX
  8
0
  6
CONTINUOUS
 10
2.178880
 20
2.421320
  0
VERTEX
  8
0
  6
CONTINUOUS
 10
2.178440
 20
1.662320
  0
VERTEX
  8
0
  6
CONTINUOUS
 10
2.141920
 20
1.656160
  0
SEQEND
  8
0
  0
SOLID
  8
0
 62
    15
 10
2.178440
 20
1.662320
 11
2.178880
 21
2.421320
 12
2.215400
 22
1.661000
 13
2.215840
 23
2.420000
  0
POLYLINE
  8
0
  6
CONTINUOUS
 66
     1
 40
0.000000
 41
0.000000
  0
VERTEX
  8
0
  6
CONTINUOUS
 10
2.178440
 20
1.662320
  0
VERTEX
  8
0
  6
CONTINUOUS
 10
2.178880
 20
2.421320
  0
VERTEX
  8
0
  6
CONTINUOUS
 10
2.215840
 20
2.420000
  0
VERTEX
  8
0
  6
CONTINUOUS
 10
2.215400
 20
1.661000
  0
VERTEX
  8
0
  6
CONTINUOUS
 10
2.178440
 20
1.662320
  0
SEQEND
  8
0
  0
SOLID
  8
0
 62
    15
 10
2.215400
 20
1.661000
 11
2.215840
 21
2.420000
 12
2.251920
 22
1.654400
 13
2.252800
 23
2.413400
  0
POLYLINE
  8
0
  6
CONTINUOUS
 66
     1
 40
0.000000
 41
0.000000
  0
VERTEX
  8
0
  6
CONTINUOUS
 10
2.215400
 20
1.661000
  0
VERTEX
  8
0
  6
CONTINUOUS
 10
2.215840
 20
2.420000
  0
VERTEX
  8
0
  6
CONTINUOUS
 10
2.252800
 20
2.413400
  0
VERTEX
  8
0
  6
CONTINUOUS
 10
2.251920
 20
1.654400
  0
VERTEX
  8
0
  6
CONTINUOUS
 10
2.215400
 20
1.661000
  0
SEQEND
  8
0
  0
SOLID
  8
0
 62
    15
 10
2.251920
 20
1.654400
 11
2.252800
 21
2.413400
 12
2.288440
 22
1.642520
 13
2.289320
 23
2.401520
  0
POLYLINE
  8
0
  6
CONTINUOUS
 66
     1
 40
0.000000
 41
0.000000
  0
VERTEX
  8
0
  6
CONTINUOUS
 10
2.251920
 20
1.654400
  0
VERTEX
  8
0
  6
CONTINUOUS
 10
2.252800
 20
2.413400
  0
VERTEX
  8
0
  6
CONTINUOUS
 10
2.289320
 20
2.401520
  0
VERTEX
  8
0
  6
CONTINUOUS
 10
2.288440
 20
1.642520
  0
VERTEX
  8
0
  6
CONTINUOUS
 10
2.251920
 20
1.654400
  0
SEQEND
  8
0
  0
SOLID
  8
0
 62
    15
 10
2.288440
 20
1.642520
 11
2.289320
 21
2.401520
 12
2.324080
 22
1.627120
 13
2.324960
 23
2.386120
  0
POLYLINE
  8
0
  6
CONTINUOUS
 66
     1
 40
0.000000
 41
0.000000
  0
VERTEX
  8
0
  6
CONTINUOUS
 10
2.288440
 20
1.642520
  0
VERTEX
  8
0
  6
CONTINUOUS
 10
2.289320
 20
2.401520
  0
VERTEX
  8
0
  6
CONTINUOUS
 10
2.324960
 20
2.386120
  0
VERTEX
  8
0
  6
CONTINUOUS
 10
2.324080
 20
1.627120
  0
VERTEX
  8
0
  6
CONTINUOUS
 10
2.288440
 20
1.642520
  0
SEQEND
  8
0
  0
SOLID
  8
0
 62
    15
 10
2.324080
 20
1.627120
 11
2.324960
 21
2.386120
 12
2.392280
 22
1.589720
 13
2.393160
 23
2.348720
  0
POLYLINE
  8
0
  6
CONTINUOUS
 66
     1
 40
0.000000
 41
0.000000
  0
VERTEX
  8
0
  6
CONTINUOUS
 10
2.324080
 20
1.627120
  0
VERTEX
  8
0
  6
CONTINUOUS
 10
2.324960
 20
2.386120
  0
VERTEX
  8
0
  6
CONTINUOUS
 10
2.393160
 20
2.348720
  0
VERTEX
  8
0
  6
CONTINUOUS
 10
2.392280
 20
1.589720
  0
VERTEX
  8
0
  6
CONTINUOUS
 10
2.324080
 20
1.627120
  0
SEQEND
  8
0
  0
SOLID
  8
0
 62
    15
 10
2.392280
 20
1.589720
 11
2.393160
 21
2.348720
 12
2.453880
 22
1.550120
 13
2.454320
 23
2.309120
  0
POLYLINE
  8
0
  6
CONTINUOUS
 66
     1
 40
0.000000
 41
0.000000
  0
VERTEX
  8
0
  6
CONTINUOUS
 10
2.392280
 20
1.589720
  0
VERTEX
  8
0
  6
CONTINUOUS
 10
2.393160
 20
2.348720
  0
VERTEX
  8
0
  6
CONTINUOUS
 10
2.454320
 20
2.309120
  0
VERTEX
  8
0
  6
CONTINUOUS
 10
2.453880
 20
1.550120
  0
VERTEX
  8
0
  6
CONTINUOUS
 10
2.392280
 20
1.589720
  0
SEQEND
  8
0
  0
SOLID
  8
0
 62
    15
 10
2.453880
 20
1.550120
 11
2.454320
 21
2.309120
 12
2.481160
 22
1.532080
 13
2.481600
 23
2.291080
  0
POLYLINE
  8
0
  6
CONTINUOUS
 66
     1
 40
0.000000
 41
0.000000
  0
VERTEX
  8
0
  6
CONTINUOUS
 10
2.453880
 20
1.550120
  0
VERTEX
  8
0
  6
CONTINUOUS
 10
2.454320
 20
2.309120
  0
VERTEX
  8
0
  6
CONTINUOUS
 10
2.481600
 20
2.291080
  0
VERTEX
  8
0
  6
CONTINUOUS
 10
2.481160
 20
1.532080
  0
VERTEX
  8
0
  6
CONTINUOUS
 10
2.453880
 20
1.550120
  0
SEQEND
  8
0
  0
SOLID
  8
0
 62
    15
 10
2.481160
 20
1.532080
 11
2.481600
 21
2.291080
 12
2.505800
 22
1.517120
 13
2.506680
 23
2.276120
  0
POLYLINE
  8
0
  6
CONTINUOUS
 66
     1
 40
0.000000
 41
0.000000
  0
VERTEX
  8
0
  6
CONTINUOUS
 10
2.481160
 20
1.532080
  0
VERTEX
  8
0
  6
CONTINUOUS
 10
2.481600
 20
2.291080
  0
VERTEX
  8
0
  6
CONTINUOUS
 10
2.506680
 20
2.276120
  0
VERTEX
  8
0
  6
CONTINUOUS
 10
2.505800
 20
1.517120
  0
VERTEX
  8
0
  6
CONTINUOUS
 10
2.481160
 20
1.532080
  0
SEQEND
  8
0
  0
SOLID
  8
0
 62
    15
 10
2.505800
 20
1.517120
 11
2.506680
 21
2.276120
 12
2.567840
 22
1.483680
 13
2.568280
 23
2.242680
  0
POLYLINE
  8
0
  6
CONTINUOUS
 66
     1
 40
0.000000
 41
0.000000
  0
VERTEX
  8
0
  6
CONTINUOUS
 10
2.505800
 20
1.517120
  0
VERTEX
  8
0
  6
CONTINUOUS
 10
2.506680
 20
2.276120
  0
VERTEX
  8
0
  6
CONTINUOUS
 10
2.568280
 20
2.242680
  0
VERTEX
  8
0
  6
CONTINUOUS
 10
2.567840
 20
1.483680
  0
VERTEX
  8
0
  6
CONTINUOUS
 10
2.505800
 20
1.517120
  0
SEQEND
  8
0
  0
SOLID
  8
0
 62
    15
 10
2.567840
 20
1.483680
 11
2.568280
 21
2.242680
 12
2.632080
 22
1.453320
 13
2.632520
 23
2.212320
  0
POLYLINE
  8
0
  6
CONTINUOUS
 66
     1
 40
0.000000
 41
0.000000
  0
VERTEX
  8
0
  6
CONTINUOUS
 10
2.567840
 20
1.483680
  0
VERTEX
  8
0
  6
CONTINUOUS
 10
2.568280
 20
2.242680
  0
VERTEX
  8
0
  6
CONTINUOUS
 10
2.632520
 20
2.212320
  0
VERTEX
  8
0
  6
CONTINUOUS
 10
2.632080
 20
1.453320
  0
VERTEX
  8
0
  6
CONTINUOUS
 10
2.567840
 20
1.483680
  0
SEQEND
  8
0
  0
SOLID
  8
0
 62
    15
 10
2.632080
 20
1.453320
 11
2.632520
 21
2.212320
 12
2.701160
 22
1.429560
 13
2.701600
 23
2.188560
  0
POLYLINE
  8
0
  6
CONTINUOUS
 66
     1
 40
0.000000
 41
0.000000
  0
VERTEX
  8
0
  6
CONTINUOUS
 10
2.632080
 20
1.453320
  0
VERTEX
  8
0
  6
CONTINUOUS
 10
2.632520
 20
2.212320
  0
VERTEX
  8
0
  6
CONTINUOUS
 10
2.701600
 20
2.188560
  0
VERTEX
  8
0
  6
CONTINUOUS
 10
2.701160
 20
1.429560
  0
VERTEX
  8
0
  6
CONTINUOUS
 10
2.632080
 20
1.453320
  0
SEQEND
  8
0
  0
SOLID
  8
0
 62
    15
 10
2.701160
 20
1.429560
 11
2.701600
 21
2.188560
 12
2.778160
 22
1.415040
 13
2.778600
 23
2.174040
  0
POLYLINE
  8
0
  6
CONTINUOUS
 66
     1
 40
0.000000
 41
0.000000
  0
VERTEX
  8
0
  6
CONTINUOUS
 10
2.701160
 20
1.429560
  0
VERTEX
  8
0
  6
CONTINUOUS
 10
2.701600
 20
2.188560
  0
VERTEX
  8
0
  6
CONTINUOUS
 10
2.778600
 20
2.174040
  0
VERTEX
  8
0
  6
CONTINUOUS
 10
2.778160
 20
1.415040
  0
VERTEX
  8
0
  6
CONTINUOUS
 10
2.701160
 20
1.429560
  0
SEQEND
  8
0
  0
SOLID
  8
0
 62
    15
 10
2.778160
 20
1.415040
 11
2.778600
 21
2.174040
 12
2.820400
 22
1.411960
 13
2.820840
 23
2.170960
  0
POLYLINE
  8
0
  6
CONTINUOUS
 66
     1
 40
0.000000
 41
0.000000
  0
VERTEX
  8
0
  6
CONTINUOUS
 10
2.778160
 20
1.415040
  0
VERTEX
  8
0
  6
CONTINUOUS
 10
2.778600
 20
2.174040
  0
VERTEX
  8
0
  6
CONTINUOUS
 10
2.820840
 20
2.170960
  0
VERTEX
  8
0
  6
CONTINUOUS
 10
2.820400
 20
1.411960
  0
VERTEX
  8
0
  6
CONTINUOUS
 10
2.778160
 20
1.415040
  0
SEQEND
  8
0
  0
SOLID
  8
0
 62
    15
 10
2.820400
 20
1.411960
 11
2.820840
 21
2.170960
 12
2.865280
 22
1.412400
 13
2.865720
 23
2.171400
  0
POLYLINE
  8
0
  6
CONTINUOUS
 66
     1
 40
0.000000
 41
0.000000
  0
VERTEX
  8
0
  6
CONTINUOUS
 10
2.820400
 20
1.411960
  0
VERTEX
  8
0
  6
CONTINUOUS
 10
2.820840
 20
2.170960
  0
VERTEX
  8
0
  6
CONTINUOUS
 10
2.865720
 20
2.171400
  0
VERTEX
  8
0
  6
CONTINUOUS
 10
2.865280
 20
1.412400
  0
VERTEX
  8
0
  6
CONTINUOUS
 10
2.820400
 20
1.411960
  0
SEQEND
  8
0
  0
SOLID
  8
0
 62
    15
 10
2.865280
 20
1.412400
 11
2.865720
 21
2.171400
 12
2.913680
 22
1.416800
 13
2.914120
 23
2.175800
  0
POLYLINE
  8
0
  6
CONTINUOUS
 66
     1
 40
0.000000
 41
0.000000
  0
VERTEX
  8
0
  6
CONTINUOUS
 10
2.865280
 20
1.412400
  0
VERTEX
  8
0
  6
CONTINUOUS
 10
2.865720
 20
2.171400
  0
VERTEX
  8
0
  6
CONTINUOUS
 10
2.914120
 20
2.175800
  0
VERTEX
  8
0
  6
CONTINUOUS
 10
2.913680
 20
1.416800
  0
VERTEX
  8
0
  6
CONTINUOUS
 10
2.865280
 20
1.412400
  0
SEQEND
  8
0
  0
SOLID
  8
0
 62
    15
 10
2.913680
 20
1.416800
 11
2.914120
 21
2.175800
 12
2.965600
 22
1.425160
 13
2.966040
 23
2.184160
  0
POLYLINE
  8
0
  6
CONTINUOUS
 66
     1
 40
0.000000
 41
0.000000
  0
VERTEX
  8
0
  6
CONTINUOUS
 10
2.913680
 20
1.416800
  0
VERTEX
  8
0
  6
CONTINUOUS
 10
2.914120
 20
2.175800
  0
VERTEX
  8
0
  6
CONTINUOUS
 10
2.966040
 20
2.184160
  0
VERTEX
  8
0
  6
CONTINUOUS
 10
2.965600
 20
1.425160
  0
VERTEX
  8
0
  6
CONTINUOUS
 10
2.913680
 20
1.416800
  0
SEQEND
  8
0
  0
SOLID
  8
0
 62
    15
 10
2.965600
 20
1.425160
 11
2.966040
 21
2.184160
 12
3.021040
 22
1.437920
 13
3.021920
 23
2.196920
  0
POLYLINE
  8
0
  6
CONTINUOUS
 66
     1
 40
0.000000
 41
0.000000
  0
VERTEX
  8
0
  6
CONTINUOUS
 10
2.965600
 20
1.425160
  0
VERTEX
  8
0
  6
CONTINUOUS
 10
2.966040
 20
2.184160
  0
VERTEX
  8
0
  6
CONTINUOUS
 10
3.021920
 20
2.196920
  0
VERTEX
  8
0
  6
CONTINUOUS
 10
3.021040
 20
1.437920
  0
VERTEX
  8
0
  6
CONTINUOUS
 10
2.965600
 20
1.425160
  0
SEQEND
  8
0
  0
SOLID
  8
0
 62
    15
 10
3.021040
 20
1.437920
 11
3.021920
 21
2.196920
 12
3.081320
 22
1.455520
 13
3.081760
 23
2.214520
  0
POLYLINE
  8
0
  6
CONTINUOUS
 66
     1
 40
0.000000
 41
0.000000
  0
VERTEX
  8
0
  6
CONTINUOUS
 10
3.021040
 20
1.437920
  0
VERTEX
  8
0
  6
CONTINUOUS
 10
3.021920
 20
2.196920
  0
VERTEX
  8
0
  6
CONTINUOUS
 10
3.081760
 20
2.214520
  0
VERTEX
  8
0
  6
CONTINUOUS
 10
3.081320
 20
1.455520
  0
VERTEX
  8
0
  6
CONTINUOUS
 10
3.021040
 20
1.437920
  0
SEQEND
  8
0
  0
SOLID
  8
0
 62
    15
 10
3.081320
 20
1.455520
 11
3.081760
 21
2.214520
 12
3.146000
 22
1.478400
 13
3.146440
 23
2.237400
  0
POLYLINE
  8
0
  6
CONTINUOUS
 66
     1
 40
0.000000
 41
0.000000
  0
VERTEX
  8
0
  6
CONTINUOUS
 10
3.081320
 20
1.455520
  0
VERTEX
  8
0
  6
CONTINUOUS
 10
3.081760
 20
2.214520
  0
VERTEX
  8
0
  6
CONTINUOUS
 10
3.146440
 20
2.237400
  0
VERTEX
  8
0
  6
CONTINUOUS
 10
3.146000
 20
1.478400
  0
VERTEX
  8
0
  6
CONTINUOUS
 10
3.081320
 20
1.455520
  0
SEQEND
  8
0
  0
SOLID
  8
0
 62
    15
 10
3.146000
 20
1.478400
 11
3.146440
 21
2.237400
 12
3.215520
 22
1.506560
 13
3.215960
 23
2.265560
  0
POLYLINE
  8
0
  6
CONTINUOUS
 66
     1
 40
0.000000
 41
0.000000
  0
VERTEX
  8
0
  6
CONTINUOUS
 10
3.146000
 20
1.478400
  0
VERTEX
  8
0
  6
CONTINUOUS
 10
3.146440
 20
2.237400
  0
VERTEX
  8
0
  6
CONTINUOUS
 10
3.215960
 20
2.265560
  0
VERTEX
  8
0
  6
CONTINUOUS
 10
3.215520
 20
1.506560
  0
VERTEX
  8
0
  6
CONTINUOUS
 10
3.146000
 20
1.478400
  0
SEQEND
  8
0
  0
SOLID
  8
0
 62
    15
 10
3.215520
 20
1.506560
 11
3.215960
 21
2.265560
 12
3.312760
 22
1.545280
 13
3.313200
 23
2.304280
  0
POLYLINE
  8
0
  6
CONTINUOUS
 66
     1
 40
0.000000
 41
0.000000
  0
VERTEX
  8
0
  6
CONTINUOUS
 10
3.215520
 20
1.506560
  0
VERTEX
  8
0
  6
CONTINUOUS
 10
3.215960
 20
2.265560
  0
VERTEX
  8
0
  6
CONTINUOUS
 10
3.313200
 20
2.304280
  0
VERTEX
  8
0
  6
CONTINUOUS
 10
3.312760
 20
1.545280
  0
VERTEX
  8
0
  6
CONTINUOUS
 10
3.215520
 20
1.506560
  0
SEQEND
  8
0
  0
SOLID
  8
0
 62
    15
 10
3.312760
 20
1.545280
 11
3.313200
 21
2.304280
 12
3.411760
 22
1.579160
 13
3.412640
 23
2.338160
  0
POLYLINE
  8
0
  6
CONTINUOUS
 66
     1
 40
0.000000
 41
0.000000
  0
VERTEX
  8
0
  6
CONTINUOUS
 10
3.312760
 20
1.545280
  0
VERTEX
  8
0
  6
CONTINUOUS
 10
3.313200
 20
2.304280
  0
VERTEX
  8
0
  6
CONTINUOUS
 10
3.412640
 20
2.338160
  0
VERTEX
  8
0
  6
CONTINUOUS
 10
3.411760
 20
1.579160
  0
VERTEX
  8
0
  6
CONTINUOUS
 10
3.312760
 20
1.545280
  0
SEQEND
  8
0
  0
SOLID
  8
0
 62
    15
 10
3.411760
 20
1.579160
 11
3.412640
 21
2.338160
 12
3.511200
 22
1.608200
 13
3.512080
 23
2.367200
  0
POLYLINE
  8
0
  6
CONTINUOUS
 66
     1
 40
0.000000
 41
0.000000
  0
VERTEX
  8
0
  6
CONTINUOUS
 10
3.411760
 20
1.579160
  0
VERTEX
  8
0
  6
CONTINUOUS
 10
3.412640
 20
2.338160
  0
VERTEX
  8
0
  6
CONTINUOUS
 10
3.512080
 20
2.367200
  0
VERTEX
  8
0
  6
CONTINUOUS
 10
3.511200
 20
1.608200
  0
VERTEX
  8
0
  6
CONTINUOUS
 10
3.411760
 20
1.579160
  0
SEQEND
  8
0
  0
SOLID
  8
0
 62
    15
 10
3.511200
 20
1.608200
 11
3.512080
 21
2.367200
 12
3.610200
 22
1.632400
 13
3.611080
 23
2.391400
  0
POLYLINE
  8
0
  6
CONTINUOUS
 66
     1
 40
0.000000
 41
0.000000
  0
VERTEX
  8
0
  6
CONTINUOUS
 10
3.511200
 20
1.608200
  0
VERTEX
  8
0
  6
CONTINUOUS
 10
3.512080
 20
2.367200
  0
VERTEX
  8
0
  6
CONTINUOUS
 10
3.611080
 20
2.391400
  0
VERTEX
  8
0
  6
CONTINUOUS
 10
3.610200
 20
1.632400
  0
VERTEX
  8
0
  6
CONTINUOUS
 10
3.511200
 20
1.608200
  0
SEQEND
  8
0
  0
SOLID
  8
0
 62
    15
 10
3.610200
 20
1.632400
 11
3.611080
 21
2.391400
 12
3.707440
 22
1.653080
 13
3.707880
 23
2.412080
  0
POLYLINE
  8
0
  6
CONTINUOUS
 66
     1
 40
0.000000
 41
0.000000
  0
VERTEX
  8
0
  6
CONTINUOUS
 10
3.610200
 20
1.632400
  0
VERTEX
  8
0
  6
CONTINUOUS
 10
3.611080
 20
2.391400
  0
VERTEX
  8
0
  6
CONTINUOUS
 10
3.707880
 20
2.412080
  0
VERTEX
  8
0
  6
CONTINUOUS
 10
3.707440
 20
1.653080
  0
VERTEX
  8
0
  6
CONTINUOUS
 10
3.610200
 20
1.632400
  0
SEQEND
  8
0
  0
SOLID
  8
0
 62
    15
 10
3.707440
 20
1.653080
 11
3.707880
 21
2.412080
 12
3.801600
 22
1.669800
 13
3.802040
 23
2.428800
  0
POLYLINE
  8
0
  6
CONTINUOUS
 66
     1
 40
0.000000
 41
0.000000
  0
VERTEX
  8
0
  6
CONTINUOUS
 10
3.707440
 20
1.653080
  0
VERTEX
  8
0
  6
CONTINUOUS
 10
3.707880
 20
2.412080
  0
VERTEX
  8
0
  6
CONTINUOUS
 10
3.802040
 20
2.428800
  0
VERTEX
  8
0
  6
CONTINUOUS
 10
3.801600
 20
1.669800
  0
VERTEX
  8
0
  6
CONTINUOUS
 10
3.707440
 20
1.653080
  0
SEQEND
  8
0
  0
SOLID
  8
0
 62
    15
 10
3.801600
 20
1.669800
 11
3.802040
 21
2.428800
 12
3.891800
 22
1.683000
 13
3.892240
 23
2.442000
  0
POLYLINE
  8
0
  6
CONTINUOUS
 66
     1
 40
0.000000
 41
0.000000
  0
VERTEX
  8
0
  6
CONTINUOUS
 10
3.801600
 20
1.669800
  0
VERTEX
  8
0
  6
CONTINUOUS
 10
3.802040
 20
2.428800
  0
VERTEX
  8
0
  6
CONTINUOUS
 10
3.892240
 20
2.442000
  0
VERTEX
  8
0
  6
CONTINUOUS
 10
3.891800
 20
1.683000
  0
VERTEX
  8
0
  6
CONTINUOUS
 10
3.801600
 20
1.669800
  0
SEQEND
  8
0
  0
SOLID
  8
0
 62
    15
 10
3.891800
 20
1.683000
 11
3.892240
 21
2.442000
 12
3.976720
 22
1.693560
 13
3.977160
 23
2.452560
  0
POLYLINE
  8
0
  6
CONTINUOUS
 66
     1
 40
0.000000
 41
0.000000
  0
VERTEX
  8
0
  6
CONTINUOUS
 10
3.891800
 20
1.683000
  0
VERTEX
  8
0
  6
CONTINUOUS
 10
3.892240
 20
2.442000
  0
VERTEX
  8
0
  6
CONTINUOUS
 10
3.977160
 20
2.452560
  0
VERTEX
  8
0
  6
CONTINUOUS
 10
3.976720
 20
1.693560
  0
VERTEX
  8
0
  6
CONTINUOUS
 10
3.891800
 20
1.683000
  0
SEQEND
  8
0
  0
SOLID
  8
0
 62
    15
 10
3.976720
 20
1.693560
 11
3.977160
 21
2.452560
 12
4.055040
 22
1.701480
 13
4.055480
 23
2.460480
  0
POLYLINE
  8
0
  6
CONTINUOUS
 66
     1
 40
0.000000
 41
0.000000
  0
VERTEX
  8
0
  6
CONTINUOUS
 10
3.976720
 20
1.693560
  0
VERTEX
  8
0
  6
CONTINUOUS
 10
3.977160
 20
2.452560
  0
VERTEX
  8
0
  6
CONTINUOUS
 10
4.055480
 20
2.460480
  0
VERTEX
  8
0
  6
CONTINUOUS
 10
4.055040
 20
1.701480
  0
VERTEX
  8
0
  6
CONTINUOUS
 10
3.976720
 20
1.693560
  0
SEQEND
  8
0
  0
SOLID
  8
0
 62
    15
 10
4.055040
 20
1.701480
 11
4.055480
 21
2.460480
 12
4.125880
 22
1.707200
 13
4.126760
 23
2.466200
  0
POLYLINE
  8
0
  6
CONTINUOUS
 66
     1
 40
0.000000
 41
0.000000
  0
VERTEX
  8
0
  6
CONTINUOUS
 10
4.055040
 20
1.701480
  0
VERTEX
  8
0
  6
CONTINUOUS
 10
4.055480
 20
2.460480
  0
VERTEX
  8
0
  6
CONTINUOUS
 10
4.126760
 20
2.466200
  0
VERTEX
  8
0
  6
CONTINUOUS
 10
4.125880
 20
1.707200
  0
VERTEX
  8
0
  6
CONTINUOUS
 10
4.055040
 20
1.701480
  0
SEQEND
  8
0
  0
SOLID
  8
0
 62
    15
 10
4.125880
 20
1.707200
 11
4.126760
 21
2.466200
 12
4.188360
 22
1.711160
 13
4.188800
 23
2.470160
  0
POLYLINE
  8
0
  6
CONTINUOUS
 66
     1
 40
0.000000
 41
0.000000
  0
VERTEX
  8
0
  6
CONTINUOUS
 10
4.125880
 20
1.707200
  0
VERTEX
  8
0
  6
CONTINUOUS
 10
4.126760
 20
2.466200
  0
VERTEX
  8
0
  6
CONTINUOUS
 10
4.188800
 20
2.470160
  0
VERTEX
  8
0
  6
CONTINUOUS
 10
4.188360
 20
1.711160
  0
VERTEX
  8
0
  6
CONTINUOUS
 10
4.125880
 20
1.707200
  0
SEQEND
  8
0
  0
SOLID
  8
0
 62
    15
 10
4.188360
 20
1.711160
 11
4.188800
 21
2.470160
 12
4.240720
 22
1.713360
 13
4.241600
 23
2.472360
  0
POLYLINE
  8
0
  6
CONTINUOUS
 66
     1
 40
0.000000
 41
0.000000
  0
VERTEX
  8
0
  6
CONTINUOUS
 10
4.188360
 20
1.711160
  0
VERTEX
  8
0
  6
CONTINUOUS
 10
4.188800
 20
2.470160
  0
VERTEX
  8
0
  6
CONTINUOUS
 10
4.241600
 20
2.472360
  0
VERTEX
  8
0
  6
CONTINUOUS
 10
4.240720
 20
1.713360
  0
VERTEX
  8
0
  6
CONTINUOUS
 10
4.188360
 20
1.711160
  0
SEQEND
  8
0
  0
SOLID
  8
0
 62
    15
 10
4.240720
 20
1.713360
 11
4.241600
 21
2.472360
 12
4.282520
 22
1.714240
 13
4.282960
 23
2.473240
  0
POLYLINE
  8
0
  6
CONTINUOUS
 66
     1
 40
0.000000
 41
0.000000
  0
VERTEX
  8
0
  6
CONTINUOUS
 10
4.240720
 20
1.713360
  0
VERTEX
  8
0
  6
CONTINUOUS
 10
4.241600
 20
2.472360
  0
VERTEX
  8
0
  6
CONTINUOUS
 10
4.282960
 20
2.473240
  0
VERTEX
  8
0
  6
CONTINUOUS
 10
4.282520
 20
1.714240
  0
VERTEX
  8
0
  6
CONTINUOUS
 10
4.240720
 20
1.713360
  0
SEQEND
  8
0
  0
SOLID
  8
0
 62
    15
 10
4.282520
 20
1.714240
 11
4.282960
 21
2.473240
 12
4.312000
 22
1.714680
 13
4.312440
 23
2.473680
  0
POLYLINE
  8
0
  6
CONTINUOUS
 66
     1
 40
0.000000
 41
0.000000
  0
VERTEX
  8
0
  6
CONTINUOUS
 10
4.282520
 20
1.714240
  0
VERTEX
  8
0
  6
CONTINUOUS
 10
4.282960
 20
2.473240
  0
VERTEX
  8
0
  6
CONTINUOUS
 10
4.312440
 20
2.473680
  0
VERTEX
  8
0
  6
CONTINUOUS
 10
4.312000
 20
1.714680
  0
VERTEX
  8
0
  6
CONTINUOUS
 10
4.282520
 20
1.714240
  0
SEQEND
  8
0
  0
SOLID
  8
0
 62
    15
 10
4.312000
 20
1.714680
 11
4.312440
 21
2.473680
 12
4.328280
 22
1.714680
 13
4.328720
 23
2.473680
  0
POLYLINE
  8
0
  6
CONTINUOUS
 66
     1
 40
0.000000
 41
0.000000
  0
VERTEX
  8
0
  6
CONTINUOUS
 10
4.312000
 20
1.714680
  0
VERTEX
  8
0
  6
CONTINUOUS
 10
4.312440
 20
2.473680
  0
VERTEX
  8
0
  6
CONTINUOUS
 10
4.328720
 20
2.473680
  0
VERTEX
  8
0
  6
CONTINUOUS
 10
4.328280
 20
1.714680
  0
VERTEX
  8
0
  6
CONTINUOUS
 10
4.312000
 20
1.714680
  0
SEQEND
  8
0
  0
SOLID
  8
0
 62
    15
 10
4.328280
 20
1.714680
 11
4.328720
 21
2.473680
 12
4.330040
 22
1.714680
 13
4.330480
 23
2.473680
  0
POLYLINE
  8
0
  6
CONTINUOUS
 66
     1
 40
0.000000
 41
0.000000
  0
VERTEX
  8
0
  6
CONTINUOUS
 10
4.328280
 20
1.714680
  0
VERTEX
  8
0
  6
CONTINUOUS
 10
4.328720
 20
2.473680
  0
VERTEX
  8
0
  6
CONTINUOUS
 10
4.330480
 20
2.473680
  0
VERTEX
  8
0
  6
CONTINUOUS
 10
4.330040
 20
1.714680
  0
VERTEX
  8
0
  6
CONTINUOUS
 10
4.328280
 20
1.714680
  0
SEQEND
  8
0
  0
SOLID
  8
0
 62
    15
 10
4.330040
 20
1.714680
 11
4.330480
 21
2.473680
 12
4.576880
 22
1.716000
 13
4.577320
 23
2.475000
  0
POLYLINE
  8
0
  6
CONTINUOUS
 66
     1
 40
0.000000
 41
0.000000
  0
VERTEX
  8
0
  6
CONTINUOUS
 10
4.330040
 20
1.714680
  0
VERTEX
  8
0
  6
CONTINUOUS
 10
4.330480
 20
2.473680
  0
VERTEX
  8
0
  6
CONTINUOUS
 10
4.577320
 20
2.475000
  0
VERTEX
  8
0
  6
CONTINUOUS
 10
4.576880
 20
1.716000
  0
VERTEX
  8
0
  6
CONTINUOUS
 10
4.330040
 20
1.714680
  0
SEQEND
  8
0
  0
SOLID
  8
0
 62
    15
 10
4.576880
 20
1.716000
 11
4.577320
 21
2.475000
 12
4.595800
 22
1.718640
 13
4.596240
 23
2.477640
  0
POLYLINE
  8
0
  6
CONTINUOUS
 66
     1
 40
0.000000
 41
0.000000
  0
VERTEX
  8
0
  6
CONTINUOUS
 10
4.576880
 20
1.716000
  0
VERTEX
  8
0
  6
CONTINUOUS
 10
4.577320
 20
2.475000
  0
VERTEX
  8
0
  6
CONTINUOUS
 10
4.596240
 20
2.477640
  0
VERTEX
  8
0
  6
CONTINUOUS
 10
4.595800
 20
1.718640
  0
VERTEX
  8
0
  6
CONTINUOUS
 10
4.576880
 20
1.716000
  0
SEQEND
  8
0
  0
POLYLINE
  8
0
  6
CONTINUOUS
 66
     1
 40
0.000000
 41
0.000000
  0
VERTEX
  8
0
  6
CONTINUOUS
 10
4.595800
 20
1.718640
  0
VERTEX
  8
0
  6
CONTINUOUS
 10
4.889720
 20
1.717320
  0
VERTEX
  8
0
  6
CONTINUOUS
 10
4.983880
 20
1.713800
  0
VERTEX
  8
0
  6
CONTINUOUS
 10
5.117200
 20
1.704120
  0
VERTEX
  8
0
  6
CONTINUOUS
 10
5.195520
 20
1.696200
  0
VERTEX
  8
0
  6
CONTINUOUS
 10
5.280440
 20
1.686080
  0
VERTEX
  8
0
  6
CONTINUOUS
 10
5.370640
 20
1.672440
  0
VERTEX
  8
0
  6
CONTINUOUS
 10
5.464800
 20
1.655720
  0
VERTEX
  8
0
  6
CONTINUOUS
 10
5.562040
 20
1.635040
  0
VERTEX
  8
0
  6
CONTINUOUS
 10
5.660600
 20
1.610840
  0
VERTEX
  8
0
  6
CONTINUOUS
 10
5.760480
 20
1.581800
  0
VERTEX
  8
0
  6
CONTINUOUS
 10
5.859480
 20
1.548360
  0
VERTEX
  8
0
  6
CONTINUOUS
 10
6.026240
 20
1.481040
  0
VERTEX
  8
0
  6
CONTINUOUS
 10
6.090920
 20
1.458160
  0
VERTEX
  8
0
  6
CONTINUOUS
 10
6.150760
 20
1.440560
  0
VERTEX
  8
0
  6
CONTINUOUS
 10
6.206640
 20
1.427800
  0
VERTEX
  8
0
  6
CONTINUOUS
 10
6.258560
 20
1.419440
  0
VERTEX
  8
0
  6
CONTINUOUS
 10
6.306960
 20
1.415480
  0
VERTEX
  8
0
  6
CONTINUOUS
 10
6.351840
 20
1.414600
  0
VERTEX
  8
0
  6
CONTINUOUS
 10
6.394080
 20
1.417680
  0
VERTEX
  8
0
  6
CONTINUOUS
 10
6.471080
 20
1.432200
  0
VERTEX
  8
0
  6
CONTINUOUS
 10
6.540160
 20
1.455960
  0
VERTEX
  8
0
  6
CONTINUOUS
 10
6.604400
 20
1.486320
  0
VERTEX
  8
0
  6
CONTINUOUS
 10
6.666440
 20
1.519760
  0
VERTEX
  8
0
  6
CONTINUOUS
 10
6.779520
 20
1.592360
  0
VERTEX
  8
0
  6
CONTINUOUS
 10
6.847720
 20
1.629760
  0
VERTEX
  8
0
  6
CONTINUOUS
 10
6.883800
 20
1.645160
  0
VERTEX
  8
0
  6
CONTINUOUS
 10
6.919880
 20
1.657040
  0
VERTEX
  8
0
  6
CONTINUOUS
 10
6.956840
 20
1.664080
  0
VERTEX
  8
0
  6
CONTINUOUS
 10
6.993800
 20
1.664960
  0
VERTEX
  8
0
  6
CONTINUOUS
 10
7.030320
 20
1.659240
  0
VERTEX
  8
0
  6
CONTINUOUS
 10
7.066400
 20
1.645160
  0
VERTEX
  8
0
  6
CONTINUOUS
 10
7.101160
 20
1.622280
  0
VERTEX
  8
0
  6
CONTINUOUS
 10
7.134600
 20
1.589280
  0
VERTEX
  8
0
  6
CONTINUOUS
 10
7.166720
 20
1.544840
  0
VERTEX
  8
0
  6
CONTINUOUS
 10
7.197080
 20
1.488080
  0
VERTEX
  8
0
  6
CONTINUOUS
 10
7.198400
 20
1.481480
  0
VERTEX
  8
0
  6
CONTINUOUS
 10
7.198400
 20
0.961400
  0
VERTEX
  8
0
  6
CONTINUOUS
 10
7.194000
 20
0.957880
  0
VERTEX
  8
0
  6
CONTINUOUS
 10
1.971640
 20
0.957880
  0
VERTEX
  8
0
  6
CONTINUOUS
 10
1.973840
 20
0.958760
  0
VERTEX
  8
0
  6
CONTINUOUS
 10
1.973840
 20
1.478400
  0
VERTEX
  8
0
  6
CONTINUOUS
 10
1.975160
 20
1.485000
  0
VERTEX
  8
0
  6
CONTINUOUS
 10
2.005520
 20
1.541760
  0
VERTEX
  8
0
  6
CONTINUOUS
 10
2.037640
 20
1.586200
  0
VERTEX
  8
0
  6
CONTINUOUS
 10
2.071080
 20
1.619640
  0
VERTEX
  8
0
  6
CONTINUOUS
 10
2.105840
 20
1.642520
  0
VERTEX
  8
0
  6
CONTINUOUS
 10
2.141920
 20
1.656160
  0
VERTEX
  8
0
  6
CONTINUOUS
 10
2.178440
 20
1.662320
  0
VERTEX
  8
0
  6
CONTINUOUS
 10
2.215400
 20
1.661000
  0
VERTEX
  8
0
  6
CONTINUOUS
 10
2.251920
 20
1.654400
  0
VERTEX
  8
0
  6
CONTINUOUS
 10
2.288440
 20
1.642520
  0
VERTEX
  8
0
  6
CONTINUOUS
 10
2.324080
 20
1.627120
  0
VERTEX
  8
0
  6
CONTINUOUS
 10
2.392280
 20
1.589720
  0
VERTEX
  8
0
  6
CONTINUOUS
 10
2.505800
 20
1.517120
  0
VERTEX
  8
0
  6
CONTINUOUS
 10
2.567840
 20
1.483680
  0
VERTEX
  8
0
  6
CONTINUOUS
 10
2.632080
 20
1.453320
  0
VERTEX
  8
0
  6
CONTINUOUS
 10
2.701160
 20
1.429560
  0
VERTEX
  8
0
  6
CONTINUOUS
 10
2.778160
 20
1.415040
  0
VERTEX
  8
0
  6
CONTINUOUS
 10
2.820400
 20
1.411960
  0
VERTEX
  8
0
  6
CONTINUOUS
 10
2.865280
 20
1.412400
  0
VERTEX
  8
0
  6
CONTINUOUS
 10
2.913680
 20
1.416800
  0
VERTEX
  8
0
  6
CONTINUOUS
 10
2.965600
 20
1.425160
  0
VERTEX
  8
0
  6
CONTINUOUS
 10
3.021040
 20
1.437920
  0
VERTEX
  8
0
  6
CONTINUOUS
 10
3.081320
 20
1.455520
  0
VERTEX
  8
0
  6
CONTINUOUS
 10
3.146000
 20
1.478400
  0
VERTEX
  8
0
  6
CONTINUOUS
 10
3.312760
 20
1.545280
  0
VERTEX
  8
0
  6
CONTINUOUS
 10
3.411760
 20
1.579160
  0
VERTEX
  8
0
  6
CONTINUOUS
 10
3.511200
 20
1.608200
  0
VERTEX
  8
0
  6
CONTINUOUS
 10
3.610200
 20
1.632400
  0
VERTEX
  8
0
  6
CONTINUOUS
 10
3.707440
 20
1.653080
  0
VERTEX
  8
0
  6
CONTINUOUS
 10
3.801600
 20
1.669800
  0
VERTEX
  8
0
  6
CONTINUOUS
 10
3.891800
 20
1.683000
  0
VERTEX
  8
0
  6
CONTINUOUS
 10
3.976720
 20
1.693560
  0
VERTEX
  8
0
  6
CONTINUOUS
 10
4.055040
 20
1.701480
  0
VERTEX
  8
0
  6
CONTINUOUS
 10
4.188360
 20
1.711160
  0
VERTEX
  8
0
  6
CONTINUOUS
 10
4.282520
 20
1.714240
  0
VERTEX
  8
0
  6
CONTINUOUS
 10
4.576880
 20
1.716000
  0
VERTEX
  8
0
  6
CONTINUOUS
 10
4.595800
 20
1.718640
  0
SEQEND
  8
0
  0
TEXT
  8
0
 10
4.291760
 20
0.689480
 40
0.138139
  1
BA  293
 41
1.000000
  7
SN0
 71
     0
 72
     5
 11
4.881663
 21
0.689480
  0
TEXT
  8
0
 10
4.089800
 20
0.498080
 40
0.138139
  1
3/4" x 4-7/16"
 41
1.000000
  7
SN0
 71
     0
 72
     5
 11
5.082773
 21
0.498080
  0
TEXT
  8
0
 10
7.653800
 20
3.450040
 40
0.138139
  1
case
 41
1.000000
  7
SN0
 71
     0
 72
     5
 11
8.004495
 21
3.450040
  0
TEXT
  8
0
 10
7.690760
 20
3.258640
 40
0.138139
  1
293
 41
1.000000
  7
SN0
 71
     0
 72
     5
 11
7.967641
 21
3.258640
  0
ENDSEC
  0
EOF
