  0
SECTION
  2
HEADER
  9
$ACADVER
  1
AC1006
  9
$EXTMIN
 10
1.527240
 20
0.369160
  9
$EXTMAX
 10
8.008880
 20
6.995120
  9
$LTSCALE
 40
0.044000
  9
$PDMODE
 70
    35
  9
$PDSIZE
 40
0.035200
  0
ENDSEC
  0
SECTION
  2
TABLES
  0
TABLE
  2
LTYPE
 70
     9
  0
LTYPE
  2
CONTINUOUS
 70
    64
  3
Solid line
 72
    65
 73
     0
 40
0.000000
  0
LTYPE
  2
DASHED
 70
    64
  3
__ __ __ __ __ __ __ __ __ __ __ __ __ __ __
 72
    65
 73
     2
 40
0.000330
 49
0.000220
 49
-0.000110
  0
LTYPE
  2
HIDDEN
 70
    64
  3
 _ _ _ _ _ _ _ _ _ _ _ _ _ _ _ _ _ _ _ _ _ _
 72
    65
 73
     2
 40
0.000165
 49
0.000110
 49
-0.000055
  0
LTYPE
  2
CENTER
 70
    64
  3
____ _ ____ _ ____ _ ____ _ ____ _ ____ _ ____
 72
    65
 73
     4
 40
0.000880
 49
0.000550
 49
-0.000110
 49
0.000110
 49
-0.000110
  0
LTYPE
  2
PHANTOM
 70
    64
  3
_____ _ _ _____ _ _ _____ _ _ _____ _ _ ____
 72
    65
 73
     6
 40
0.001100
 49
0.000550
 49
-0.000110
 49
0.000110
 49
-0.000110
 49
0.000110
 49
-0.000110
  0
LTYPE
  2
DOT
 70
    64
  3
...............................................
 72
    65
 73
     2
 40
0.000110
 49
0.000000
 49
-0.000110
  0
LTYPE
  2
DASHDOT
 70
    64
  3
__ . __ . __ . __ . __ . __ . __ . __ . __ . __
 72
    65
 73
     4
 40
0.000440
 49
0.000220
 49
-0.000110
 49
0.000000
 49
-0.000110
  0
LTYPE
  2
BORDER
 70
    64
  3
__ __ . __ __ . __ __ . __ __ . __ __ . __ __
 72
    65
 73
     6
 40
0.000770
 49
0.000220
 49
-0.000110
 49
0.000220
 49
-0.000110
 49
0.000000
 49
-0.000110
  0
LTYPE
  2
DIVIDE
 70
    64
  3
__ . . __ . . __ . . __ . . __ . . __ . . __
 72
    65
 73
     6
 40
0.000550
 49
0.000220
 49
-0.000110
 49
0.000000
 49
-0.000110
 49
0.000000
 49
-0.000110
  0
LTYPE
  2
DOTDOT
 70
    64
  3
 . .  . .  . .  . .  . .  . . 
 72
    65
 73
     5
 40
0.000242
 49
-0.000110
 49
0.000000
 49
-0.000110
 49
0.000000
 49
-0.000110
  0
ENDTAB
  0
TABLE
  2
STYLE
 70
     2
  0
STYLE
 70
     0
  2
SN0
 40
0.000000
 41
0.000440
 50
0.000000
 71
     0
 42
0.000000
  3
ROMAND
  0
STYLE
 70
    68
  2
SV0
 40
0.000000
 41
0.000440
 50
0.000000
 71
     0
 42
0.000000
  3
ROMAND
  0
ENDTAB
  0
TABLE
  2
LAYER
 70
     3
  0
LAYER
  2
FOREGROUND
 70
    64
 62
     7
  6
CONTINUOUS
  0
LAYER
  2
BACKGROUND
 70
    65
 62
    -7
  6
CONTINUOUS
  0
LAYER
  2
0
 70
    64
 62
     7
  6
CONTINUOUS
  0
ENDTAB
  0
ENDSEC
  0
SECTION
  2
ENTITIES
  0
POLYLINE
  8
FOREGROUND
  6
CONTINUOUS
 66
     1
 40
0.000000
 41
0.000000
  0
VERTEX
  8
FOREGROUND
  6
CONTINUOUS
 10
0.000000
 20
7.364280
  0
VERTEX
  8
FOREGROUND
  6
CONTINUOUS
 10
8.499920
 20
7.364280
  0
VERTEX
  8
FOREGROUND
  6
CONTINUOUS
 10
8.499920
 20
-3.635720
  0
VERTEX
  8
FOREGROUND
  6
CONTINUOUS
 10
0.000000
 20
-3.635720
  0
VERTEX
  8
FOREGROUND
  6
CONTINUOUS
 10
0.000000
 20
7.364280
  0
SEQEND
  8
0
  0
POLYLINE
  8
FOREGROUND
  6
CONTINUOUS
 66
     1
 40
0.000000
 41
0.000000
  0
VERTEX
  8
FOREGROUND
  6
CONTINUOUS
 10
0.000000
 20
7.364280
  0
VERTEX
  8
FOREGROUND
  6
CONTINUOUS
 10
8.499920
 20
7.364280
  0
VERTEX
  8
FOREGROUND
  6
CONTINUOUS
 10
8.499920
 20
-3.635720
  0
VERTEX
  8
FOREGROUND
  6
CONTINUOUS
 10
0.000000
 20
-3.635720
  0
VERTEX
  8
FOREGROUND
  6
CONTINUOUS
 10
0.000000
 20
7.364280
  0
SEQEND
  8
0
  0
POLYLINE
  8
0
  6
CONTINUOUS
 66
     1
 40
0.014080
 41
0.014080
  0
VERTEX
  8
0
  6
CONTINUOUS
 10
2.222000
 20
5.884120
  0
VERTEX
  8
0
  6
CONTINUOUS
 10
1.881000
 20
6.222920
  0
VERTEX
  8
0
  6
CONTINUOUS
 10
1.875280
 20
6.222920
  0
VERTEX
  8
0
  6
CONTINUOUS
 10
1.532960
 20
5.880160
  0
VERTEX
  8
0
  6
CONTINUOUS
 10
1.532960
 20
5.874880
  0
VERTEX
  8
0
  6
CONTINUOUS
 10
2.233880
 20
5.172200
  0
VERTEX
  8
0
  6
CONTINUOUS
 10
6.438080
 20
5.178800
  0
VERTEX
  8
0
  6
CONTINUOUS
 10
7.140760
 20
5.894680
  0
VERTEX
  8
0
  6
CONTINUOUS
 10
6.801960
 20
6.237440
  0
VERTEX
  8
0
  6
CONTINUOUS
 10
6.451280
 20
5.868280
  0
VERTEX
  8
0
  6
CONTINUOUS
 10
6.345680
 20
5.964200
  0
VERTEX
  8
0
  6
CONTINUOUS
 10
6.243600
 20
6.050000
  0
VERTEX
  8
0
  6
CONTINUOUS
 10
6.140200
 20
6.130080
  0
VERTEX
  8
0
  6
CONTINUOUS
 10
6.035480
 20
6.204440
  0
VERTEX
  8
0
  6
CONTINUOUS
 10
5.929440
 20
6.273080
  0
VERTEX
  8
0
  6
CONTINUOUS
 10
5.822080
 20
6.336000
  0
VERTEX
  8
0
  6
CONTINUOUS
 10
5.749920
 20
6.375160
  0
VERTEX
  8
0
  6
CONTINUOUS
 10
5.677320
 20
6.411680
  0
VERTEX
  8
0
  6
CONTINUOUS
 10
5.604720
 20
6.446000
  0
VERTEX
  8
0
  6
CONTINUOUS
 10
5.531240
 20
6.478120
  0
VERTEX
  8
0
  6
CONTINUOUS
 10
5.384280
 20
6.535320
  0
VERTEX
  8
0
  6
CONTINUOUS
 10
5.310360
 20
6.560400
  0
VERTEX
  8
0
  6
CONTINUOUS
 10
5.236000
 20
6.583720
  0
VERTEX
  8
0
  6
CONTINUOUS
 10
5.161640
 20
6.604840
  0
VERTEX
  8
0
  6
CONTINUOUS
 10
5.087280
 20
6.623760
  0
VERTEX
  8
0
  6
CONTINUOUS
 10
5.012920
 20
6.640480
  0
VERTEX
  8
0
  6
CONTINUOUS
 10
4.938120
 20
6.655440
  0
VERTEX
  8
0
  6
CONTINUOUS
 10
4.863760
 20
6.668200
  0
VERTEX
  8
0
  6
CONTINUOUS
 10
4.789400
 20
6.679200
  0
VERTEX
  8
0
  6
CONTINUOUS
 10
4.715040
 20
6.688440
  0
VERTEX
  8
0
  6
CONTINUOUS
 10
4.640680
 20
6.695480
  0
VERTEX
  8
0
  6
CONTINUOUS
 10
4.566320
 20
6.700760
  0
VERTEX
  8
0
  6
CONTINUOUS
 10
4.492400
 20
6.704280
  0
VERTEX
  8
0
  6
CONTINUOUS
 10
4.418920
 20
6.706040
  0
VERTEX
  8
0
  6
CONTINUOUS
 10
4.345440
 20
6.706040
  0
VERTEX
  8
0
  6
CONTINUOUS
 10
4.271960
 20
6.704280
  0
VERTEX
  8
0
  6
CONTINUOUS
 10
4.126760
 20
6.695920
  0
VERTEX
  8
0
  6
CONTINUOUS
 10
4.055040
 20
6.689320
  0
VERTEX
  8
0
  6
CONTINUOUS
 10
3.912040
 20
6.671280
  0
VERTEX
  8
0
  6
CONTINUOUS
 10
3.771680
 20
6.647080
  0
VERTEX
  8
0
  6
CONTINUOUS
 10
3.633520
 20
6.617600
  0
VERTEX
  8
0
  6
CONTINUOUS
 10
3.498000
 20
6.582840
  0
VERTEX
  8
0
  6
CONTINUOUS
 10
3.365560
 20
6.542360
  0
VERTEX
  8
0
  6
CONTINUOUS
 10
3.300880
 20
6.520800
  0
VERTEX
  8
0
  6
CONTINUOUS
 10
3.173280
 20
6.473280
  0
VERTEX
  8
0
  6
CONTINUOUS
 10
3.050080
 20
6.421360
  0
VERTEX
  8
0
  6
CONTINUOUS
 10
2.930400
 20
6.365480
  0
VERTEX
  8
0
  6
CONTINUOUS
 10
2.815120
 20
6.305640
  0
VERTEX
  8
0
  6
CONTINUOUS
 10
2.704680
 20
6.242280
  0
VERTEX
  8
0
  6
CONTINUOUS
 10
2.599080
 20
6.175840
  0
VERTEX
  8
0
  6
CONTINUOUS
 10
2.498760
 20
6.105880
  0
VERTEX
  8
0
  6
CONTINUOUS
 10
2.404160
 20
6.033720
  0
VERTEX
  8
0
  6
CONTINUOUS
 10
2.315280
 20
5.958480
  0
VERTEX
  8
0
  6
CONTINUOUS
 10
2.232560
 20
5.881480
  0
VERTEX
  8
0
  6
CONTINUOUS
 10
2.222000
 20
5.884120
  0
SEQEND
  8
0
  0
SOLID
  8
0
 62
    15
 10
4.000480
 20
1.577400
 11
4.649040
 21
1.206480
 12
3.711400
 22
1.450680
 13
4.359960
 23
1.079760
  0
POLYLINE
  8
0
  6
CONTINUOUS
 66
     1
 40
0.000000
 41
0.000000
  0
VERTEX
  8
0
  6
CONTINUOUS
 10
4.000480
 20
1.577400
  0
VERTEX
  8
0
  6
CONTINUOUS
 10
4.649040
 20
1.206480
  0
VERTEX
  8
0
  6
CONTINUOUS
 10
4.359960
 20
1.079760
  0
VERTEX
  8
0
  6
CONTINUOUS
 10
3.711400
 20
1.450680
  0
VERTEX
  8
0
  6
CONTINUOUS
 10
4.000480
 20
1.577400
  0
SEQEND
  8
0
  0
SOLID
  8
0
 62
    15
 10
5.682600
 20
4.004880
 11
6.331160
 21
3.633960
 12
5.645200
 22
3.766840
 13
6.293760
 23
3.395920
  0
POLYLINE
  8
0
  6
CONTINUOUS
 66
     1
 40
0.000000
 41
0.000000
  0
VERTEX
  8
0
  6
CONTINUOUS
 10
5.682600
 20
4.004880
  0
VERTEX
  8
0
  6
CONTINUOUS
 10
6.331160
 20
3.633960
  0
VERTEX
  8
0
  6
CONTINUOUS
 10
6.293760
 20
3.395920
  0
VERTEX
  8
0
  6
CONTINUOUS
 10
5.645200
 20
3.766840
  0
VERTEX
  8
0
  6
CONTINUOUS
 10
5.682600
 20
4.004880
  0
SEQEND
  8
0
  0
SOLID
  8
0
 62
    15
 10
5.645200
 20
3.766840
 11
6.293760
 21
3.395920
 12
5.584480
 22
3.522200
 13
6.233040
 23
3.151280
  0
POLYLINE
  8
0
  6
CONTINUOUS
 66
     1
 40
0.000000
 41
0.000000
  0
VERTEX
  8
0
  6
CONTINUOUS
 10
5.645200
 20
3.766840
  0
VERTEX
  8
0
  6
CONTINUOUS
 10
6.293760
 20
3.395920
  0
VERTEX
  8
0
  6
CONTINUOUS
 10
6.233040
 20
3.151280
  0
VERTEX
  8
0
  6
CONTINUOUS
 10
5.584480
 20
3.522200
  0
VERTEX
  8
0
  6
CONTINUOUS
 10
5.645200
 20
3.766840
  0
SEQEND
  8
0
  0
SOLID
  8
0
 62
    15
 10
5.584480
 20
3.522200
 11
6.233040
 21
3.151280
 12
5.500440
 22
3.274040
 13
6.149000
 23
2.903120
  0
POLYLINE
  8
0
  6
CONTINUOUS
 66
     1
 40
0.000000
 41
0.000000
  0
VERTEX
  8
0
  6
CONTINUOUS
 10
5.584480
 20
3.522200
  0
VERTEX
  8
0
  6
CONTINUOUS
 10
6.233040
 20
3.151280
  0
VERTEX
  8
0
  6
CONTINUOUS
 10
6.149000
 20
2.903120
  0
VERTEX
  8
0
  6
CONTINUOUS
 10
5.500440
 20
3.274040
  0
VERTEX
  8
0
  6
CONTINUOUS
 10
5.584480
 20
3.522200
  0
SEQEND
  8
0
  0
SOLID
  8
0
 62
    15
 10
5.500440
 20
3.274040
 11
6.149000
 21
2.903120
 12
5.393080
 22
3.026760
 13
6.041640
 23
2.655840
  0
POLYLINE
  8
0
  6
CONTINUOUS
 66
     1
 40
0.000000
 41
0.000000
  0
VERTEX
  8
0
  6
CONTINUOUS
 10
5.500440
 20
3.274040
  0
VERTEX
  8
0
  6
CONTINUOUS
 10
6.149000
 20
2.903120
  0
VERTEX
  8
0
  6
CONTINUOUS
 10
6.041640
 20
2.655840
  0
VERTEX
  8
0
  6
CONTINUOUS
 10
5.393080
 20
3.026760
  0
VERTEX
  8
0
  6
CONTINUOUS
 10
5.500440
 20
3.274040
  0
SEQEND
  8
0
  0
SOLID
  8
0
 62
    15
 10
5.393080
 20
3.026760
 11
6.041640
 21
2.655840
 12
5.262840
 22
2.783000
 13
5.911400
 23
2.412080
  0
POLYLINE
  8
0
  6
CONTINUOUS
 66
     1
 40
0.000000
 41
0.000000
  0
VERTEX
  8
0
  6
CONTINUOUS
 10
5.393080
 20
3.026760
  0
VERTEX
  8
0
  6
CONTINUOUS
 10
6.041640
 20
2.655840
  0
VERTEX
  8
0
  6
CONTINUOUS
 10
5.911400
 20
2.412080
  0
VERTEX
  8
0
  6
CONTINUOUS
 10
5.262840
 20
2.783000
  0
VERTEX
  8
0
  6
CONTINUOUS
 10
5.393080
 20
3.026760
  0
SEQEND
  8
0
  0
SOLID
  8
0
 62
    15
 10
5.262840
 20
2.783000
 11
5.911400
 21
2.412080
 12
5.109280
 22
2.545840
 13
5.757840
 23
2.174920
  0
POLYLINE
  8
0
  6
CONTINUOUS
 66
     1
 40
0.000000
 41
0.000000
  0
VERTEX
  8
0
  6
CONTINUOUS
 10
5.262840
 20
2.783000
  0
VERTEX
  8
0
  6
CONTINUOUS
 10
5.911400
 20
2.412080
  0
VERTEX
  8
0
  6
CONTINUOUS
 10
5.757840
 20
2.174920
  0
VERTEX
  8
0
  6
CONTINUOUS
 10
5.109280
 20
2.545840
  0
VERTEX
  8
0
  6
CONTINUOUS
 10
5.262840
 20
2.783000
  0
SEQEND
  8
0
  0
SOLID
  8
0
 62
    15
 10
5.109280
 20
2.545840
 11
5.757840
 21
2.174920
 12
4.932840
 22
2.318800
 13
5.581400
 23
1.947880
  0
POLYLINE
  8
0
  6
CONTINUOUS
 66
     1
 40
0.000000
 41
0.000000
  0
VERTEX
  8
0
  6
CONTINUOUS
 10
5.109280
 20
2.545840
  0
VERTEX
  8
0
  6
CONTINUOUS
 10
5.757840
 20
2.174920
  0
VERTEX
  8
0
  6
CONTINUOUS
 10
5.581400
 20
1.947880
  0
VERTEX
  8
0
  6
CONTINUOUS
 10
4.932840
 20
2.318800
  0
VERTEX
  8
0
  6
CONTINUOUS
 10
5.109280
 20
2.545840
  0
SEQEND
  8
0
  0
SOLID
  8
0
 62
    15
 10
4.932840
 20
2.318800
 11
5.581400
 21
1.947880
 12
4.733520
 22
2.104960
 13
5.382080
 23
1.734040
  0
POLYLINE
  8
0
  6
CONTINUOUS
 66
     1
 40
0.000000
 41
0.000000
  0
VERTEX
  8
0
  6
CONTINUOUS
 10
4.932840
 20
2.318800
  0
VERTEX
  8
0
  6
CONTINUOUS
 10
5.581400
 20
1.947880
  0
VERTEX
  8
0
  6
CONTINUOUS
 10
5.382080
 20
1.734040
  0
VERTEX
  8
0
  6
CONTINUOUS
 10
4.733520
 20
2.104960
  0
VERTEX
  8
0
  6
CONTINUOUS
 10
4.932840
 20
2.318800
  0
SEQEND
  8
0
  0
SOLID
  8
0
 62
    15
 10
4.733520
 20
2.104960
 11
5.382080
 21
1.734040
 12
4.511760
 22
1.908280
 13
5.160320
 23
1.537360
  0
POLYLINE
  8
0
  6
CONTINUOUS
 66
     1
 40
0.000000
 41
0.000000
  0
VERTEX
  8
0
  6
CONTINUOUS
 10
4.733520
 20
2.104960
  0
VERTEX
  8
0
  6
CONTINUOUS
 10
5.382080
 20
1.734040
  0
VERTEX
  8
0
  6
CONTINUOUS
 10
5.160320
 20
1.537360
  0
VERTEX
  8
0
  6
CONTINUOUS
 10
4.511760
 20
1.908280
  0
VERTEX
  8
0
  6
CONTINUOUS
 10
4.733520
 20
2.104960
  0
SEQEND
  8
0
  0
SOLID
  8
0
 62
    15
 10
4.511760
 20
1.908280
 11
5.160320
 21
1.537360
 12
4.267560
 22
1.731400
 13
4.916120
 23
1.360480
  0
POLYLINE
  8
0
  6
CONTINUOUS
 66
     1
 40
0.000000
 41
0.000000
  0
VERTEX
  8
0
  6
CONTINUOUS
 10
4.511760
 20
1.908280
  0
VERTEX
  8
0
  6
CONTINUOUS
 10
5.160320
 20
1.537360
  0
VERTEX
  8
0
  6
CONTINUOUS
 10
4.916120
 20
1.360480
  0
VERTEX
  8
0
  6
CONTINUOUS
 10
4.267560
 20
1.731400
  0
VERTEX
  8
0
  6
CONTINUOUS
 10
4.511760
 20
1.908280
  0
SEQEND
  8
0
  0
SOLID
  8
0
 62
    15
 10
4.267560
 20
1.731400
 11
4.916120
 21
1.360480
 12
4.000480
 22
1.577400
 13
4.649040
 23
1.206480
  0
POLYLINE
  8
0
  6
CONTINUOUS
 66
     1
 40
0.000000
 41
0.000000
  0
VERTEX
  8
0
  6
CONTINUOUS
 10
4.267560
 20
1.731400
  0
VERTEX
  8
0
  6
CONTINUOUS
 10
4.916120
 20
1.360480
  0
VERTEX
  8
0
  6
CONTINUOUS
 10
4.649040
 20
1.206480
  0
VERTEX
  8
0
  6
CONTINUOUS
 10
4.000480
 20
1.577400
  0
VERTEX
  8
0
  6
CONTINUOUS
 10
4.267560
 20
1.731400
  0
SEQEND
  8
0
  0
SOLID
  8
0
 62
    15
 10
5.696680
 20
4.233680
 11
6.344800
 21
3.862760
 12
5.682600
 22
4.004880
 13
6.331160
 23
3.633960
  0
POLYLINE
  8
0
  6
CONTINUOUS
 66
     1
 40
0.000000
 41
0.000000
  0
VERTEX
  8
0
  6
CONTINUOUS
 10
5.696680
 20
4.233680
  0
VERTEX
  8
0
  6
CONTINUOUS
 10
6.344800
 20
3.862760
  0
VERTEX
  8
0
  6
CONTINUOUS
 10
6.331160
 20
3.633960
  0
VERTEX
  8
0
  6
CONTINUOUS
 10
5.682600
 20
4.004880
  0
VERTEX
  8
0
  6
CONTINUOUS
 10
5.696680
 20
4.233680
  0
SEQEND
  8
0
  0
SOLID
  8
0
 62
    15
 10
3.711400
 20
1.450680
 11
4.359960
 21
1.079760
 12
3.399880
 22
1.353000
 13
4.048440
 23
0.982080
  0
POLYLINE
  8
0
  6
CONTINUOUS
 66
     1
 40
0.000000
 41
0.000000
  0
VERTEX
  8
0
  6
CONTINUOUS
 10
3.711400
 20
1.450680
  0
VERTEX
  8
0
  6
CONTINUOUS
 10
4.359960
 20
1.079760
  0
VERTEX
  8
0
  6
CONTINUOUS
 10
4.048440
 20
0.982080
  0
VERTEX
  8
0
  6
CONTINUOUS
 10
3.399880
 20
1.353000
  0
VERTEX
  8
0
  6
CONTINUOUS
 10
3.711400
 20
1.450680
  0
SEQEND
  8
0
  0
SOLID
  8
0
 62
    15
 10
3.399880
 20
1.353000
 11
4.048440
 21
0.982080
 12
3.066360
 22
1.289200
 13
3.714920
 23
0.918280
  0
POLYLINE
  8
0
  6
CONTINUOUS
 66
     1
 40
0.000000
 41
0.000000
  0
VERTEX
  8
0
  6
CONTINUOUS
 10
3.399880
 20
1.353000
  0
VERTEX
  8
0
  6
CONTINUOUS
 10
4.048440
 20
0.982080
  0
VERTEX
  8
0
  6
CONTINUOUS
 10
3.714920
 20
0.918280
  0
VERTEX
  8
0
  6
CONTINUOUS
 10
3.066360
 20
1.289200
  0
VERTEX
  8
0
  6
CONTINUOUS
 10
3.399880
 20
1.353000
  0
SEQEND
  8
0
  0
SOLID
  8
0
 62
    15
 10
3.066360
 20
1.289200
 11
3.714920
 21
0.918280
 12
2.710840
 22
1.261040
 13
3.358960
 23
0.890120
  0
POLYLINE
  8
0
  6
CONTINUOUS
 66
     1
 40
0.000000
 41
0.000000
  0
VERTEX
  8
0
  6
CONTINUOUS
 10
3.066360
 20
1.289200
  0
VERTEX
  8
0
  6
CONTINUOUS
 10
3.714920
 20
0.918280
  0
VERTEX
  8
0
  6
CONTINUOUS
 10
3.358960
 20
0.890120
  0
VERTEX
  8
0
  6
CONTINUOUS
 10
2.710840
 20
1.261040
  0
VERTEX
  8
0
  6
CONTINUOUS
 10
3.066360
 20
1.289200
  0
SEQEND
  8
0
  0
SOLID
  8
0
 62
    15
 10
2.710840
 20
1.261040
 11
3.358960
 21
0.890120
 12
2.703800
 22
1.260160
 13
3.352360
 23
0.889240
  0
POLYLINE
  8
0
  6
CONTINUOUS
 66
     1
 40
0.000000
 41
0.000000
  0
VERTEX
  8
0
  6
CONTINUOUS
 10
2.710840
 20
1.261040
  0
VERTEX
  8
0
  6
CONTINUOUS
 10
3.358960
 20
0.890120
  0
VERTEX
  8
0
  6
CONTINUOUS
 10
3.352360
 20
0.889240
  0
VERTEX
  8
0
  6
CONTINUOUS
 10
2.703800
 20
1.260160
  0
VERTEX
  8
0
  6
CONTINUOUS
 10
2.710840
 20
1.261040
  0
SEQEND
  8
0
  0
SOLID
  8
0
 62
    15
 10
2.703800
 20
1.260160
 11
3.352360
 21
0.889240
 12
2.717000
 22
0.758560
 13
3.365560
 23
0.387640
  0
POLYLINE
  8
0
  6
CONTINUOUS
 66
     1
 40
0.000000
 41
0.000000
  0
VERTEX
  8
0
  6
CONTINUOUS
 10
2.703800
 20
1.260160
  0
VERTEX
  8
0
  6
CONTINUOUS
 10
3.352360
 20
0.889240
  0
VERTEX
  8
0
  6
CONTINUOUS
 10
3.365560
 20
0.387640
  0
VERTEX
  8
0
  6
CONTINUOUS
 10
2.717000
 20
0.758560
  0
VERTEX
  8
0
  6
CONTINUOUS
 10
2.703800
 20
1.260160
  0
SEQEND
  8
0
  0
SOLID
  8
0
 62
    15
 10
2.717000
 20
0.758560
 11
3.365560
 21
0.387640
 12
2.717000
 22
0.751080
 13
3.365560
 23
0.380160
  0
POLYLINE
  8
0
  6
CONTINUOUS
 66
     1
 40
0.000000
 41
0.000000
  0
VERTEX
  8
0
  6
CONTINUOUS
 10
2.717000
 20
0.758560
  0
VERTEX
  8
0
  6
CONTINUOUS
 10
3.365560
 20
0.387640
  0
VERTEX
  8
0
  6
CONTINUOUS
 10
3.365560
 20
0.380160
  0
VERTEX
  8
0
  6
CONTINUOUS
 10
2.717000
 20
0.751080
  0
VERTEX
  8
0
  6
CONTINUOUS
 10
2.717000
 20
0.758560
  0
SEQEND
  8
0
  0
SOLID
  8
0
 62
    15
 10
2.717000
 20
0.751080
 11
3.365560
 21
0.380160
 12
2.235640
 22
0.753720
 13
2.883760
 23
0.383240
  0
POLYLINE
  8
0
  6
CONTINUOUS
 66
     1
 40
0.000000
 41
0.000000
  0
VERTEX
  8
0
  6
CONTINUOUS
 10
2.717000
 20
0.751080
  0
VERTEX
  8
0
  6
CONTINUOUS
 10
3.365560
 20
0.380160
  0
VERTEX
  8
0
  6
CONTINUOUS
 10
2.883760
 20
0.383240
  0
VERTEX
  8
0
  6
CONTINUOUS
 10
2.235640
 20
0.753720
  0
VERTEX
  8
0
  6
CONTINUOUS
 10
2.717000
 20
0.751080
  0
SEQEND
  8
0
  0
SOLID
  8
0
 62
    15
 10
6.186840
 20
4.733520
 11
6.835400
 21
4.362600
 12
6.190360
 22
4.729560
 13
6.838920
 23
4.358640
  0
POLYLINE
  8
0
  6
CONTINUOUS
 66
     1
 40
0.000000
 41
0.000000
  0
VERTEX
  8
0
  6
CONTINUOUS
 10
6.186840
 20
4.733520
  0
VERTEX
  8
0
  6
CONTINUOUS
 10
6.835400
 20
4.362600
  0
VERTEX
  8
0
  6
CONTINUOUS
 10
6.838920
 20
4.358640
  0
VERTEX
  8
0
  6
CONTINUOUS
 10
6.190360
 20
4.729560
  0
VERTEX
  8
0
  6
CONTINUOUS
 10
6.186840
 20
4.733520
  0
SEQEND
  8
0
  0
SOLID
  8
0
 62
    15
 10
6.190360
 20
4.729560
 11
6.838920
 21
4.358640
 12
6.190360
 22
4.245120
 13
6.838920
 23
3.874200
  0
POLYLINE
  8
0
  6
CONTINUOUS
 66
     1
 40
0.000000
 41
0.000000
  0
VERTEX
  8
0
  6
CONTINUOUS
 10
6.190360
 20
4.729560
  0
VERTEX
  8
0
  6
CONTINUOUS
 10
6.838920
 20
4.358640
  0
VERTEX
  8
0
  6
CONTINUOUS
 10
6.838920
 20
3.874200
  0
VERTEX
  8
0
  6
CONTINUOUS
 10
6.190360
 20
4.245120
  0
VERTEX
  8
0
  6
CONTINUOUS
 10
6.190360
 20
4.729560
  0
SEQEND
  8
0
  0
SOLID
  8
0
 62
    15
 10
6.190360
 20
4.245120
 11
6.838920
 21
3.874200
 12
6.186840
 22
4.241160
 13
6.835400
 23
3.870680
  0
POLYLINE
  8
0
  6
CONTINUOUS
 66
     1
 40
0.000000
 41
0.000000
  0
VERTEX
  8
0
  6
CONTINUOUS
 10
6.190360
 20
4.245120
  0
VERTEX
  8
0
  6
CONTINUOUS
 10
6.838920
 20
3.874200
  0
VERTEX
  8
0
  6
CONTINUOUS
 10
6.835400
 20
3.870680
  0
VERTEX
  8
0
  6
CONTINUOUS
 10
6.186840
 20
4.241160
  0
VERTEX
  8
0
  6
CONTINUOUS
 10
6.190360
 20
4.245120
  0
SEQEND
  8
0
  0
SOLID
  8
0
 62
    15
 10
6.186840
 20
4.241160
 11
6.835400
 21
3.870680
 12
5.705920
 22
4.239400
 13
6.354480
 23
3.868480
  0
POLYLINE
  8
0
  6
CONTINUOUS
 66
     1
 40
0.000000
 41
0.000000
  0
VERTEX
  8
0
  6
CONTINUOUS
 10
6.186840
 20
4.241160
  0
VERTEX
  8
0
  6
CONTINUOUS
 10
6.835400
 20
3.870680
  0
VERTEX
  8
0
  6
CONTINUOUS
 10
6.354480
 20
3.868480
  0
VERTEX
  8
0
  6
CONTINUOUS
 10
5.705920
 20
4.239400
  0
VERTEX
  8
0
  6
CONTINUOUS
 10
6.186840
 20
4.241160
  0
SEQEND
  8
0
  0
SOLID
  8
0
 62
    15
 10
5.705920
 20
4.239400
 11
6.354480
 21
3.868480
 12
5.696680
 22
4.233680
 13
6.344800
 23
3.862760
  0
POLYLINE
  8
0
  6
CONTINUOUS
 66
     1
 40
0.000000
 41
0.000000
  0
VERTEX
  8
0
  6
CONTINUOUS
 10
5.705920
 20
4.239400
  0
VERTEX
  8
0
  6
CONTINUOUS
 10
6.354480
 20
3.868480
  0
VERTEX
  8
0
  6
CONTINUOUS
 10
6.344800
 20
3.862760
  0
VERTEX
  8
0
  6
CONTINUOUS
 10
5.696680
 20
4.233680
  0
VERTEX
  8
0
  6
CONTINUOUS
 10
5.705920
 20
4.239400
  0
SEQEND
  8
0
  0
POLYLINE
  8
0
  6
CONTINUOUS
 66
     1
 40
0.000000
 41
0.000000
  0
VERTEX
  8
0
  6
CONTINUOUS
 10
5.696680
 20
4.233680
  0
VERTEX
  8
0
  6
CONTINUOUS
 10
5.682600
 20
4.004880
  0
VERTEX
  8
0
  6
CONTINUOUS
 10
5.645200
 20
3.766840
  0
VERTEX
  8
0
  6
CONTINUOUS
 10
5.584480
 20
3.522200
  0
VERTEX
  8
0
  6
CONTINUOUS
 10
5.500440
 20
3.274040
  0
VERTEX
  8
0
  6
CONTINUOUS
 10
5.393080
 20
3.026760
  0
VERTEX
  8
0
  6
CONTINUOUS
 10
5.262840
 20
2.783000
  0
VERTEX
  8
0
  6
CONTINUOUS
 10
5.109280
 20
2.545840
  0
VERTEX
  8
0
  6
CONTINUOUS
 10
4.932840
 20
2.318800
  0
VERTEX
  8
0
  6
CONTINUOUS
 10
4.733520
 20
2.104960
  0
VERTEX
  8
0
  6
CONTINUOUS
 10
4.511760
 20
1.908280
  0
VERTEX
  8
0
  6
CONTINUOUS
 10
4.267560
 20
1.731400
  0
VERTEX
  8
0
  6
CONTINUOUS
 10
4.000480
 20
1.577400
  0
VERTEX
  8
0
  6
CONTINUOUS
 10
3.711400
 20
1.450680
  0
VERTEX
  8
0
  6
CONTINUOUS
 10
3.399880
 20
1.353000
  0
VERTEX
  8
0
  6
CONTINUOUS
 10
3.066360
 20
1.289200
  0
VERTEX
  8
0
  6
CONTINUOUS
 10
2.710840
 20
1.261040
  0
VERTEX
  8
0
  6
CONTINUOUS
 10
2.703800
 20
1.260160
  0
VERTEX
  8
0
  6
CONTINUOUS
 10
2.717000
 20
0.758560
  0
VERTEX
  8
0
  6
CONTINUOUS
 10
2.717000
 20
0.751080
  0
VERTEX
  8
0
  6
CONTINUOUS
 10
2.235640
 20
0.753720
  0
VERTEX
  8
0
  6
CONTINUOUS
 10
2.225960
 20
1.756920
  0
VERTEX
  8
0
  6
CONTINUOUS
 10
5.193760
 20
4.734400
  0
VERTEX
  8
0
  6
CONTINUOUS
 10
5.203440
 20
4.734400
  0
VERTEX
  8
0
  6
CONTINUOUS
 10
6.186840
 20
4.733520
  0
VERTEX
  8
0
  6
CONTINUOUS
 10
6.190360
 20
4.729560
  0
VERTEX
  8
0
  6
CONTINUOUS
 10
6.190360
 20
4.245120
  0
VERTEX
  8
0
  6
CONTINUOUS
 10
6.186840
 20
4.241160
  0
VERTEX
  8
0
  6
CONTINUOUS
 10
5.705920
 20
4.239400
  0
VERTEX
  8
0
  6
CONTINUOUS
 10
5.696680
 20
4.233680
  0
SEQEND
  8
0
  0
TEXT
  8
0
 10
4.442680
 20
0.604560
 40
0.137880
  1
BA  291
 41
1.000000
  7
SN0
 71
     0
 72
     5
 11
5.032059
 21
0.604560
  0
TEXT
  8
0
 10
4.213000
 20
0.413160
 40
0.137880
  1
1-1/2" x 5-5/8"
 41
1.000000
  7
SN0
 71
     0
 72
     5
 11
5.258908
 21
0.413160
  0
TEXT
  8
0
 10
7.565360
 20
6.842880
 40
0.137880
  1
crown
 41
1.000000
  7
SN0
 71
     0
 72
     5
 11
8.007643
 21
6.842880
  0
TEXT
  8
0
 10
7.648520
 20
6.651040
 40
0.137880
  1
291
 41
1.000000
  7
SN0
 71
     0
 72
     5
 11
7.925154
 21
6.651040
  0
ENDSEC
  0
EOF
