  0
SECTION
  2
HEADER
  9
$ACADVER
  1
AC1006
  9
$EXTMIN
 10
3.266120
 20
0.335720
  9
$EXTMAX
 10
8.057720
 20
3.956480
  9
$LTSCALE
 40
0.044000
  9
$PDMODE
 70
    35
  9
$PDSIZE
 40
0.035200
  0
ENDSEC
  0
SECTION
  2
TABLES
  0
TABLE
  2
LTYPE
 70
     9
  0
LTYPE
  2
CONTINUOUS
 70
    64
  3
Solid line
 72
    65
 73
     0
 40
0.000000
  0
LTYPE
  2
DASHED
 70
    64
  3
__ __ __ __ __ __ __ __ __ __ __ __ __ __ __
 72
    65
 73
     2
 40
0.000330
 49
0.000220
 49
-0.000110
  0
LTYPE
  2
HIDDEN
 70
    64
  3
 _ _ _ _ _ _ _ _ _ _ _ _ _ _ _ _ _ _ _ _ _ _
 72
    65
 73
     2
 40
0.000165
 49
0.000110
 49
-0.000055
  0
LTYPE
  2
CENTER
 70
    64
  3
____ _ ____ _ ____ _ ____ _ ____ _ ____ _ ____
 72
    65
 73
     4
 40
0.000880
 49
0.000550
 49
-0.000110
 49
0.000110
 49
-0.000110
  0
LTYPE
  2
PHANTOM
 70
    64
  3
_____ _ _ _____ _ _ _____ _ _ _____ _ _ ____
 72
    65
 73
     6
 40
0.001100
 49
0.000550
 49
-0.000110
 49
0.000110
 49
-0.000110
 49
0.000110
 49
-0.000110
  0
LTYPE
  2
DOT
 70
    64
  3
...............................................
 72
    65
 73
     2
 40
0.000110
 49
0.000000
 49
-0.000110
  0
LTYPE
  2
DASHDOT
 70
    64
  3
__ . __ . __ . __ . __ . __ . __ . __ . __ . __
 72
    65
 73
     4
 40
0.000440
 49
0.000220
 49
-0.000110
 49
0.000000
 49
-0.000110
  0
LTYPE
  2
BORDER
 70
    64
  3
__ __ . __ __ . __ __ . __ __ . __ __ . __ __
 72
    65
 73
     6
 40
0.000770
 49
0.000220
 49
-0.000110
 49
0.000220
 49
-0.000110
 49
0.000000
 49
-0.000110
  0
LTYPE
  2
DIVIDE
 70
    64
  3
__ . . __ . . __ . . __ . . __ . . __ . . __
 72
    65
 73
     6
 40
0.000550
 49
0.000220
 49
-0.000110
 49
0.000000
 49
-0.000110
 49
0.000000
 49
-0.000110
  0
LTYPE
  2
DOTDOT
 70
    64
  3
 . .  . .  . .  . .  . .  . . 
 72
    65
 73
     5
 40
0.000242
 49
-0.000110
 49
0.000000
 49
-0.000110
 49
0.000000
 49
-0.000110
  0
ENDTAB
  0
TABLE
  2
STYLE
 70
     2
  0
STYLE
 70
     0
  2
SN0
 40
0.000000
 41
0.000440
 50
0.000000
 71
     0
 42
0.000000
  3
ROMAND
  0
STYLE
 70
    68
  2
SV0
 40
0.000000
 41
0.000440
 50
0.000000
 71
     0
 42
0.000000
  3
ROMAND
  0
ENDTAB
  0
TABLE
  2
LAYER
 70
     3
  0
LAYER
  2
FOREGROUND
 70
    64
 62
     7
  6
CONTINUOUS
  0
LAYER
  2
BACKGROUND
 70
    65
 62
    -7
  6
CONTINUOUS
  0
LAYER
  2
0
 70
    64
 62
     7
  6
CONTINUOUS
  0
ENDTAB
  0
ENDSEC
  0
SECTION
  2
ENTITIES
  0
POLYLINE
  8
FOREGROUND
  6
CONTINUOUS
 66
     1
 40
0.000000
 41
0.000000
  0
VERTEX
  8
FOREGROUND
  6
CONTINUOUS
 10
0.000000
 20
4.292200
  0
VERTEX
  8
FOREGROUND
  6
CONTINUOUS
 10
8.499920
 20
4.292200
  0
VERTEX
  8
FOREGROUND
  6
CONTINUOUS
 10
8.499920
 20
-6.707800
  0
VERTEX
  8
FOREGROUND
  6
CONTINUOUS
 10
0.000000
 20
-6.707800
  0
VERTEX
  8
FOREGROUND
  6
CONTINUOUS
 10
0.000000
 20
4.292200
  0
SEQEND
  8
0
  0
POLYLINE
  8
FOREGROUND
  6
CONTINUOUS
 66
     1
 40
0.000000
 41
0.000000
  0
VERTEX
  8
FOREGROUND
  6
CONTINUOUS
 10
0.000000
 20
4.292200
  0
VERTEX
  8
FOREGROUND
  6
CONTINUOUS
 10
8.499920
 20
4.292200
  0
VERTEX
  8
FOREGROUND
  6
CONTINUOUS
 10
8.499920
 20
-6.707800
  0
VERTEX
  8
FOREGROUND
  6
CONTINUOUS
 10
0.000000
 20
-6.707800
  0
VERTEX
  8
FOREGROUND
  6
CONTINUOUS
 10
0.000000
 20
4.292200
  0
SEQEND
  8
0
  0
SOLID
  8
0
 62
    15
 10
5.910080
 20
1.085480
 11
5.918000
 21
1.818960
 12
5.974320
 22
1.085920
 13
5.982240
 23
1.819400
  0
POLYLINE
  8
0
  6
CONTINUOUS
 66
     1
 40
0.000000
 41
0.000000
  0
VERTEX
  8
0
  6
CONTINUOUS
 10
5.910080
 20
1.085480
  0
VERTEX
  8
0
  6
CONTINUOUS
 10
5.918000
 20
1.818960
  0
VERTEX
  8
0
  6
CONTINUOUS
 10
5.982240
 20
1.819400
  0
VERTEX
  8
0
  6
CONTINUOUS
 10
5.974320
 20
1.085920
  0
VERTEX
  8
0
  6
CONTINUOUS
 10
5.910080
 20
1.085480
  0
SEQEND
  8
0
  0
SOLID
  8
0
 62
    15
 10
3.268320
 20
1.577840
 11
3.276240
 21
2.311320
 12
4.219160
 22
1.577840
 13
4.227080
 23
2.311320
  0
POLYLINE
  8
0
  6
CONTINUOUS
 66
     1
 40
0.000000
 41
0.000000
  0
VERTEX
  8
0
  6
CONTINUOUS
 10
3.268320
 20
1.577840
  0
VERTEX
  8
0
  6
CONTINUOUS
 10
3.276240
 20
2.311320
  0
VERTEX
  8
0
  6
CONTINUOUS
 10
4.227080
 20
2.311320
  0
VERTEX
  8
0
  6
CONTINUOUS
 10
4.219160
 20
1.577840
  0
VERTEX
  8
0
  6
CONTINUOUS
 10
3.268320
 20
1.577840
  0
SEQEND
  8
0
  0
SOLID
  8
0
 62
    15
 10
4.219160
 20
1.577840
 11
4.227080
 21
2.311320
 12
4.219160
 22
1.576520
 13
4.227080
 23
2.310000
  0
POLYLINE
  8
0
  6
CONTINUOUS
 66
     1
 40
0.000000
 41
0.000000
  0
VERTEX
  8
0
  6
CONTINUOUS
 10
4.219160
 20
1.577840
  0
VERTEX
  8
0
  6
CONTINUOUS
 10
4.227080
 20
2.311320
  0
VERTEX
  8
0
  6
CONTINUOUS
 10
4.227080
 20
2.310000
  0
VERTEX
  8
0
  6
CONTINUOUS
 10
4.219160
 20
1.576520
  0
VERTEX
  8
0
  6
CONTINUOUS
 10
4.219160
 20
1.577840
  0
SEQEND
  8
0
  0
SOLID
  8
0
 62
    15
 10
4.219160
 20
1.576520
 11
4.227080
 21
2.310000
 12
4.224440
 22
1.553640
 13
4.232360
 23
2.287120
  0
POLYLINE
  8
0
  6
CONTINUOUS
 66
     1
 40
0.000000
 41
0.000000
  0
VERTEX
  8
0
  6
CONTINUOUS
 10
4.219160
 20
1.576520
  0
VERTEX
  8
0
  6
CONTINUOUS
 10
4.227080
 20
2.310000
  0
VERTEX
  8
0
  6
CONTINUOUS
 10
4.232360
 20
2.287120
  0
VERTEX
  8
0
  6
CONTINUOUS
 10
4.224440
 20
1.553640
  0
VERTEX
  8
0
  6
CONTINUOUS
 10
4.219160
 20
1.576520
  0
SEQEND
  8
0
  0
SOLID
  8
0
 62
    15
 10
4.224440
 20
1.553640
 11
4.232360
 21
2.287120
 12
4.235000
 22
1.526800
 13
4.242920
 23
2.260280
  0
POLYLINE
  8
0
  6
CONTINUOUS
 66
     1
 40
0.000000
 41
0.000000
  0
VERTEX
  8
0
  6
CONTINUOUS
 10
4.224440
 20
1.553640
  0
VERTEX
  8
0
  6
CONTINUOUS
 10
4.232360
 20
2.287120
  0
VERTEX
  8
0
  6
CONTINUOUS
 10
4.242920
 20
2.260280
  0
VERTEX
  8
0
  6
CONTINUOUS
 10
4.235000
 20
1.526800
  0
VERTEX
  8
0
  6
CONTINUOUS
 10
4.224440
 20
1.553640
  0
SEQEND
  8
0
  0
SOLID
  8
0
 62
    15
 10
4.235000
 20
1.526800
 11
4.242920
 21
2.260280
 12
4.250400
 22
1.498200
 13
4.258320
 23
2.231680
  0
POLYLINE
  8
0
  6
CONTINUOUS
 66
     1
 40
0.000000
 41
0.000000
  0
VERTEX
  8
0
  6
CONTINUOUS
 10
4.235000
 20
1.526800
  0
VERTEX
  8
0
  6
CONTINUOUS
 10
4.242920
 20
2.260280
  0
VERTEX
  8
0
  6
CONTINUOUS
 10
4.258320
 20
2.231680
  0
VERTEX
  8
0
  6
CONTINUOUS
 10
4.250400
 20
1.498200
  0
VERTEX
  8
0
  6
CONTINUOUS
 10
4.235000
 20
1.526800
  0
SEQEND
  8
0
  0
SOLID
  8
0
 62
    15
 10
4.250400
 20
1.498200
 11
4.258320
 21
2.231680
 12
4.270640
 22
1.469600
 13
4.278560
 23
2.203080
  0
POLYLINE
  8
0
  6
CONTINUOUS
 66
     1
 40
0.000000
 41
0.000000
  0
VERTEX
  8
0
  6
CONTINUOUS
 10
4.250400
 20
1.498200
  0
VERTEX
  8
0
  6
CONTINUOUS
 10
4.258320
 20
2.231680
  0
VERTEX
  8
0
  6
CONTINUOUS
 10
4.278560
 20
2.203080
  0
VERTEX
  8
0
  6
CONTINUOUS
 10
4.270640
 20
1.469600
  0
VERTEX
  8
0
  6
CONTINUOUS
 10
4.250400
 20
1.498200
  0
SEQEND
  8
0
  0
SOLID
  8
0
 62
    15
 10
4.270640
 20
1.469600
 11
4.278560
 21
2.203080
 12
4.295720
 22
1.442320
 13
4.303640
 23
2.175800
  0
POLYLINE
  8
0
  6
CONTINUOUS
 66
     1
 40
0.000000
 41
0.000000
  0
VERTEX
  8
0
  6
CONTINUOUS
 10
4.270640
 20
1.469600
  0
VERTEX
  8
0
  6
CONTINUOUS
 10
4.278560
 20
2.203080
  0
VERTEX
  8
0
  6
CONTINUOUS
 10
4.303640
 20
2.175800
  0
VERTEX
  8
0
  6
CONTINUOUS
 10
4.295720
 20
1.442320
  0
VERTEX
  8
0
  6
CONTINUOUS
 10
4.270640
 20
1.469600
  0
SEQEND
  8
0
  0
SOLID
  8
0
 62
    15
 10
4.295720
 20
1.442320
 11
4.303640
 21
2.175800
 12
4.326080
 22
1.418560
 13
4.334000
 23
2.152040
  0
POLYLINE
  8
0
  6
CONTINUOUS
 66
     1
 40
0.000000
 41
0.000000
  0
VERTEX
  8
0
  6
CONTINUOUS
 10
4.295720
 20
1.442320
  0
VERTEX
  8
0
  6
CONTINUOUS
 10
4.303640
 20
2.175800
  0
VERTEX
  8
0
  6
CONTINUOUS
 10
4.334000
 20
2.152040
  0
VERTEX
  8
0
  6
CONTINUOUS
 10
4.326080
 20
1.418560
  0
VERTEX
  8
0
  6
CONTINUOUS
 10
4.295720
 20
1.442320
  0
SEQEND
  8
0
  0
SOLID
  8
0
 62
    15
 10
4.326080
 20
1.418560
 11
4.334000
 21
2.152040
 12
4.361280
 22
1.399640
 13
4.369200
 23
2.133120
  0
POLYLINE
  8
0
  6
CONTINUOUS
 66
     1
 40
0.000000
 41
0.000000
  0
VERTEX
  8
0
  6
CONTINUOUS
 10
4.326080
 20
1.418560
  0
VERTEX
  8
0
  6
CONTINUOUS
 10
4.334000
 20
2.152040
  0
VERTEX
  8
0
  6
CONTINUOUS
 10
4.369200
 20
2.133120
  0
VERTEX
  8
0
  6
CONTINUOUS
 10
4.361280
 20
1.399640
  0
VERTEX
  8
0
  6
CONTINUOUS
 10
4.326080
 20
1.418560
  0
SEQEND
  8
0
  0
SOLID
  8
0
 62
    15
 10
4.361280
 20
1.399640
 11
4.369200
 21
2.133120
 12
4.401760
 22
1.387320
 13
4.409680
 23
2.120800
  0
POLYLINE
  8
0
  6
CONTINUOUS
 66
     1
 40
0.000000
 41
0.000000
  0
VERTEX
  8
0
  6
CONTINUOUS
 10
4.361280
 20
1.399640
  0
VERTEX
  8
0
  6
CONTINUOUS
 10
4.369200
 20
2.133120
  0
VERTEX
  8
0
  6
CONTINUOUS
 10
4.409680
 20
2.120800
  0
VERTEX
  8
0
  6
CONTINUOUS
 10
4.401760
 20
1.387320
  0
VERTEX
  8
0
  6
CONTINUOUS
 10
4.361280
 20
1.399640
  0
SEQEND
  8
0
  0
SOLID
  8
0
 62
    15
 10
4.401760
 20
1.387320
 11
4.409680
 21
2.120800
 12
4.404400
 22
1.387320
 13
4.412320
 23
2.120800
  0
POLYLINE
  8
0
  6
CONTINUOUS
 66
     1
 40
0.000000
 41
0.000000
  0
VERTEX
  8
0
  6
CONTINUOUS
 10
4.401760
 20
1.387320
  0
VERTEX
  8
0
  6
CONTINUOUS
 10
4.409680
 20
2.120800
  0
VERTEX
  8
0
  6
CONTINUOUS
 10
4.412320
 20
2.120800
  0
VERTEX
  8
0
  6
CONTINUOUS
 10
4.404400
 20
1.387320
  0
VERTEX
  8
0
  6
CONTINUOUS
 10
4.401760
 20
1.387320
  0
SEQEND
  8
0
  0
SOLID
  8
0
 62
    15
 10
4.404400
 20
1.387320
 11
4.412320
 21
2.120800
 12
4.411880
 22
1.415920
 13
4.419800
 23
2.149400
  0
POLYLINE
  8
0
  6
CONTINUOUS
 66
     1
 40
0.000000
 41
0.000000
  0
VERTEX
  8
0
  6
CONTINUOUS
 10
4.404400
 20
1.387320
  0
VERTEX
  8
0
  6
CONTINUOUS
 10
4.412320
 20
2.120800
  0
VERTEX
  8
0
  6
CONTINUOUS
 10
4.419800
 20
2.149400
  0
VERTEX
  8
0
  6
CONTINUOUS
 10
4.411880
 20
1.415920
  0
VERTEX
  8
0
  6
CONTINUOUS
 10
4.404400
 20
1.387320
  0
SEQEND
  8
0
  0
SOLID
  8
0
 62
    15
 10
4.411880
 20
1.415920
 11
4.419800
 21
2.149400
 12
4.422880
 22
1.441440
 13
4.430800
 23
2.174920
  0
POLYLINE
  8
0
  6
CONTINUOUS
 66
     1
 40
0.000000
 41
0.000000
  0
VERTEX
  8
0
  6
CONTINUOUS
 10
4.411880
 20
1.415920
  0
VERTEX
  8
0
  6
CONTINUOUS
 10
4.419800
 20
2.149400
  0
VERTEX
  8
0
  6
CONTINUOUS
 10
4.430800
 20
2.174920
  0
VERTEX
  8
0
  6
CONTINUOUS
 10
4.422880
 20
1.441440
  0
VERTEX
  8
0
  6
CONTINUOUS
 10
4.411880
 20
1.415920
  0
SEQEND
  8
0
  0
SOLID
  8
0
 62
    15
 10
4.422880
 20
1.441440
 11
4.430800
 21
2.174920
 12
4.452800
 22
1.485880
 13
4.460720
 23
2.219360
  0
POLYLINE
  8
0
  6
CONTINUOUS
 66
     1
 40
0.000000
 41
0.000000
  0
VERTEX
  8
0
  6
CONTINUOUS
 10
4.422880
 20
1.441440
  0
VERTEX
  8
0
  6
CONTINUOUS
 10
4.430800
 20
2.174920
  0
VERTEX
  8
0
  6
CONTINUOUS
 10
4.460720
 20
2.219360
  0
VERTEX
  8
0
  6
CONTINUOUS
 10
4.452800
 20
1.485880
  0
VERTEX
  8
0
  6
CONTINUOUS
 10
4.422880
 20
1.441440
  0
SEQEND
  8
0
  0
SOLID
  8
0
 62
    15
 10
4.452800
 20
1.485880
 11
4.460720
 21
2.219360
 12
4.492840
 22
1.520640
 13
4.500760
 23
2.254120
  0
POLYLINE
  8
0
  6
CONTINUOUS
 66
     1
 40
0.000000
 41
0.000000
  0
VERTEX
  8
0
  6
CONTINUOUS
 10
4.452800
 20
1.485880
  0
VERTEX
  8
0
  6
CONTINUOUS
 10
4.460720
 20
2.219360
  0
VERTEX
  8
0
  6
CONTINUOUS
 10
4.500760
 20
2.254120
  0
VERTEX
  8
0
  6
CONTINUOUS
 10
4.492840
 20
1.520640
  0
VERTEX
  8
0
  6
CONTINUOUS
 10
4.452800
 20
1.485880
  0
SEQEND
  8
0
  0
SOLID
  8
0
 62
    15
 10
4.492840
 20
1.520640
 11
4.500760
 21
2.254120
 12
4.541240
 22
1.546600
 13
4.549160
 23
2.280080
  0
POLYLINE
  8
0
  6
CONTINUOUS
 66
     1
 40
0.000000
 41
0.000000
  0
VERTEX
  8
0
  6
CONTINUOUS
 10
4.492840
 20
1.520640
  0
VERTEX
  8
0
  6
CONTINUOUS
 10
4.500760
 20
2.254120
  0
VERTEX
  8
0
  6
CONTINUOUS
 10
4.549160
 20
2.280080
  0
VERTEX
  8
0
  6
CONTINUOUS
 10
4.541240
 20
1.546600
  0
VERTEX
  8
0
  6
CONTINUOUS
 10
4.492840
 20
1.520640
  0
SEQEND
  8
0
  0
SOLID
  8
0
 62
    15
 10
4.541240
 20
1.546600
 11
4.549160
 21
2.280080
 12
4.596680
 22
1.563760
 13
4.604600
 23
2.297240
  0
POLYLINE
  8
0
  6
CONTINUOUS
 66
     1
 40
0.000000
 41
0.000000
  0
VERTEX
  8
0
  6
CONTINUOUS
 10
4.541240
 20
1.546600
  0
VERTEX
  8
0
  6
CONTINUOUS
 10
4.549160
 20
2.280080
  0
VERTEX
  8
0
  6
CONTINUOUS
 10
4.604600
 20
2.297240
  0
VERTEX
  8
0
  6
CONTINUOUS
 10
4.596680
 20
1.563760
  0
VERTEX
  8
0
  6
CONTINUOUS
 10
4.541240
 20
1.546600
  0
SEQEND
  8
0
  0
SOLID
  8
0
 62
    15
 10
4.596680
 20
1.563760
 11
4.604600
 21
2.297240
 12
4.657400
 22
1.573000
 13
4.665320
 23
2.306480
  0
POLYLINE
  8
0
  6
CONTINUOUS
 66
     1
 40
0.000000
 41
0.000000
  0
VERTEX
  8
0
  6
CONTINUOUS
 10
4.596680
 20
1.563760
  0
VERTEX
  8
0
  6
CONTINUOUS
 10
4.604600
 20
2.297240
  0
VERTEX
  8
0
  6
CONTINUOUS
 10
4.665320
 20
2.306480
  0
VERTEX
  8
0
  6
CONTINUOUS
 10
4.657400
 20
1.573000
  0
VERTEX
  8
0
  6
CONTINUOUS
 10
4.596680
 20
1.563760
  0
SEQEND
  8
0
  0
SOLID
  8
0
 62
    15
 10
4.657400
 20
1.573000
 11
4.665320
 21
2.306480
 12
4.721640
 22
1.574760
 13
4.729560
 23
2.308240
  0
POLYLINE
  8
0
  6
CONTINUOUS
 66
     1
 40
0.000000
 41
0.000000
  0
VERTEX
  8
0
  6
CONTINUOUS
 10
4.657400
 20
1.573000
  0
VERTEX
  8
0
  6
CONTINUOUS
 10
4.665320
 20
2.306480
  0
VERTEX
  8
0
  6
CONTINUOUS
 10
4.729560
 20
2.308240
  0
VERTEX
  8
0
  6
CONTINUOUS
 10
4.721640
 20
1.574760
  0
VERTEX
  8
0
  6
CONTINUOUS
 10
4.657400
 20
1.573000
  0
SEQEND
  8
0
  0
SOLID
  8
0
 62
    15
 10
4.721640
 20
1.574760
 11
4.729560
 21
2.308240
 12
4.788080
 22
1.568600
 13
4.796000
 23
2.302080
  0
POLYLINE
  8
0
  6
CONTINUOUS
 66
     1
 40
0.000000
 41
0.000000
  0
VERTEX
  8
0
  6
CONTINUOUS
 10
4.721640
 20
1.574760
  0
VERTEX
  8
0
  6
CONTINUOUS
 10
4.729560
 20
2.308240
  0
VERTEX
  8
0
  6
CONTINUOUS
 10
4.796000
 20
2.302080
  0
VERTEX
  8
0
  6
CONTINUOUS
 10
4.788080
 20
1.568600
  0
VERTEX
  8
0
  6
CONTINUOUS
 10
4.721640
 20
1.574760
  0
SEQEND
  8
0
  0
SOLID
  8
0
 62
    15
 10
4.788080
 20
1.568600
 11
4.796000
 21
2.302080
 12
4.855400
 22
1.555840
 13
4.863320
 23
2.289320
  0
POLYLINE
  8
0
  6
CONTINUOUS
 66
     1
 40
0.000000
 41
0.000000
  0
VERTEX
  8
0
  6
CONTINUOUS
 10
4.788080
 20
1.568600
  0
VERTEX
  8
0
  6
CONTINUOUS
 10
4.796000
 20
2.302080
  0
VERTEX
  8
0
  6
CONTINUOUS
 10
4.863320
 20
2.289320
  0
VERTEX
  8
0
  6
CONTINUOUS
 10
4.855400
 20
1.555840
  0
VERTEX
  8
0
  6
CONTINUOUS
 10
4.788080
 20
1.568600
  0
SEQEND
  8
0
  0
SOLID
  8
0
 62
    15
 10
4.855400
 20
1.555840
 11
4.863320
 21
2.289320
 12
4.921400
 22
1.536920
 13
4.929320
 23
2.270400
  0
POLYLINE
  8
0
  6
CONTINUOUS
 66
     1
 40
0.000000
 41
0.000000
  0
VERTEX
  8
0
  6
CONTINUOUS
 10
4.855400
 20
1.555840
  0
VERTEX
  8
0
  6
CONTINUOUS
 10
4.863320
 20
2.289320
  0
VERTEX
  8
0
  6
CONTINUOUS
 10
4.929320
 20
2.270400
  0
VERTEX
  8
0
  6
CONTINUOUS
 10
4.921400
 20
1.536920
  0
VERTEX
  8
0
  6
CONTINUOUS
 10
4.855400
 20
1.555840
  0
SEQEND
  8
0
  0
SOLID
  8
0
 62
    15
 10
4.921400
 20
1.536920
 11
4.929320
 21
2.270400
 12
4.984760
 22
1.511400
 13
4.992680
 23
2.244880
  0
POLYLINE
  8
0
  6
CONTINUOUS
 66
     1
 40
0.000000
 41
0.000000
  0
VERTEX
  8
0
  6
CONTINUOUS
 10
4.921400
 20
1.536920
  0
VERTEX
  8
0
  6
CONTINUOUS
 10
4.929320
 20
2.270400
  0
VERTEX
  8
0
  6
CONTINUOUS
 10
4.992680
 20
2.244880
  0
VERTEX
  8
0
  6
CONTINUOUS
 10
4.984760
 20
1.511400
  0
VERTEX
  8
0
  6
CONTINUOUS
 10
4.921400
 20
1.536920
  0
SEQEND
  8
0
  0
SOLID
  8
0
 62
    15
 10
4.984760
 20
1.511400
 11
4.992680
 21
2.244880
 12
5.044160
 22
1.480600
 13
5.052080
 23
2.214080
  0
POLYLINE
  8
0
  6
CONTINUOUS
 66
     1
 40
0.000000
 41
0.000000
  0
VERTEX
  8
0
  6
CONTINUOUS
 10
4.984760
 20
1.511400
  0
VERTEX
  8
0
  6
CONTINUOUS
 10
4.992680
 20
2.244880
  0
VERTEX
  8
0
  6
CONTINUOUS
 10
5.052080
 20
2.214080
  0
VERTEX
  8
0
  6
CONTINUOUS
 10
5.044160
 20
1.480600
  0
VERTEX
  8
0
  6
CONTINUOUS
 10
4.984760
 20
1.511400
  0
SEQEND
  8
0
  0
SOLID
  8
0
 62
    15
 10
5.044160
 20
1.480600
 11
5.052080
 21
2.214080
 12
5.097400
 22
1.444960
 13
5.105320
 23
2.178440
  0
POLYLINE
  8
0
  6
CONTINUOUS
 66
     1
 40
0.000000
 41
0.000000
  0
VERTEX
  8
0
  6
CONTINUOUS
 10
5.044160
 20
1.480600
  0
VERTEX
  8
0
  6
CONTINUOUS
 10
5.052080
 20
2.214080
  0
VERTEX
  8
0
  6
CONTINUOUS
 10
5.105320
 20
2.178440
  0
VERTEX
  8
0
  6
CONTINUOUS
 10
5.097400
 20
1.444960
  0
VERTEX
  8
0
  6
CONTINUOUS
 10
5.044160
 20
1.480600
  0
SEQEND
  8
0
  0
SOLID
  8
0
 62
    15
 10
5.097400
 20
1.444960
 11
5.105320
 21
2.178440
 12
5.143600
 22
1.404040
 13
5.151520
 23
2.137520
  0
POLYLINE
  8
0
  6
CONTINUOUS
 66
     1
 40
0.000000
 41
0.000000
  0
VERTEX
  8
0
  6
CONTINUOUS
 10
5.097400
 20
1.444960
  0
VERTEX
  8
0
  6
CONTINUOUS
 10
5.105320
 20
2.178440
  0
VERTEX
  8
0
  6
CONTINUOUS
 10
5.151520
 20
2.137520
  0
VERTEX
  8
0
  6
CONTINUOUS
 10
5.143600
 20
1.404040
  0
VERTEX
  8
0
  6
CONTINUOUS
 10
5.097400
 20
1.444960
  0
SEQEND
  8
0
  0
SOLID
  8
0
 62
    15
 10
5.143600
 20
1.404040
 11
5.151520
 21
2.137520
 12
5.180560
 22
1.359160
 13
5.188480
 23
2.092640
  0
POLYLINE
  8
0
  6
CONTINUOUS
 66
     1
 40
0.000000
 41
0.000000
  0
VERTEX
  8
0
  6
CONTINUOUS
 10
5.143600
 20
1.404040
  0
VERTEX
  8
0
  6
CONTINUOUS
 10
5.151520
 20
2.137520
  0
VERTEX
  8
0
  6
CONTINUOUS
 10
5.188480
 20
2.092640
  0
VERTEX
  8
0
  6
CONTINUOUS
 10
5.180560
 20
1.359160
  0
VERTEX
  8
0
  6
CONTINUOUS
 10
5.143600
 20
1.404040
  0
SEQEND
  8
0
  0
SOLID
  8
0
 62
    15
 10
5.180560
 20
1.359160
 11
5.188480
 21
2.092640
 12
5.206960
 22
1.309880
 13
5.214880
 23
2.043360
  0
POLYLINE
  8
0
  6
CONTINUOUS
 66
     1
 40
0.000000
 41
0.000000
  0
VERTEX
  8
0
  6
CONTINUOUS
 10
5.180560
 20
1.359160
  0
VERTEX
  8
0
  6
CONTINUOUS
 10
5.188480
 20
2.092640
  0
VERTEX
  8
0
  6
CONTINUOUS
 10
5.214880
 20
2.043360
  0
VERTEX
  8
0
  6
CONTINUOUS
 10
5.206960
 20
1.309880
  0
VERTEX
  8
0
  6
CONTINUOUS
 10
5.180560
 20
1.359160
  0
SEQEND
  8
0
  0
SOLID
  8
0
 62
    15
 10
5.206960
 20
1.309880
 11
5.214880
 21
2.043360
 12
5.206960
 22
1.303280
 13
5.214880
 23
2.036760
  0
POLYLINE
  8
0
  6
CONTINUOUS
 66
     1
 40
0.000000
 41
0.000000
  0
VERTEX
  8
0
  6
CONTINUOUS
 10
5.206960
 20
1.309880
  0
VERTEX
  8
0
  6
CONTINUOUS
 10
5.214880
 20
2.043360
  0
VERTEX
  8
0
  6
CONTINUOUS
 10
5.214880
 20
2.036760
  0
VERTEX
  8
0
  6
CONTINUOUS
 10
5.206960
 20
1.303280
  0
VERTEX
  8
0
  6
CONTINUOUS
 10
5.206960
 20
1.309880
  0
SEQEND
  8
0
  0
SOLID
  8
0
 62
    15
 10
5.206960
 20
1.303280
 11
5.214880
 21
2.036760
 12
5.480640
 22
1.303280
 13
5.488560
 23
2.036760
  0
POLYLINE
  8
0
  6
CONTINUOUS
 66
     1
 40
0.000000
 41
0.000000
  0
VERTEX
  8
0
  6
CONTINUOUS
 10
5.206960
 20
1.303280
  0
VERTEX
  8
0
  6
CONTINUOUS
 10
5.214880
 20
2.036760
  0
VERTEX
  8
0
  6
CONTINUOUS
 10
5.488560
 20
2.036760
  0
VERTEX
  8
0
  6
CONTINUOUS
 10
5.480640
 20
1.303280
  0
VERTEX
  8
0
  6
CONTINUOUS
 10
5.206960
 20
1.303280
  0
SEQEND
  8
0
  0
SOLID
  8
0
 62
    15
 10
5.480640
 20
1.303280
 11
5.488560
 21
2.036760
 12
5.485480
 22
1.280840
 13
5.493400
 23
2.014320
  0
POLYLINE
  8
0
  6
CONTINUOUS
 66
     1
 40
0.000000
 41
0.000000
  0
VERTEX
  8
0
  6
CONTINUOUS
 10
5.480640
 20
1.303280
  0
VERTEX
  8
0
  6
CONTINUOUS
 10
5.488560
 20
2.036760
  0
VERTEX
  8
0
  6
CONTINUOUS
 10
5.493400
 20
2.014320
  0
VERTEX
  8
0
  6
CONTINUOUS
 10
5.485480
 20
1.280840
  0
VERTEX
  8
0
  6
CONTINUOUS
 10
5.480640
 20
1.303280
  0
SEQEND
  8
0
  0
SOLID
  8
0
 62
    15
 10
5.485480
 20
1.280840
 11
5.493400
 21
2.014320
 12
5.494280
 22
1.259720
 13
5.502200
 23
1.993200
  0
POLYLINE
  8
0
  6
CONTINUOUS
 66
     1
 40
0.000000
 41
0.000000
  0
VERTEX
  8
0
  6
CONTINUOUS
 10
5.485480
 20
1.280840
  0
VERTEX
  8
0
  6
CONTINUOUS
 10
5.493400
 20
2.014320
  0
VERTEX
  8
0
  6
CONTINUOUS
 10
5.502200
 20
1.993200
  0
VERTEX
  8
0
  6
CONTINUOUS
 10
5.494280
 20
1.259720
  0
VERTEX
  8
0
  6
CONTINUOUS
 10
5.485480
 20
1.280840
  0
SEQEND
  8
0
  0
SOLID
  8
0
 62
    15
 10
5.494280
 20
1.259720
 11
5.502200
 21
1.993200
 12
5.520240
 22
1.221000
 13
5.528160
 23
1.954480
  0
POLYLINE
  8
0
  6
CONTINUOUS
 66
     1
 40
0.000000
 41
0.000000
  0
VERTEX
  8
0
  6
CONTINUOUS
 10
5.494280
 20
1.259720
  0
VERTEX
  8
0
  6
CONTINUOUS
 10
5.502200
 20
1.993200
  0
VERTEX
  8
0
  6
CONTINUOUS
 10
5.528160
 20
1.954480
  0
VERTEX
  8
0
  6
CONTINUOUS
 10
5.520240
 20
1.221000
  0
VERTEX
  8
0
  6
CONTINUOUS
 10
5.494280
 20
1.259720
  0
SEQEND
  8
0
  0
SOLID
  8
0
 62
    15
 10
5.520240
 20
1.221000
 11
5.528160
 21
1.954480
 12
5.557640
 22
1.186680
 13
5.565560
 23
1.920600
  0
POLYLINE
  8
0
  6
CONTINUOUS
 66
     1
 40
0.000000
 41
0.000000
  0
VERTEX
  8
0
  6
CONTINUOUS
 10
5.520240
 20
1.221000
  0
VERTEX
  8
0
  6
CONTINUOUS
 10
5.528160
 20
1.954480
  0
VERTEX
  8
0
  6
CONTINUOUS
 10
5.565560
 20
1.920600
  0
VERTEX
  8
0
  6
CONTINUOUS
 10
5.557640
 20
1.186680
  0
VERTEX
  8
0
  6
CONTINUOUS
 10
5.520240
 20
1.221000
  0
SEQEND
  8
0
  0
SOLID
  8
0
 62
    15
 10
5.557640
 20
1.186680
 11
5.565560
 21
1.920600
 12
5.603840
 22
1.157640
 13
5.611760
 23
1.891120
  0
POLYLINE
  8
0
  6
CONTINUOUS
 66
     1
 40
0.000000
 41
0.000000
  0
VERTEX
  8
0
  6
CONTINUOUS
 10
5.557640
 20
1.186680
  0
VERTEX
  8
0
  6
CONTINUOUS
 10
5.565560
 20
1.920600
  0
VERTEX
  8
0
  6
CONTINUOUS
 10
5.611760
 20
1.891120
  0
VERTEX
  8
0
  6
CONTINUOUS
 10
5.603840
 20
1.157640
  0
VERTEX
  8
0
  6
CONTINUOUS
 10
5.557640
 20
1.186680
  0
SEQEND
  8
0
  0
SOLID
  8
0
 62
    15
 10
5.603840
 20
1.157640
 11
5.611760
 21
1.891120
 12
5.657520
 22
1.133440
 13
5.665440
 23
1.866920
  0
POLYLINE
  8
0
  6
CONTINUOUS
 66
     1
 40
0.000000
 41
0.000000
  0
VERTEX
  8
0
  6
CONTINUOUS
 10
5.603840
 20
1.157640
  0
VERTEX
  8
0
  6
CONTINUOUS
 10
5.611760
 20
1.891120
  0
VERTEX
  8
0
  6
CONTINUOUS
 10
5.665440
 20
1.866920
  0
VERTEX
  8
0
  6
CONTINUOUS
 10
5.657520
 20
1.133440
  0
VERTEX
  8
0
  6
CONTINUOUS
 10
5.603840
 20
1.157640
  0
SEQEND
  8
0
  0
SOLID
  8
0
 62
    15
 10
5.657520
 20
1.133440
 11
5.665440
 21
1.866920
 12
5.716480
 22
1.114080
 13
5.724400
 23
1.847560
  0
POLYLINE
  8
0
  6
CONTINUOUS
 66
     1
 40
0.000000
 41
0.000000
  0
VERTEX
  8
0
  6
CONTINUOUS
 10
5.657520
 20
1.133440
  0
VERTEX
  8
0
  6
CONTINUOUS
 10
5.665440
 20
1.866920
  0
VERTEX
  8
0
  6
CONTINUOUS
 10
5.724400
 20
1.847560
  0
VERTEX
  8
0
  6
CONTINUOUS
 10
5.716480
 20
1.114080
  0
VERTEX
  8
0
  6
CONTINUOUS
 10
5.657520
 20
1.133440
  0
SEQEND
  8
0
  0
SOLID
  8
0
 62
    15
 10
5.716480
 20
1.114080
 11
5.724400
 21
1.847560
 12
5.779840
 22
1.099560
 13
5.787760
 23
1.833040
  0
POLYLINE
  8
0
  6
CONTINUOUS
 66
     1
 40
0.000000
 41
0.000000
  0
VERTEX
  8
0
  6
CONTINUOUS
 10
5.716480
 20
1.114080
  0
VERTEX
  8
0
  6
CONTINUOUS
 10
5.724400
 20
1.847560
  0
VERTEX
  8
0
  6
CONTINUOUS
 10
5.787760
 20
1.833040
  0
VERTEX
  8
0
  6
CONTINUOUS
 10
5.779840
 20
1.099560
  0
VERTEX
  8
0
  6
CONTINUOUS
 10
5.716480
 20
1.114080
  0
SEQEND
  8
0
  0
SOLID
  8
0
 62
    15
 10
5.779840
 20
1.099560
 11
5.787760
 21
1.833040
 12
5.844960
 22
1.089880
 13
5.852880
 23
1.823360
  0
POLYLINE
  8
0
  6
CONTINUOUS
 66
     1
 40
0.000000
 41
0.000000
  0
VERTEX
  8
0
  6
CONTINUOUS
 10
5.779840
 20
1.099560
  0
VERTEX
  8
0
  6
CONTINUOUS
 10
5.787760
 20
1.833040
  0
VERTEX
  8
0
  6
CONTINUOUS
 10
5.852880
 20
1.823360
  0
VERTEX
  8
0
  6
CONTINUOUS
 10
5.844960
 20
1.089880
  0
VERTEX
  8
0
  6
CONTINUOUS
 10
5.779840
 20
1.099560
  0
SEQEND
  8
0
  0
SOLID
  8
0
 62
    15
 10
5.844960
 20
1.089880
 11
5.852880
 21
1.823360
 12
5.910080
 22
1.085480
 13
5.918000
 23
1.818960
  0
POLYLINE
  8
0
  6
CONTINUOUS
 66
     1
 40
0.000000
 41
0.000000
  0
VERTEX
  8
0
  6
CONTINUOUS
 10
5.844960
 20
1.089880
  0
VERTEX
  8
0
  6
CONTINUOUS
 10
5.852880
 20
1.823360
  0
VERTEX
  8
0
  6
CONTINUOUS
 10
5.918000
 20
1.818960
  0
VERTEX
  8
0
  6
CONTINUOUS
 10
5.910080
 20
1.085480
  0
VERTEX
  8
0
  6
CONTINUOUS
 10
5.844960
 20
1.089880
  0
SEQEND
  8
0
  0
SOLID
  8
0
 62
    15
 10
3.266560
 20
1.576080
 11
3.274480
 21
2.309560
 12
3.268320
 22
1.577840
 13
3.276240
 23
2.311320
  0
POLYLINE
  8
0
  6
CONTINUOUS
 66
     1
 40
0.000000
 41
0.000000
  0
VERTEX
  8
0
  6
CONTINUOUS
 10
3.266560
 20
1.576080
  0
VERTEX
  8
0
  6
CONTINUOUS
 10
3.274480
 20
2.309560
  0
VERTEX
  8
0
  6
CONTINUOUS
 10
3.276240
 20
2.311320
  0
VERTEX
  8
0
  6
CONTINUOUS
 10
3.268320
 20
1.577840
  0
VERTEX
  8
0
  6
CONTINUOUS
 10
3.266560
 20
1.576080
  0
SEQEND
  8
0
  0
SOLID
  8
0
 62
    15
 10
5.974320
 20
1.085920
 11
5.982240
 21
1.819400
 12
6.035480
 22
1.091200
 13
6.043400
 23
1.824680
  0
POLYLINE
  8
0
  6
CONTINUOUS
 66
     1
 40
0.000000
 41
0.000000
  0
VERTEX
  8
0
  6
CONTINUOUS
 10
5.974320
 20
1.085920
  0
VERTEX
  8
0
  6
CONTINUOUS
 10
5.982240
 20
1.819400
  0
VERTEX
  8
0
  6
CONTINUOUS
 10
6.043400
 20
1.824680
  0
VERTEX
  8
0
  6
CONTINUOUS
 10
6.035480
 20
1.091200
  0
VERTEX
  8
0
  6
CONTINUOUS
 10
5.974320
 20
1.085920
  0
SEQEND
  8
0
  0
SOLID
  8
0
 62
    15
 10
6.035480
 20
1.091200
 11
6.043400
 21
1.824680
 12
6.091360
 22
1.101760
 13
6.099280
 23
1.835240
  0
POLYLINE
  8
0
  6
CONTINUOUS
 66
     1
 40
0.000000
 41
0.000000
  0
VERTEX
  8
0
  6
CONTINUOUS
 10
6.035480
 20
1.091200
  0
VERTEX
  8
0
  6
CONTINUOUS
 10
6.043400
 20
1.824680
  0
VERTEX
  8
0
  6
CONTINUOUS
 10
6.099280
 20
1.835240
  0
VERTEX
  8
0
  6
CONTINUOUS
 10
6.091360
 20
1.101760
  0
VERTEX
  8
0
  6
CONTINUOUS
 10
6.035480
 20
1.091200
  0
SEQEND
  8
0
  0
SOLID
  8
0
 62
    15
 10
6.091360
 20
1.101760
 11
6.099280
 21
1.835240
 12
6.140640
 22
1.117600
 13
6.148560
 23
1.851080
  0
POLYLINE
  8
0
  6
CONTINUOUS
 66
     1
 40
0.000000
 41
0.000000
  0
VERTEX
  8
0
  6
CONTINUOUS
 10
6.091360
 20
1.101760
  0
VERTEX
  8
0
  6
CONTINUOUS
 10
6.099280
 20
1.835240
  0
VERTEX
  8
0
  6
CONTINUOUS
 10
6.148560
 20
1.851080
  0
VERTEX
  8
0
  6
CONTINUOUS
 10
6.140640
 20
1.117600
  0
VERTEX
  8
0
  6
CONTINUOUS
 10
6.091360
 20
1.101760
  0
SEQEND
  8
0
  0
SOLID
  8
0
 62
    15
 10
6.140640
 20
1.117600
 11
6.148560
 21
1.851080
 12
6.181560
 22
1.138280
 13
6.189480
 23
1.871760
  0
POLYLINE
  8
0
  6
CONTINUOUS
 66
     1
 40
0.000000
 41
0.000000
  0
VERTEX
  8
0
  6
CONTINUOUS
 10
6.140640
 20
1.117600
  0
VERTEX
  8
0
  6
CONTINUOUS
 10
6.148560
 20
1.851080
  0
VERTEX
  8
0
  6
CONTINUOUS
 10
6.189480
 20
1.871760
  0
VERTEX
  8
0
  6
CONTINUOUS
 10
6.181560
 20
1.138280
  0
VERTEX
  8
0
  6
CONTINUOUS
 10
6.140640
 20
1.117600
  0
SEQEND
  8
0
  0
SOLID
  8
0
 62
    15
 10
6.181560
 20
1.138280
 11
6.189480
 21
1.871760
 12
6.212360
 22
1.164240
 13
6.220280
 23
1.897720
  0
POLYLINE
  8
0
  6
CONTINUOUS
 66
     1
 40
0.000000
 41
0.000000
  0
VERTEX
  8
0
  6
CONTINUOUS
 10
6.181560
 20
1.138280
  0
VERTEX
  8
0
  6
CONTINUOUS
 10
6.189480
 20
1.871760
  0
VERTEX
  8
0
  6
CONTINUOUS
 10
6.220280
 20
1.897720
  0
VERTEX
  8
0
  6
CONTINUOUS
 10
6.212360
 20
1.164240
  0
VERTEX
  8
0
  6
CONTINUOUS
 10
6.181560
 20
1.138280
  0
SEQEND
  8
0
  0
SOLID
  8
0
 62
    15
 10
6.212360
 20
1.164240
 11
6.220280
 21
1.897720
 12
6.231280
 22
1.195480
 13
6.239200
 23
1.928960
  0
POLYLINE
  8
0
  6
CONTINUOUS
 66
     1
 40
0.000000
 41
0.000000
  0
VERTEX
  8
0
  6
CONTINUOUS
 10
6.212360
 20
1.164240
  0
VERTEX
  8
0
  6
CONTINUOUS
 10
6.220280
 20
1.897720
  0
VERTEX
  8
0
  6
CONTINUOUS
 10
6.239200
 20
1.928960
  0
VERTEX
  8
0
  6
CONTINUOUS
 10
6.231280
 20
1.195480
  0
VERTEX
  8
0
  6
CONTINUOUS
 10
6.212360
 20
1.164240
  0
SEQEND
  8
0
  0
SOLID
  8
0
 62
    15
 10
6.231280
 20
1.195480
 11
6.239200
 21
1.928960
 12
6.461840
 22
1.195480
 13
6.469760
 23
1.928960
  0
POLYLINE
  8
0
  6
CONTINUOUS
 66
     1
 40
0.000000
 41
0.000000
  0
VERTEX
  8
0
  6
CONTINUOUS
 10
6.231280
 20
1.195480
  0
VERTEX
  8
0
  6
CONTINUOUS
 10
6.239200
 20
1.928960
  0
VERTEX
  8
0
  6
CONTINUOUS
 10
6.469760
 20
1.928960
  0
VERTEX
  8
0
  6
CONTINUOUS
 10
6.461840
 20
1.195480
  0
VERTEX
  8
0
  6
CONTINUOUS
 10
6.231280
 20
1.195480
  0
SEQEND
  8
0
  0
SOLID
  8
0
 62
    15
 10
6.461840
 20
1.195480
 11
6.469760
 21
1.928960
 12
6.463160
 22
1.196800
 13
6.471080
 23
1.930280
  0
POLYLINE
  8
0
  6
CONTINUOUS
 66
     1
 40
0.000000
 41
0.000000
  0
VERTEX
  8
0
  6
CONTINUOUS
 10
6.461840
 20
1.195480
  0
VERTEX
  8
0
  6
CONTINUOUS
 10
6.469760
 20
1.928960
  0
VERTEX
  8
0
  6
CONTINUOUS
 10
6.471080
 20
1.930280
  0
VERTEX
  8
0
  6
CONTINUOUS
 10
6.463160
 20
1.196800
  0
VERTEX
  8
0
  6
CONTINUOUS
 10
6.461840
 20
1.195480
  0
SEQEND
  8
0
  0
SOLID
  8
0
 62
    15
 10
6.463160
 20
1.196800
 11
6.471080
 21
1.930280
 12
6.467560
 22
1.239040
 13
6.475480
 23
1.972520
  0
POLYLINE
  8
0
  6
CONTINUOUS
 66
     1
 40
0.000000
 41
0.000000
  0
VERTEX
  8
0
  6
CONTINUOUS
 10
6.463160
 20
1.196800
  0
VERTEX
  8
0
  6
CONTINUOUS
 10
6.471080
 20
1.930280
  0
VERTEX
  8
0
  6
CONTINUOUS
 10
6.475480
 20
1.972520
  0
VERTEX
  8
0
  6
CONTINUOUS
 10
6.467560
 20
1.239040
  0
VERTEX
  8
0
  6
CONTINUOUS
 10
6.463160
 20
1.196800
  0
SEQEND
  8
0
  0
SOLID
  8
0
 62
    15
 10
6.467560
 20
1.239040
 11
6.475480
 21
1.972520
 12
6.480320
 22
1.277760
 13
6.488240
 23
2.011240
  0
POLYLINE
  8
0
  6
CONTINUOUS
 66
     1
 40
0.000000
 41
0.000000
  0
VERTEX
  8
0
  6
CONTINUOUS
 10
6.467560
 20
1.239040
  0
VERTEX
  8
0
  6
CONTINUOUS
 10
6.475480
 20
1.972520
  0
VERTEX
  8
0
  6
CONTINUOUS
 10
6.488240
 20
2.011240
  0
VERTEX
  8
0
  6
CONTINUOUS
 10
6.480320
 20
1.277760
  0
VERTEX
  8
0
  6
CONTINUOUS
 10
6.467560
 20
1.239040
  0
SEQEND
  8
0
  0
SOLID
  8
0
 62
    15
 10
6.480320
 20
1.277760
 11
6.488240
 21
2.011240
 12
6.500120
 22
1.312520
 13
6.508040
 23
2.046000
  0
POLYLINE
  8
0
  6
CONTINUOUS
 66
     1
 40
0.000000
 41
0.000000
  0
VERTEX
  8
0
  6
CONTINUOUS
 10
6.480320
 20
1.277760
  0
VERTEX
  8
0
  6
CONTINUOUS
 10
6.488240
 20
2.011240
  0
VERTEX
  8
0
  6
CONTINUOUS
 10
6.508040
 20
2.046000
  0
VERTEX
  8
0
  6
CONTINUOUS
 10
6.500120
 20
1.312520
  0
VERTEX
  8
0
  6
CONTINUOUS
 10
6.480320
 20
1.277760
  0
SEQEND
  8
0
  0
SOLID
  8
0
 62
    15
 10
6.500120
 20
1.312520
 11
6.508040
 21
2.046000
 12
6.526080
 22
1.342880
 13
6.534000
 23
2.076360
  0
POLYLINE
  8
0
  6
CONTINUOUS
 66
     1
 40
0.000000
 41
0.000000
  0
VERTEX
  8
0
  6
CONTINUOUS
 10
6.500120
 20
1.312520
  0
VERTEX
  8
0
  6
CONTINUOUS
 10
6.508040
 20
2.046000
  0
VERTEX
  8
0
  6
CONTINUOUS
 10
6.534000
 20
2.076360
  0
VERTEX
  8
0
  6
CONTINUOUS
 10
6.526080
 20
1.342880
  0
VERTEX
  8
0
  6
CONTINUOUS
 10
6.500120
 20
1.312520
  0
SEQEND
  8
0
  0
SOLID
  8
0
 62
    15
 10
6.526080
 20
1.342880
 11
6.534000
 21
2.076360
 12
6.557760
 22
1.367520
 13
6.565680
 23
2.101000
  0
POLYLINE
  8
0
  6
CONTINUOUS
 66
     1
 40
0.000000
 41
0.000000
  0
VERTEX
  8
0
  6
CONTINUOUS
 10
6.526080
 20
1.342880
  0
VERTEX
  8
0
  6
CONTINUOUS
 10
6.534000
 20
2.076360
  0
VERTEX
  8
0
  6
CONTINUOUS
 10
6.565680
 20
2.101000
  0
VERTEX
  8
0
  6
CONTINUOUS
 10
6.557760
 20
1.367520
  0
VERTEX
  8
0
  6
CONTINUOUS
 10
6.526080
 20
1.342880
  0
SEQEND
  8
0
  0
SOLID
  8
0
 62
    15
 10
6.557760
 20
1.367520
 11
6.565680
 21
2.101000
 12
6.594280
 22
1.386440
 13
6.602200
 23
2.119920
  0
POLYLINE
  8
0
  6
CONTINUOUS
 66
     1
 40
0.000000
 41
0.000000
  0
VERTEX
  8
0
  6
CONTINUOUS
 10
6.557760
 20
1.367520
  0
VERTEX
  8
0
  6
CONTINUOUS
 10
6.565680
 20
2.101000
  0
VERTEX
  8
0
  6
CONTINUOUS
 10
6.602200
 20
2.119920
  0
VERTEX
  8
0
  6
CONTINUOUS
 10
6.594280
 20
1.386440
  0
VERTEX
  8
0
  6
CONTINUOUS
 10
6.557760
 20
1.367520
  0
SEQEND
  8
0
  0
SOLID
  8
0
 62
    15
 10
6.594280
 20
1.386440
 11
6.602200
 21
2.119920
 12
6.633880
 22
1.397880
 13
6.641800
 23
2.131360
  0
POLYLINE
  8
0
  6
CONTINUOUS
 66
     1
 40
0.000000
 41
0.000000
  0
VERTEX
  8
0
  6
CONTINUOUS
 10
6.594280
 20
1.386440
  0
VERTEX
  8
0
  6
CONTINUOUS
 10
6.602200
 20
2.119920
  0
VERTEX
  8
0
  6
CONTINUOUS
 10
6.641800
 20
2.131360
  0
VERTEX
  8
0
  6
CONTINUOUS
 10
6.633880
 20
1.397880
  0
VERTEX
  8
0
  6
CONTINUOUS
 10
6.594280
 20
1.386440
  0
SEQEND
  8
0
  0
SOLID
  8
0
 62
    15
 10
6.633880
 20
1.397880
 11
6.641800
 21
2.131360
 12
6.676560
 22
1.401840
 13
6.684480
 23
2.135760
  0
POLYLINE
  8
0
  6
CONTINUOUS
 66
     1
 40
0.000000
 41
0.000000
  0
VERTEX
  8
0
  6
CONTINUOUS
 10
6.633880
 20
1.397880
  0
VERTEX
  8
0
  6
CONTINUOUS
 10
6.641800
 20
2.131360
  0
VERTEX
  8
0
  6
CONTINUOUS
 10
6.684480
 20
2.135760
  0
VERTEX
  8
0
  6
CONTINUOUS
 10
6.676560
 20
1.401840
  0
VERTEX
  8
0
  6
CONTINUOUS
 10
6.633880
 20
1.397880
  0
SEQEND
  8
0
  0
SOLID
  8
0
 62
    15
 10
6.676560
 20
1.401840
 11
6.684480
 21
2.135760
 12
6.718800
 22
1.397880
 13
6.726720
 23
2.131360
  0
POLYLINE
  8
0
  6
CONTINUOUS
 66
     1
 40
0.000000
 41
0.000000
  0
VERTEX
  8
0
  6
CONTINUOUS
 10
6.676560
 20
1.401840
  0
VERTEX
  8
0
  6
CONTINUOUS
 10
6.684480
 20
2.135760
  0
VERTEX
  8
0
  6
CONTINUOUS
 10
6.726720
 20
2.131360
  0
VERTEX
  8
0
  6
CONTINUOUS
 10
6.718800
 20
1.397880
  0
VERTEX
  8
0
  6
CONTINUOUS
 10
6.676560
 20
1.401840
  0
SEQEND
  8
0
  0
SOLID
  8
0
 62
    15
 10
6.718800
 20
1.397880
 11
6.726720
 21
2.131360
 12
6.758400
 22
1.386000
 13
6.766320
 23
2.119480
  0
POLYLINE
  8
0
  6
CONTINUOUS
 66
     1
 40
0.000000
 41
0.000000
  0
VERTEX
  8
0
  6
CONTINUOUS
 10
6.718800
 20
1.397880
  0
VERTEX
  8
0
  6
CONTINUOUS
 10
6.726720
 20
2.131360
  0
VERTEX
  8
0
  6
CONTINUOUS
 10
6.766320
 20
2.119480
  0
VERTEX
  8
0
  6
CONTINUOUS
 10
6.758400
 20
1.386000
  0
VERTEX
  8
0
  6
CONTINUOUS
 10
6.718800
 20
1.397880
  0
SEQEND
  8
0
  0
SOLID
  8
0
 62
    15
 10
6.758400
 20
1.386000
 11
6.766320
 21
2.119480
 12
6.794480
 22
1.367080
 13
6.802400
 23
2.101000
  0
POLYLINE
  8
0
  6
CONTINUOUS
 66
     1
 40
0.000000
 41
0.000000
  0
VERTEX
  8
0
  6
CONTINUOUS
 10
6.758400
 20
1.386000
  0
VERTEX
  8
0
  6
CONTINUOUS
 10
6.766320
 20
2.119480
  0
VERTEX
  8
0
  6
CONTINUOUS
 10
6.802400
 20
2.101000
  0
VERTEX
  8
0
  6
CONTINUOUS
 10
6.794480
 20
1.367080
  0
VERTEX
  8
0
  6
CONTINUOUS
 10
6.758400
 20
1.386000
  0
SEQEND
  8
0
  0
SOLID
  8
0
 62
    15
 10
6.794480
 20
1.367080
 11
6.802400
 21
2.101000
 12
6.825720
 22
1.342440
 13
6.833640
 23
2.075920
  0
POLYLINE
  8
0
  6
CONTINUOUS
 66
     1
 40
0.000000
 41
0.000000
  0
VERTEX
  8
0
  6
CONTINUOUS
 10
6.794480
 20
1.367080
  0
VERTEX
  8
0
  6
CONTINUOUS
 10
6.802400
 20
2.101000
  0
VERTEX
  8
0
  6
CONTINUOUS
 10
6.833640
 20
2.075920
  0
VERTEX
  8
0
  6
CONTINUOUS
 10
6.825720
 20
1.342440
  0
VERTEX
  8
0
  6
CONTINUOUS
 10
6.794480
 20
1.367080
  0
SEQEND
  8
0
  0
SOLID
  8
0
 62
    15
 10
6.825720
 20
1.342440
 11
6.833640
 21
2.075920
 12
6.851680
 22
1.311640
 13
6.859600
 23
2.045120
  0
POLYLINE
  8
0
  6
CONTINUOUS
 66
     1
 40
0.000000
 41
0.000000
  0
VERTEX
  8
0
  6
CONTINUOUS
 10
6.825720
 20
1.342440
  0
VERTEX
  8
0
  6
CONTINUOUS
 10
6.833640
 20
2.075920
  0
VERTEX
  8
0
  6
CONTINUOUS
 10
6.859600
 20
2.045120
  0
VERTEX
  8
0
  6
CONTINUOUS
 10
6.851680
 20
1.311640
  0
VERTEX
  8
0
  6
CONTINUOUS
 10
6.825720
 20
1.342440
  0
SEQEND
  8
0
  0
SOLID
  8
0
 62
    15
 10
6.851680
 20
1.311640
 11
6.859600
 21
2.045120
 12
6.871480
 22
1.276440
 13
6.879400
 23
2.010360
  0
POLYLINE
  8
0
  6
CONTINUOUS
 66
     1
 40
0.000000
 41
0.000000
  0
VERTEX
  8
0
  6
CONTINUOUS
 10
6.851680
 20
1.311640
  0
VERTEX
  8
0
  6
CONTINUOUS
 10
6.859600
 20
2.045120
  0
VERTEX
  8
0
  6
CONTINUOUS
 10
6.879400
 20
2.010360
  0
VERTEX
  8
0
  6
CONTINUOUS
 10
6.871480
 20
1.276440
  0
VERTEX
  8
0
  6
CONTINUOUS
 10
6.851680
 20
1.311640
  0
SEQEND
  8
0
  0
SOLID
  8
0
 62
    15
 10
6.888640
 20
1.195480
 11
6.896120
 21
1.928960
 12
7.127120
 22
1.195480
 13
7.135040
 23
1.928960
  0
POLYLINE
  8
0
  6
CONTINUOUS
 66
     1
 40
0.000000
 41
0.000000
  0
VERTEX
  8
0
  6
CONTINUOUS
 10
6.888640
 20
1.195480
  0
VERTEX
  8
0
  6
CONTINUOUS
 10
6.896120
 20
1.928960
  0
VERTEX
  8
0
  6
CONTINUOUS
 10
7.135040
 20
1.928960
  0
VERTEX
  8
0
  6
CONTINUOUS
 10
7.127120
 20
1.195480
  0
VERTEX
  8
0
  6
CONTINUOUS
 10
6.888640
 20
1.195480
  0
SEQEND
  8
0
  0
SOLID
  8
0
 62
    15
 10
6.883800
 20
1.237720
 11
6.891720
 21
1.971200
 12
6.888640
 22
1.195480
 13
6.896120
 23
1.928960
  0
POLYLINE
  8
0
  6
CONTINUOUS
 66
     1
 40
0.000000
 41
0.000000
  0
VERTEX
  8
0
  6
CONTINUOUS
 10
6.883800
 20
1.237720
  0
VERTEX
  8
0
  6
CONTINUOUS
 10
6.891720
 20
1.971200
  0
VERTEX
  8
0
  6
CONTINUOUS
 10
6.896120
 20
1.928960
  0
VERTEX
  8
0
  6
CONTINUOUS
 10
6.888640
 20
1.195480
  0
VERTEX
  8
0
  6
CONTINUOUS
 10
6.883800
 20
1.237720
  0
SEQEND
  8
0
  0
SOLID
  8
0
 62
    15
 10
6.871480
 20
1.276440
 11
6.879400
 21
2.010360
 12
6.883800
 22
1.237720
 13
6.891720
 23
1.971200
  0
POLYLINE
  8
0
  6
CONTINUOUS
 66
     1
 40
0.000000
 41
0.000000
  0
VERTEX
  8
0
  6
CONTINUOUS
 10
6.871480
 20
1.276440
  0
VERTEX
  8
0
  6
CONTINUOUS
 10
6.879400
 20
2.010360
  0
VERTEX
  8
0
  6
CONTINUOUS
 10
6.891720
 20
1.971200
  0
VERTEX
  8
0
  6
CONTINUOUS
 10
6.883800
 20
1.237720
  0
VERTEX
  8
0
  6
CONTINUOUS
 10
6.871480
 20
1.276440
  0
SEQEND
  8
0
  0
SOLID
  8
0
 62
    15
 10
7.139440
 20
1.153680
 11
7.147360
 21
1.887160
 12
7.157480
 22
1.115400
 13
7.165400
 23
1.848880
  0
POLYLINE
  8
0
  6
CONTINUOUS
 66
     1
 40
0.000000
 41
0.000000
  0
VERTEX
  8
0
  6
CONTINUOUS
 10
7.139440
 20
1.153680
  0
VERTEX
  8
0
  6
CONTINUOUS
 10
7.147360
 20
1.887160
  0
VERTEX
  8
0
  6
CONTINUOUS
 10
7.165400
 20
1.848880
  0
VERTEX
  8
0
  6
CONTINUOUS
 10
7.157480
 20
1.115400
  0
VERTEX
  8
0
  6
CONTINUOUS
 10
7.139440
 20
1.153680
  0
SEQEND
  8
0
  0
SOLID
  8
0
 62
    15
 10
7.128440
 20
1.194160
 11
7.136360
 21
1.927640
 12
7.139440
 22
1.153680
 13
7.147360
 23
1.887160
  0
POLYLINE
  8
0
  6
CONTINUOUS
 66
     1
 40
0.000000
 41
0.000000
  0
VERTEX
  8
0
  6
CONTINUOUS
 10
7.128440
 20
1.194160
  0
VERTEX
  8
0
  6
CONTINUOUS
 10
7.136360
 20
1.927640
  0
VERTEX
  8
0
  6
CONTINUOUS
 10
7.147360
 20
1.887160
  0
VERTEX
  8
0
  6
CONTINUOUS
 10
7.139440
 20
1.153680
  0
VERTEX
  8
0
  6
CONTINUOUS
 10
7.128440
 20
1.194160
  0
SEQEND
  8
0
  0
SOLID
  8
0
 62
    15
 10
7.127120
 20
1.195480
 11
7.135040
 21
1.928960
 12
7.128440
 22
1.194160
 13
7.136360
 23
1.927640
  0
POLYLINE
  8
0
  6
CONTINUOUS
 66
     1
 40
0.000000
 41
0.000000
  0
VERTEX
  8
0
  6
CONTINUOUS
 10
7.127120
 20
1.195480
  0
VERTEX
  8
0
  6
CONTINUOUS
 10
7.135040
 20
1.928960
  0
VERTEX
  8
0
  6
CONTINUOUS
 10
7.136360
 20
1.927640
  0
VERTEX
  8
0
  6
CONTINUOUS
 10
7.128440
 20
1.194160
  0
VERTEX
  8
0
  6
CONTINUOUS
 10
7.127120
 20
1.195480
  0
SEQEND
  8
0
  0
SOLID
  8
0
 62
    15
 10
7.157480
 20
1.115400
 11
7.165400
 21
1.848880
 12
7.183440
 22
1.079760
 13
7.191360
 23
1.813240
  0
POLYLINE
  8
0
  6
CONTINUOUS
 66
     1
 40
0.000000
 41
0.000000
  0
VERTEX
  8
0
  6
CONTINUOUS
 10
7.157480
 20
1.115400
  0
VERTEX
  8
0
  6
CONTINUOUS
 10
7.165400
 20
1.848880
  0
VERTEX
  8
0
  6
CONTINUOUS
 10
7.191360
 20
1.813240
  0
VERTEX
  8
0
  6
CONTINUOUS
 10
7.183440
 20
1.079760
  0
VERTEX
  8
0
  6
CONTINUOUS
 10
7.157480
 20
1.115400
  0
SEQEND
  8
0
  0
SOLID
  8
0
 62
    15
 10
7.183440
 20
1.079760
 11
7.191360
 21
1.813240
 12
7.219960
 22
1.048080
 13
7.227880
 23
1.781560
  0
POLYLINE
  8
0
  6
CONTINUOUS
 66
     1
 40
0.000000
 41
0.000000
  0
VERTEX
  8
0
  6
CONTINUOUS
 10
7.183440
 20
1.079760
  0
VERTEX
  8
0
  6
CONTINUOUS
 10
7.191360
 20
1.813240
  0
VERTEX
  8
0
  6
CONTINUOUS
 10
7.227880
 20
1.781560
  0
VERTEX
  8
0
  6
CONTINUOUS
 10
7.219960
 20
1.048080
  0
VERTEX
  8
0
  6
CONTINUOUS
 10
7.183440
 20
1.079760
  0
SEQEND
  8
0
  0
SOLID
  8
0
 62
    15
 10
7.219960
 20
1.048080
 11
7.227880
 21
1.781560
 12
7.267920
 22
1.021680
 13
7.275840
 23
1.755160
  0
POLYLINE
  8
0
  6
CONTINUOUS
 66
     1
 40
0.000000
 41
0.000000
  0
VERTEX
  8
0
  6
CONTINUOUS
 10
7.219960
 20
1.048080
  0
VERTEX
  8
0
  6
CONTINUOUS
 10
7.227880
 20
1.781560
  0
VERTEX
  8
0
  6
CONTINUOUS
 10
7.275840
 20
1.755160
  0
VERTEX
  8
0
  6
CONTINUOUS
 10
7.267920
 20
1.021680
  0
VERTEX
  8
0
  6
CONTINUOUS
 10
7.219960
 20
1.048080
  0
SEQEND
  8
0
  0
SOLID
  8
0
 62
    15
 10
7.267920
 20
1.021680
 11
7.275840
 21
1.755160
 12
7.296960
 22
1.010680
 13
7.304880
 23
1.744160
  0
POLYLINE
  8
0
  6
CONTINUOUS
 66
     1
 40
0.000000
 41
0.000000
  0
VERTEX
  8
0
  6
CONTINUOUS
 10
7.267920
 20
1.021680
  0
VERTEX
  8
0
  6
CONTINUOUS
 10
7.275840
 20
1.755160
  0
VERTEX
  8
0
  6
CONTINUOUS
 10
7.304880
 20
1.744160
  0
VERTEX
  8
0
  6
CONTINUOUS
 10
7.296960
 20
1.010680
  0
VERTEX
  8
0
  6
CONTINUOUS
 10
7.267920
 20
1.021680
  0
SEQEND
  8
0
  0
SOLID
  8
0
 62
    15
 10
7.296960
 20
1.010680
 11
7.304880
 21
1.744160
 12
7.329520
 22
1.001000
 13
7.337440
 23
1.734480
  0
POLYLINE
  8
0
  6
CONTINUOUS
 66
     1
 40
0.000000
 41
0.000000
  0
VERTEX
  8
0
  6
CONTINUOUS
 10
7.296960
 20
1.010680
  0
VERTEX
  8
0
  6
CONTINUOUS
 10
7.304880
 20
1.744160
  0
VERTEX
  8
0
  6
CONTINUOUS
 10
7.337440
 20
1.734480
  0
VERTEX
  8
0
  6
CONTINUOUS
 10
7.329520
 20
1.001000
  0
VERTEX
  8
0
  6
CONTINUOUS
 10
7.296960
 20
1.010680
  0
SEQEND
  8
0
  0
SOLID
  8
0
 62
    15
 10
7.329520
 20
1.001000
 11
7.337440
 21
1.734480
 12
7.366040
 22
0.993520
 13
7.373960
 23
1.727000
  0
POLYLINE
  8
0
  6
CONTINUOUS
 66
     1
 40
0.000000
 41
0.000000
  0
VERTEX
  8
0
  6
CONTINUOUS
 10
7.329520
 20
1.001000
  0
VERTEX
  8
0
  6
CONTINUOUS
 10
7.337440
 20
1.734480
  0
VERTEX
  8
0
  6
CONTINUOUS
 10
7.373960
 20
1.727000
  0
VERTEX
  8
0
  6
CONTINUOUS
 10
7.366040
 20
0.993520
  0
VERTEX
  8
0
  6
CONTINUOUS
 10
7.329520
 20
1.001000
  0
SEQEND
  8
0
  0
SOLID
  8
0
 62
    15
 10
7.366040
 20
0.993520
 11
7.373960
 21
1.727000
 12
7.406520
 22
0.987360
 13
7.414440
 23
1.720840
  0
POLYLINE
  8
0
  6
CONTINUOUS
 66
     1
 40
0.000000
 41
0.000000
  0
VERTEX
  8
0
  6
CONTINUOUS
 10
7.366040
 20
0.993520
  0
VERTEX
  8
0
  6
CONTINUOUS
 10
7.373960
 20
1.727000
  0
VERTEX
  8
0
  6
CONTINUOUS
 10
7.414440
 20
1.720840
  0
VERTEX
  8
0
  6
CONTINUOUS
 10
7.406520
 20
0.987360
  0
VERTEX
  8
0
  6
CONTINUOUS
 10
7.366040
 20
0.993520
  0
SEQEND
  8
0
  0
SOLID
  8
0
 62
    15
 10
7.406520
 20
0.987360
 11
7.414440
 21
1.720840
 12
7.451400
 22
0.983840
 13
7.458880
 23
1.717320
  0
POLYLINE
  8
0
  6
CONTINUOUS
 66
     1
 40
0.000000
 41
0.000000
  0
VERTEX
  8
0
  6
CONTINUOUS
 10
7.406520
 20
0.987360
  0
VERTEX
  8
0
  6
CONTINUOUS
 10
7.414440
 20
1.720840
  0
VERTEX
  8
0
  6
CONTINUOUS
 10
7.458880
 20
1.717320
  0
VERTEX
  8
0
  6
CONTINUOUS
 10
7.451400
 20
0.983840
  0
VERTEX
  8
0
  6
CONTINUOUS
 10
7.406520
 20
0.987360
  0
SEQEND
  8
0
  0
SOLID
  8
0
 62
    15
 10
7.458880
 20
0.809160
 11
7.466800
 21
1.543080
 12
7.500680
 22
0.810040
 13
7.508600
 23
1.543520
  0
POLYLINE
  8
0
  6
CONTINUOUS
 66
     1
 40
0.000000
 41
0.000000
  0
VERTEX
  8
0
  6
CONTINUOUS
 10
7.458880
 20
0.809160
  0
VERTEX
  8
0
  6
CONTINUOUS
 10
7.466800
 20
1.543080
  0
VERTEX
  8
0
  6
CONTINUOUS
 10
7.508600
 20
1.543520
  0
VERTEX
  8
0
  6
CONTINUOUS
 10
7.500680
 20
0.810040
  0
VERTEX
  8
0
  6
CONTINUOUS
 10
7.458880
 20
0.809160
  0
SEQEND
  8
0
  0
SOLID
  8
0
 62
    15
 10
7.504200
 20
0.981640
 11
7.512120
 21
1.715120
 12
7.504200
 22
0.809160
 13
7.512120
 23
1.543080
  0
POLYLINE
  8
0
  6
CONTINUOUS
 66
     1
 40
0.000000
 41
0.000000
  0
VERTEX
  8
0
  6
CONTINUOUS
 10
7.504200
 20
0.981640
  0
VERTEX
  8
0
  6
CONTINUOUS
 10
7.512120
 20
1.715120
  0
VERTEX
  8
0
  6
CONTINUOUS
 10
7.512120
 20
1.543080
  0
VERTEX
  8
0
  6
CONTINUOUS
 10
7.504200
 20
0.809160
  0
VERTEX
  8
0
  6
CONTINUOUS
 10
7.504200
 20
0.981640
  0
SEQEND
  8
0
  0
SOLID
  8
0
 62
    15
 10
7.500240
 20
0.982080
 11
7.508160
 21
1.715560
 12
7.504200
 22
0.981640
 13
7.512120
 23
1.715120
  0
POLYLINE
  8
0
  6
CONTINUOUS
 66
     1
 40
0.000000
 41
0.000000
  0
VERTEX
  8
0
  6
CONTINUOUS
 10
7.500240
 20
0.982080
  0
VERTEX
  8
0
  6
CONTINUOUS
 10
7.508160
 20
1.715560
  0
VERTEX
  8
0
  6
CONTINUOUS
 10
7.512120
 20
1.715120
  0
VERTEX
  8
0
  6
CONTINUOUS
 10
7.504200
 20
0.981640
  0
VERTEX
  8
0
  6
CONTINUOUS
 10
7.500240
 20
0.982080
  0
SEQEND
  8
0
  0
SOLID
  8
0
 62
    15
 10
7.451400
 20
0.983840
 11
7.458880
 21
1.717320
 12
7.500240
 22
0.982080
 13
7.508160
 23
1.715560
  0
POLYLINE
  8
0
  6
CONTINUOUS
 66
     1
 40
0.000000
 41
0.000000
  0
VERTEX
  8
0
  6
CONTINUOUS
 10
7.451400
 20
0.983840
  0
VERTEX
  8
0
  6
CONTINUOUS
 10
7.458880
 20
1.717320
  0
VERTEX
  8
0
  6
CONTINUOUS
 10
7.508160
 20
1.715560
  0
VERTEX
  8
0
  6
CONTINUOUS
 10
7.500240
 20
0.982080
  0
VERTEX
  8
0
  6
CONTINUOUS
 10
7.451400
 20
0.983840
  0
SEQEND
  8
0
  0
POLYLINE
  8
0
  6
CONTINUOUS
 66
     1
 40
0.000000
 41
0.000000
  0
VERTEX
  8
0
  6
CONTINUOUS
 10
7.500680
 20
0.810040
  0
VERTEX
  8
0
  6
CONTINUOUS
 10
6.628600
 20
0.810040
  0
VERTEX
  8
0
  6
CONTINUOUS
 10
6.624640
 20
0.811360
  0
VERTEX
  8
0
  6
CONTINUOUS
 10
6.568320
 20
0.876480
  0
VERTEX
  8
0
  6
CONTINUOUS
 10
4.051080
 20
0.876480
  0
VERTEX
  8
0
  6
CONTINUOUS
 10
4.048440
 20
0.875160
  0
VERTEX
  8
0
  6
CONTINUOUS
 10
3.999160
 20
0.810040
  0
VERTEX
  8
0
  6
CONTINUOUS
 10
3.268320
 20
0.810040
  0
VERTEX
  8
0
  6
CONTINUOUS
 10
3.266560
 20
0.811800
  0
VERTEX
  8
0
  6
CONTINUOUS
 10
3.266560
 20
1.576080
  0
VERTEX
  8
0
  6
CONTINUOUS
 10
3.268320
 20
1.577840
  0
VERTEX
  8
0
  6
CONTINUOUS
 10
4.219160
 20
1.577840
  0
VERTEX
  8
0
  6
CONTINUOUS
 10
4.224440
 20
1.553640
  0
VERTEX
  8
0
  6
CONTINUOUS
 10
4.235000
 20
1.526800
  0
VERTEX
  8
0
  6
CONTINUOUS
 10
4.250400
 20
1.498200
  0
VERTEX
  8
0
  6
CONTINUOUS
 10
4.270640
 20
1.469600
  0
VERTEX
  8
0
  6
CONTINUOUS
 10
4.295720
 20
1.442320
  0
VERTEX
  8
0
  6
CONTINUOUS
 10
4.326080
 20
1.418560
  0
VERTEX
  8
0
  6
CONTINUOUS
 10
4.361280
 20
1.399640
  0
VERTEX
  8
0
  6
CONTINUOUS
 10
4.404400
 20
1.387320
  0
VERTEX
  8
0
  6
CONTINUOUS
 10
4.411880
 20
1.415920
  0
VERTEX
  8
0
  6
CONTINUOUS
 10
4.422880
 20
1.441440
  0
VERTEX
  8
0
  6
CONTINUOUS
 10
4.452800
 20
1.485880
  0
VERTEX
  8
0
  6
CONTINUOUS
 10
4.492840
 20
1.520640
  0
VERTEX
  8
0
  6
CONTINUOUS
 10
4.541240
 20
1.546600
  0
VERTEX
  8
0
  6
CONTINUOUS
 10
4.596680
 20
1.563760
  0
VERTEX
  8
0
  6
CONTINUOUS
 10
4.657400
 20
1.573000
  0
VERTEX
  8
0
  6
CONTINUOUS
 10
4.721640
 20
1.574760
  0
VERTEX
  8
0
  6
CONTINUOUS
 10
4.788080
 20
1.568600
  0
VERTEX
  8
0
  6
CONTINUOUS
 10
4.855400
 20
1.555840
  0
VERTEX
  8
0
  6
CONTINUOUS
 10
4.921400
 20
1.536920
  0
VERTEX
  8
0
  6
CONTINUOUS
 10
4.984760
 20
1.511400
  0
VERTEX
  8
0
  6
CONTINUOUS
 10
5.044160
 20
1.480600
  0
VERTEX
  8
0
  6
CONTINUOUS
 10
5.097400
 20
1.444960
  0
VERTEX
  8
0
  6
CONTINUOUS
 10
5.143600
 20
1.404040
  0
VERTEX
  8
0
  6
CONTINUOUS
 10
5.180560
 20
1.359160
  0
VERTEX
  8
0
  6
CONTINUOUS
 10
5.206960
 20
1.309880
  0
VERTEX
  8
0
  6
CONTINUOUS
 10
5.206960
 20
1.303280
  0
VERTEX
  8
0
  6
CONTINUOUS
 10
5.480640
 20
1.303280
  0
VERTEX
  8
0
  6
CONTINUOUS
 10
5.485480
 20
1.280840
  0
VERTEX
  8
0
  6
CONTINUOUS
 10
5.494280
 20
1.259720
  0
VERTEX
  8
0
  6
CONTINUOUS
 10
5.520240
 20
1.221000
  0
VERTEX
  8
0
  6
CONTINUOUS
 10
5.557640
 20
1.186680
  0
VERTEX
  8
0
  6
CONTINUOUS
 10
5.603840
 20
1.157640
  0
VERTEX
  8
0
  6
CONTINUOUS
 10
5.657520
 20
1.133440
  0
VERTEX
  8
0
  6
CONTINUOUS
 10
5.716480
 20
1.114080
  0
VERTEX
  8
0
  6
CONTINUOUS
 10
5.779840
 20
1.099560
  0
VERTEX
  8
0
  6
CONTINUOUS
 10
5.844960
 20
1.089880
  0
VERTEX
  8
0
  6
CONTINUOUS
 10
5.910080
 20
1.085480
  0
VERTEX
  8
0
  6
CONTINUOUS
 10
5.974320
 20
1.085920
  0
VERTEX
  8
0
  6
CONTINUOUS
 10
6.035480
 20
1.091200
  0
VERTEX
  8
0
  6
CONTINUOUS
 10
6.091360
 20
1.101760
  0
VERTEX
  8
0
  6
CONTINUOUS
 10
6.140640
 20
1.117600
  0
VERTEX
  8
0
  6
CONTINUOUS
 10
6.181560
 20
1.138280
  0
VERTEX
  8
0
  6
CONTINUOUS
 10
6.212360
 20
1.164240
  0
VERTEX
  8
0
  6
CONTINUOUS
 10
6.231280
 20
1.195480
  0
VERTEX
  8
0
  6
CONTINUOUS
 10
6.461840
 20
1.195480
  0
VERTEX
  8
0
  6
CONTINUOUS
 10
6.463160
 20
1.196800
  0
VERTEX
  8
0
  6
CONTINUOUS
 10
6.467560
 20
1.239040
  0
VERTEX
  8
0
  6
CONTINUOUS
 10
6.480320
 20
1.277760
  0
VERTEX
  8
0
  6
CONTINUOUS
 10
6.500120
 20
1.312520
  0
VERTEX
  8
0
  6
CONTINUOUS
 10
6.526080
 20
1.342880
  0
VERTEX
  8
0
  6
CONTINUOUS
 10
6.557760
 20
1.367520
  0
VERTEX
  8
0
  6
CONTINUOUS
 10
6.594280
 20
1.386440
  0
VERTEX
  8
0
  6
CONTINUOUS
 10
6.633880
 20
1.397880
  0
VERTEX
  8
0
  6
CONTINUOUS
 10
6.676560
 20
1.401840
  0
VERTEX
  8
0
  6
CONTINUOUS
 10
6.718800
 20
1.397880
  0
VERTEX
  8
0
  6
CONTINUOUS
 10
6.758400
 20
1.386000
  0
VERTEX
  8
0
  6
CONTINUOUS
 10
6.794480
 20
1.367080
  0
VERTEX
  8
0
  6
CONTINUOUS
 10
6.825720
 20
1.342440
  0
VERTEX
  8
0
  6
CONTINUOUS
 10
6.851680
 20
1.311640
  0
VERTEX
  8
0
  6
CONTINUOUS
 10
6.871480
 20
1.276440
  0
VERTEX
  8
0
  6
CONTINUOUS
 10
6.883800
 20
1.237720
  0
VERTEX
  8
0
  6
CONTINUOUS
 10
6.888640
 20
1.195480
  0
VERTEX
  8
0
  6
CONTINUOUS
 10
7.127120
 20
1.195480
  0
VERTEX
  8
0
  6
CONTINUOUS
 10
7.128440
 20
1.194160
  0
VERTEX
  8
0
  6
CONTINUOUS
 10
7.139440
 20
1.153680
  0
VERTEX
  8
0
  6
CONTINUOUS
 10
7.157480
 20
1.115400
  0
VERTEX
  8
0
  6
CONTINUOUS
 10
7.183440
 20
1.079760
  0
VERTEX
  8
0
  6
CONTINUOUS
 10
7.219960
 20
1.048080
  0
VERTEX
  8
0
  6
CONTINUOUS
 10
7.267920
 20
1.021680
  0
VERTEX
  8
0
  6
CONTINUOUS
 10
7.296960
 20
1.010680
  0
VERTEX
  8
0
  6
CONTINUOUS
 10
7.329520
 20
1.001000
  0
VERTEX
  8
0
  6
CONTINUOUS
 10
7.366040
 20
0.993520
  0
VERTEX
  8
0
  6
CONTINUOUS
 10
7.406520
 20
0.987360
  0
VERTEX
  8
0
  6
CONTINUOUS
 10
7.451400
 20
0.983840
  0
VERTEX
  8
0
  6
CONTINUOUS
 10
7.504200
 20
0.981640
  0
VERTEX
  8
0
  6
CONTINUOUS
 10
7.504200
 20
0.809160
  0
VERTEX
  8
0
  6
CONTINUOUS
 10
7.458880
 20
0.809160
  0
VERTEX
  8
0
  6
CONTINUOUS
 10
7.500680
 20
0.810040
  0
SEQEND
  8
0
  0
TEXT
  8
0
 10
5.093880
 20
0.571120
 40
0.138143
  1
BA  290
 41
1.000000
  7
SN0
 71
     0
 72
     5
 11
5.685403
 21
0.571120
  0
TEXT
  8
0
 10
4.937680
 20
0.379280
 40
0.138143
  1
3/4" x 4-1/4"
 41
1.000000
  7
SN0
 71
     0
 72
     5
 11
5.840417
 21
0.379280
  0
POLYLINE
  8
0
  6
CONTINUOUS
 66
     1
 40
0.014080
 41
0.014080
  0
VERTEX
  8
0
  6
CONTINUOUS
 10
7.471200
 20
2.740320
  0
VERTEX
  8
0
  6
CONTINUOUS
 10
7.516520
 20
2.740320
  0
VERTEX
  8
0
  6
CONTINUOUS
 10
7.516520
 20
2.912800
  0
VERTEX
  8
0
  6
CONTINUOUS
 10
7.440400
 20
2.916320
  0
VERTEX
  8
0
  6
CONTINUOUS
 10
7.378360
 20
2.924240
  0
VERTEX
  8
0
  6
CONTINUOUS
 10
7.325120
 20
2.936560
  0
VERTEX
  8
0
  6
CONTINUOUS
 10
7.280240
 20
2.952400
  0
VERTEX
  8
0
  6
CONTINUOUS
 10
7.242840
 20
2.972200
  0
VERTEX
  8
0
  6
CONTINUOUS
 10
7.212480
 20
2.994200
  0
VERTEX
  8
0
  6
CONTINUOUS
 10
7.188280
 20
3.019280
  0
VERTEX
  8
0
  6
CONTINUOUS
 10
7.169800
 20
3.046120
  0
VERTEX
  8
0
  6
CONTINUOUS
 10
7.159680
 20
3.065040
  0
VERTEX
  8
0
  6
CONTINUOUS
 10
7.151760
 20
3.084400
  0
VERTEX
  8
0
  6
CONTINUOUS
 10
7.140760
 20
3.124880
  0
VERTEX
  8
0
  6
CONTINUOUS
 10
7.139440
 20
3.126200
  0
VERTEX
  8
0
  6
CONTINUOUS
 10
6.900520
 20
3.126200
  0
VERTEX
  8
0
  6
CONTINUOUS
 10
6.899200
 20
3.147760
  0
VERTEX
  8
0
  6
CONTINUOUS
 10
6.896120
 20
3.168440
  0
VERTEX
  8
0
  6
CONTINUOUS
 10
6.890840
 20
3.188240
  0
VERTEX
  8
0
  6
CONTINUOUS
 10
6.883800
 20
3.207600
  0
VERTEX
  8
0
  6
CONTINUOUS
 10
6.864000
 20
3.242800
  0
VERTEX
  8
0
  6
CONTINUOUS
 10
6.838040
 20
3.273160
  0
VERTEX
  8
0
  6
CONTINUOUS
 10
6.806800
 20
3.298240
  0
VERTEX
  8
0
  6
CONTINUOUS
 10
6.770720
 20
3.317160
  0
VERTEX
  8
0
  6
CONTINUOUS
 10
6.731120
 20
3.329040
  0
VERTEX
  8
0
  6
CONTINUOUS
 10
6.710000
 20
3.332120
  0
VERTEX
  8
0
  6
CONTINUOUS
 10
6.688440
 20
3.333000
  0
VERTEX
  8
0
  6
CONTINUOUS
 10
6.666880
 20
3.332120
  0
VERTEX
  8
0
  6
CONTINUOUS
 10
6.646200
 20
3.329040
  0
VERTEX
  8
0
  6
CONTINUOUS
 10
6.625960
 20
3.324200
  0
VERTEX
  8
0
  6
CONTINUOUS
 10
6.587680
 20
3.308800
  0
VERTEX
  8
0
  6
CONTINUOUS
 10
6.570080
 20
3.298680
  0
VERTEX
  8
0
  6
CONTINUOUS
 10
6.538400
 20
3.274040
  0
VERTEX
  8
0
  6
CONTINUOUS
 10
6.512440
 20
3.243680
  0
VERTEX
  8
0
  6
CONTINUOUS
 10
6.501440
 20
3.226960
  0
VERTEX
  8
0
  6
CONTINUOUS
 10
6.485160
 20
3.190000
  0
VERTEX
  8
0
  6
CONTINUOUS
 10
6.479880
 20
3.170200
  0
VERTEX
  8
0
  6
CONTINUOUS
 10
6.476800
 20
3.149520
  0
VERTEX
  8
0
  6
CONTINUOUS
 10
6.475480
 20
3.127960
  0
VERTEX
  8
0
  6
CONTINUOUS
 10
6.474160
 20
3.126200
  0
VERTEX
  8
0
  6
CONTINUOUS
 10
6.243160
 20
3.126200
  0
VERTEX
  8
0
  6
CONTINUOUS
 10
6.230400
 20
3.102440
  0
VERTEX
  8
0
  6
CONTINUOUS
 10
6.210600
 20
3.081320
  0
VERTEX
  8
0
  6
CONTINUOUS
 10
6.184200
 20
3.063280
  0
VERTEX
  8
0
  6
CONTINUOUS
 10
6.152960
 20
3.048320
  0
VERTEX
  8
0
  6
CONTINUOUS
 10
6.103680
 20
3.032480
  0
VERTEX
  8
0
  6
CONTINUOUS
 10
6.047360
 20
3.021920
  0
VERTEX
  8
0
  6
CONTINUOUS
 10
5.986640
 20
3.016640
  0
VERTEX
  8
0
  6
CONTINUOUS
 10
5.922400
 20
3.016200
  0
VERTEX
  8
0
  6
CONTINUOUS
 10
5.856840
 20
3.020600
  0
VERTEX
  8
0
  6
CONTINUOUS
 10
5.791720
 20
3.030280
  0
VERTEX
  8
0
  6
CONTINUOUS
 10
5.728800
 20
3.044800
  0
VERTEX
  8
0
  6
CONTINUOUS
 10
5.669400
 20
3.064160
  0
VERTEX
  8
0
  6
CONTINUOUS
 10
5.615720
 20
3.088800
  0
VERTEX
  8
0
  6
CONTINUOUS
 10
5.580520
 20
3.109920
  0
VERTEX
  8
0
  6
CONTINUOUS
 10
5.549720
 20
3.134120
  0
VERTEX
  8
0
  6
CONTINUOUS
 10
5.524640
 20
3.161400
  0
VERTEX
  8
0
  6
CONTINUOUS
 10
5.506160
 20
3.190880
  0
VERTEX
  8
0
  6
CONTINUOUS
 10
5.497800
 20
3.212000
  0
VERTEX
  8
0
  6
CONTINUOUS
 10
5.492520
 20
3.234440
  0
VERTEX
  8
0
  6
CONTINUOUS
 10
5.484600
 20
3.234440
  0
VERTEX
  8
0
  6
CONTINUOUS
 10
5.487240
 20
3.234440
  0
VERTEX
  8
0
  6
CONTINUOUS
 10
5.219280
 20
3.234440
  0
VERTEX
  8
0
  6
CONTINUOUS
 10
5.219280
 20
3.241040
  0
VERTEX
  8
0
  6
CONTINUOUS
 10
5.200360
 20
3.278000
  0
VERTEX
  8
0
  6
CONTINUOUS
 10
5.175280
 20
3.313200
  0
VERTEX
  8
0
  6
CONTINUOUS
 10
5.155920
 20
3.335200
  0
VERTEX
  8
0
  6
CONTINUOUS
 10
5.133920
 20
3.355880
  0
VERTEX
  8
0
  6
CONTINUOUS
 10
5.109720
 20
3.375680
  0
VERTEX
  8
0
  6
CONTINUOUS
 10
5.056480
 20
3.411760
  0
VERTEX
  8
0
  6
CONTINUOUS
 10
4.997080
 20
3.442560
  0
VERTEX
  8
0
  6
CONTINUOUS
 10
4.933720
 20
3.467640
  0
VERTEX
  8
0
  6
CONTINUOUS
 10
4.900720
 20
3.478200
  0
VERTEX
  8
0
  6
CONTINUOUS
 10
4.867720
 20
3.487000
  0
VERTEX
  8
0
  6
CONTINUOUS
 10
4.800400
 20
3.499760
  0
VERTEX
  8
0
  6
CONTINUOUS
 10
4.766960
 20
3.503720
  0
VERTEX
  8
0
  6
CONTINUOUS
 10
4.701400
 20
3.505920
  0
VERTEX
  8
0
  6
CONTINUOUS
 10
4.669720
 20
3.504160
  0
VERTEX
  8
0
  6
CONTINUOUS
 10
4.638480
 20
3.500640
  0
VERTEX
  8
0
  6
CONTINUOUS
 10
4.594480
 20
3.491400
  0
VERTEX
  8
0
  6
CONTINUOUS
 10
4.553560
 20
3.477760
  0
VERTEX
  8
0
  6
CONTINUOUS
 10
4.516600
 20
3.459280
  0
VERTEX
  8
0
  6
CONTINUOUS
 10
4.484040
 20
3.435520
  0
VERTEX
  8
0
  6
CONTINUOUS
 10
4.465120
 20
3.417040
  0
VERTEX
  8
0
  6
CONTINUOUS
 10
4.448840
 20
3.395920
  0
VERTEX
  8
0
  6
CONTINUOUS
 10
4.435200
 20
3.372600
  0
VERTEX
  8
0
  6
CONTINUOUS
 10
4.424200
 20
3.346640
  0
VERTEX
  8
0
  6
CONTINUOUS
 10
4.416720
 20
3.318480
  0
VERTEX
  8
0
  6
CONTINUOUS
 10
4.393400
 20
3.323760
  0
VERTEX
  8
0
  6
CONTINUOUS
 10
4.373600
 20
3.330800
  0
VERTEX
  8
0
  6
CONTINUOUS
 10
4.355120
 20
3.339600
  0
VERTEX
  8
0
  6
CONTINUOUS
 10
4.322560
 20
3.361160
  0
VERTEX
  8
0
  6
CONTINUOUS
 10
4.294840
 20
3.386680
  0
VERTEX
  8
0
  6
CONTINUOUS
 10
4.282520
 20
3.400320
  0
VERTEX
  8
0
  6
CONTINUOUS
 10
4.262280
 20
3.429360
  0
VERTEX
  8
0
  6
CONTINUOUS
 10
4.247320
 20
3.457520
  0
VERTEX
  8
0
  6
CONTINUOUS
 10
4.236760
 20
3.484360
  0
VERTEX
  8
0
  6
CONTINUOUS
 10
4.231480
 20
3.509000
  0
VERTEX
  8
0
  6
CONTINUOUS
 10
3.280640
 20
3.509000
  0
VERTEX
  8
0
  6
CONTINUOUS
 10
3.278880
 20
3.507240
  0
VERTEX
  8
0
  6
CONTINUOUS
 10
3.278880
 20
2.742960
  0
VERTEX
  8
0
  6
CONTINUOUS
 10
3.280640
 20
2.741200
  0
VERTEX
  8
0
  6
CONTINUOUS
 10
4.011480
 20
2.741200
  0
VERTEX
  8
0
  6
CONTINUOUS
 10
4.060760
 20
2.806320
  0
VERTEX
  8
0
  6
CONTINUOUS
 10
4.063400
 20
2.807640
  0
VERTEX
  8
0
  6
CONTINUOUS
 10
6.580640
 20
2.807640
  0
VERTEX
  8
0
  6
CONTINUOUS
 10
6.636520
 20
2.742520
  0
VERTEX
  8
0
  6
CONTINUOUS
 10
6.640480
 20
2.741200
  0
VERTEX
  8
0
  6
CONTINUOUS
 10
7.512560
 20
2.741200
  0
VERTEX
  8
0
  6
CONTINUOUS
 10
7.471200
 20
2.740320
  0
SEQEND
  8
0
  0
TEXT
  8
0
 10
7.707480
 20
3.804240
 40
0.138143
  1
case
 41
1.000000
  7
SN0
 71
     0
 72
     5
 11
8.058944
 21
3.804240
  0
TEXT
  8
0
 10
7.707480
 20
3.612840
 40
0.138143
  1
290
 41
1.000000
  7
SN0
 71
     0
 72
     5
 11
7.985153
 21
3.612840
  0
ENDSEC
  0
EOF
