  0
SECTION
  2
HEADER
  9
$ACADVER
  1
AC1006
  9
$EXTMIN
 10
2.703800
 20
4.638040
  9
$EXTMAX
 10
5.796120
 20
6.361520
  9
$LTSCALE
 40
0.044000
  9
$PDMODE
 70
    35
  9
$PDSIZE
 40
0.035200
  0
ENDSEC
  0
SECTION
  2
TABLES
  0
TABLE
  2
LTYPE
 70
     9
  0
LTYPE
  2
CONTINUOUS
 70
    64
  3
Solid line
 72
    65
 73
     0
 40
0.000000
  0
LTYPE
  2
DASHED
 70
    64
  3
__ __ __ __ __ __ __ __ __ __ __ __ __ __ __
 72
    65
 73
     2
 40
0.000330
 49
0.000220
 49
-0.000110
  0
LTYPE
  2
HIDDEN
 70
    64
  3
 _ _ _ _ _ _ _ _ _ _ _ _ _ _ _ _ _ _ _ _ _ _
 72
    65
 73
     2
 40
0.000165
 49
0.000110
 49
-0.000055
  0
LTYPE
  2
CENTER
 70
    64
  3
____ _ ____ _ ____ _ ____ _ ____ _ ____ _ ____
 72
    65
 73
     4
 40
0.000880
 49
0.000550
 49
-0.000110
 49
0.000110
 49
-0.000110
  0
LTYPE
  2
PHANTOM
 70
    64
  3
_____ _ _ _____ _ _ _____ _ _ _____ _ _ ____
 72
    65
 73
     6
 40
0.001100
 49
0.000550
 49
-0.000110
 49
0.000110
 49
-0.000110
 49
0.000110
 49
-0.000110
  0
LTYPE
  2
DOT
 70
    64
  3
...............................................
 72
    65
 73
     2
 40
0.000110
 49
0.000000
 49
-0.000110
  0
LTYPE
  2
DASHDOT
 70
    64
  3
__ . __ . __ . __ . __ . __ . __ . __ . __ . __
 72
    65
 73
     4
 40
0.000440
 49
0.000220
 49
-0.000110
 49
0.000000
 49
-0.000110
  0
LTYPE
  2
BORDER
 70
    64
  3
__ __ . __ __ . __ __ . __ __ . __ __ . __ __
 72
    65
 73
     6
 40
0.000770
 49
0.000220
 49
-0.000110
 49
0.000220
 49
-0.000110
 49
0.000000
 49
-0.000110
  0
LTYPE
  2
DIVIDE
 70
    64
  3
__ . . __ . . __ . . __ . . __ . . __ . . __
 72
    65
 73
     6
 40
0.000550
 49
0.000220
 49
-0.000110
 49
0.000000
 49
-0.000110
 49
0.000000
 49
-0.000110
  0
LTYPE
  2
DOTDOT
 70
    64
  3
 . .  . .  . .  . .  . .  . . 
 72
    65
 73
     5
 40
0.000242
 49
-0.000110
 49
0.000000
 49
-0.000110
 49
0.000000
 49
-0.000110
  0
ENDTAB
  0
TABLE
  2
STYLE
 70
     2
  0
STYLE
 70
     0
  2
SN0
 40
0.000000
 41
0.000440
 50
0.000000
 71
     0
 42
0.000000
  3
ROMAND
  0
STYLE
 70
    68
  2
SV0
 40
0.000000
 41
0.000440
 50
0.000000
 71
     0
 42
0.000000
  3
ROMAND
  0
ENDTAB
  0
TABLE
  2
LAYER
 70
     3
  0
LAYER
  2
FOREGROUND
 70
    64
 62
     7
  6
CONTINUOUS
  0
LAYER
  2
BACKGROUND
 70
    65
 62
    -7
  6
CONTINUOUS
  0
LAYER
  2
0
 70
    64
 62
     7
  6
CONTINUOUS
  0
ENDTAB
  0
ENDSEC
  0
SECTION
  2
ENTITIES
  0
POLYLINE
  8
FOREGROUND
  6
CONTINUOUS
 66
     1
 40
0.000000
 41
0.000000
  0
VERTEX
  8
FOREGROUND
  6
CONTINUOUS
 10
0.000000
 20
10.999560
  0
VERTEX
  8
FOREGROUND
  6
CONTINUOUS
 10
8.499920
 20
10.999560
  0
VERTEX
  8
FOREGROUND
  6
CONTINUOUS
 10
8.499920
 20
-0.000440
  0
VERTEX
  8
FOREGROUND
  6
CONTINUOUS
 10
0.000000
 20
-0.000440
  0
VERTEX
  8
FOREGROUND
  6
CONTINUOUS
 10
0.000000
 20
10.999560
  0
SEQEND
  8
0
  0
POLYLINE
  8
FOREGROUND
  6
CONTINUOUS
 66
     1
 40
0.000000
 41
0.000000
  0
VERTEX
  8
FOREGROUND
  6
CONTINUOUS
 10
0.000000
 20
10.999560
  0
VERTEX
  8
FOREGROUND
  6
CONTINUOUS
 10
8.499920
 20
10.999560
  0
VERTEX
  8
FOREGROUND
  6
CONTINUOUS
 10
8.499920
 20
-0.000440
  0
VERTEX
  8
FOREGROUND
  6
CONTINUOUS
 10
0.000000
 20
-0.000440
  0
VERTEX
  8
FOREGROUND
  6
CONTINUOUS
 10
0.000000
 20
10.999560
  0
SEQEND
  8
0
  0
SOLID
  8
0
 62
     7
 10
5.462600
 20
5.295400
 11
5.463480
 21
6.048680
 12
5.504840
 22
5.273840
 13
5.505720
 23
6.027560
  0
POLYLINE
  8
0
  6
CONTINUOUS
 66
     1
 40
0.000000
 41
0.000000
  0
VERTEX
  8
0
  6
CONTINUOUS
 10
5.462600
 20
5.295400
  0
VERTEX
  8
0
  6
CONTINUOUS
 10
5.463480
 20
6.048680
  0
VERTEX
  8
0
  6
CONTINUOUS
 10
5.505720
 20
6.027560
  0
VERTEX
  8
0
  6
CONTINUOUS
 10
5.504840
 20
5.273840
  0
VERTEX
  8
0
  6
CONTINUOUS
 10
5.462600
 20
5.295400
  0
SEQEND
  8
0
  0
SOLID
  8
0
 62
    15
 10
4.931520
 20
5.463040
 11
4.932400
 21
6.216320
 12
4.940760
 22
5.487240
 13
4.941640
 23
6.240960
  0
POLYLINE
  8
0
  6
CONTINUOUS
 66
     1
 40
0.000000
 41
0.000000
  0
VERTEX
  8
0
  6
CONTINUOUS
 10
4.931520
 20
5.463040
  0
VERTEX
  8
0
  6
CONTINUOUS
 10
4.932400
 20
6.216320
  0
VERTEX
  8
0
  6
CONTINUOUS
 10
4.941640
 20
6.240960
  0
VERTEX
  8
0
  6
CONTINUOUS
 10
4.940760
 20
5.487240
  0
VERTEX
  8
0
  6
CONTINUOUS
 10
4.931520
 20
5.463040
  0
SEQEND
  8
0
  0
SOLID
  8
0
 62
    15
 10
4.940760
 20
5.487240
 11
4.941640
 21
6.240960
 12
4.951320
 22
5.509240
 13
4.951760
 23
6.262960
  0
POLYLINE
  8
0
  6
CONTINUOUS
 66
     1
 40
0.000000
 41
0.000000
  0
VERTEX
  8
0
  6
CONTINUOUS
 10
4.940760
 20
5.487240
  0
VERTEX
  8
0
  6
CONTINUOUS
 10
4.941640
 20
6.240960
  0
VERTEX
  8
0
  6
CONTINUOUS
 10
4.951760
 20
6.262960
  0
VERTEX
  8
0
  6
CONTINUOUS
 10
4.951320
 20
5.509240
  0
VERTEX
  8
0
  6
CONTINUOUS
 10
4.940760
 20
5.487240
  0
SEQEND
  8
0
  0
SOLID
  8
0
 62
    15
 10
4.951320
 20
5.509240
 11
4.951760
 21
6.262960
 12
4.962320
 22
5.529040
 13
4.963200
 23
6.282320
  0
POLYLINE
  8
0
  6
CONTINUOUS
 66
     1
 40
0.000000
 41
0.000000
  0
VERTEX
  8
0
  6
CONTINUOUS
 10
4.951320
 20
5.509240
  0
VERTEX
  8
0
  6
CONTINUOUS
 10
4.951760
 20
6.262960
  0
VERTEX
  8
0
  6
CONTINUOUS
 10
4.963200
 20
6.282320
  0
VERTEX
  8
0
  6
CONTINUOUS
 10
4.962320
 20
5.529040
  0
VERTEX
  8
0
  6
CONTINUOUS
 10
4.951320
 20
5.509240
  0
SEQEND
  8
0
  0
SOLID
  8
0
 62
    15
 10
4.962320
 20
5.529040
 11
4.963200
 21
6.282320
 12
4.974200
 22
5.546200
 13
4.975080
 23
6.299920
  0
POLYLINE
  8
0
  6
CONTINUOUS
 66
     1
 40
0.000000
 41
0.000000
  0
VERTEX
  8
0
  6
CONTINUOUS
 10
4.962320
 20
5.529040
  0
VERTEX
  8
0
  6
CONTINUOUS
 10
4.963200
 20
6.282320
  0
VERTEX
  8
0
  6
CONTINUOUS
 10
4.975080
 20
6.299920
  0
VERTEX
  8
0
  6
CONTINUOUS
 10
4.974200
 20
5.546200
  0
VERTEX
  8
0
  6
CONTINUOUS
 10
4.962320
 20
5.529040
  0
SEQEND
  8
0
  0
SOLID
  8
0
 62
    15
 10
4.974200
 20
5.546200
 11
4.975080
 21
6.299920
 12
4.986960
 22
5.561160
 13
4.987400
 23
6.314880
  0
POLYLINE
  8
0
  6
CONTINUOUS
 66
     1
 40
0.000000
 41
0.000000
  0
VERTEX
  8
0
  6
CONTINUOUS
 10
4.974200
 20
5.546200
  0
VERTEX
  8
0
  6
CONTINUOUS
 10
4.975080
 20
6.299920
  0
VERTEX
  8
0
  6
CONTINUOUS
 10
4.987400
 20
6.314880
  0
VERTEX
  8
0
  6
CONTINUOUS
 10
4.986960
 20
5.561160
  0
VERTEX
  8
0
  6
CONTINUOUS
 10
4.974200
 20
5.546200
  0
SEQEND
  8
0
  0
SOLID
  8
0
 62
    15
 10
4.986960
 20
5.561160
 11
4.987400
 21
6.314880
 12
5.013800
 22
5.584480
 13
5.014680
 23
6.337760
  0
POLYLINE
  8
0
  6
CONTINUOUS
 66
     1
 40
0.000000
 41
0.000000
  0
VERTEX
  8
0
  6
CONTINUOUS
 10
4.986960
 20
5.561160
  0
VERTEX
  8
0
  6
CONTINUOUS
 10
4.987400
 20
6.314880
  0
VERTEX
  8
0
  6
CONTINUOUS
 10
5.014680
 20
6.337760
  0
VERTEX
  8
0
  6
CONTINUOUS
 10
5.013800
 20
5.584480
  0
VERTEX
  8
0
  6
CONTINUOUS
 10
4.986960
 20
5.561160
  0
SEQEND
  8
0
  0
SOLID
  8
0
 62
    15
 10
5.013800
 20
5.584480
 11
5.014680
 21
6.337760
 12
5.043280
 22
5.599440
 13
5.044160
 23
6.353160
  0
POLYLINE
  8
0
  6
CONTINUOUS
 66
     1
 40
0.000000
 41
0.000000
  0
VERTEX
  8
0
  6
CONTINUOUS
 10
5.013800
 20
5.584480
  0
VERTEX
  8
0
  6
CONTINUOUS
 10
5.014680
 20
6.337760
  0
VERTEX
  8
0
  6
CONTINUOUS
 10
5.044160
 20
6.353160
  0
VERTEX
  8
0
  6
CONTINUOUS
 10
5.043280
 20
5.599440
  0
VERTEX
  8
0
  6
CONTINUOUS
 10
5.013800
 20
5.584480
  0
SEQEND
  8
0
  0
SOLID
  8
0
 62
     7
 10
5.043280
 20
5.599440
 11
5.044160
 21
6.353160
 12
5.074080
 22
5.606920
 13
5.074960
 23
6.360200
  0
POLYLINE
  8
0
  6
CONTINUOUS
 66
     1
 40
0.000000
 41
0.000000
  0
VERTEX
  8
0
  6
CONTINUOUS
 10
5.043280
 20
5.599440
  0
VERTEX
  8
0
  6
CONTINUOUS
 10
5.044160
 20
6.353160
  0
VERTEX
  8
0
  6
CONTINUOUS
 10
5.074960
 20
6.360200
  0
VERTEX
  8
0
  6
CONTINUOUS
 10
5.074080
 20
5.606920
  0
VERTEX
  8
0
  6
CONTINUOUS
 10
5.043280
 20
5.599440
  0
SEQEND
  8
0
  0
SOLID
  8
0
 62
     7
 10
5.074080
 20
5.606920
 11
5.074960
 21
6.360200
 12
5.106200
 22
5.607360
 13
5.106640
 23
6.360640
  0
POLYLINE
  8
0
  6
CONTINUOUS
 66
     1
 40
0.000000
 41
0.000000
  0
VERTEX
  8
0
  6
CONTINUOUS
 10
5.074080
 20
5.606920
  0
VERTEX
  8
0
  6
CONTINUOUS
 10
5.074960
 20
6.360200
  0
VERTEX
  8
0
  6
CONTINUOUS
 10
5.106640
 20
6.360640
  0
VERTEX
  8
0
  6
CONTINUOUS
 10
5.106200
 20
5.607360
  0
VERTEX
  8
0
  6
CONTINUOUS
 10
5.074080
 20
5.606920
  0
SEQEND
  8
0
  0
SOLID
  8
0
 62
     7
 10
5.106200
 20
5.607360
 11
5.106640
 21
6.360640
 12
5.138320
 22
5.601200
 13
5.139200
 23
6.354480
  0
POLYLINE
  8
0
  6
CONTINUOUS
 66
     1
 40
0.000000
 41
0.000000
  0
VERTEX
  8
0
  6
CONTINUOUS
 10
5.106200
 20
5.607360
  0
VERTEX
  8
0
  6
CONTINUOUS
 10
5.106640
 20
6.360640
  0
VERTEX
  8
0
  6
CONTINUOUS
 10
5.139200
 20
6.354480
  0
VERTEX
  8
0
  6
CONTINUOUS
 10
5.138320
 20
5.601200
  0
VERTEX
  8
0
  6
CONTINUOUS
 10
5.106200
 20
5.607360
  0
SEQEND
  8
0
  0
SOLID
  8
0
 62
     7
 10
5.138320
 20
5.601200
 11
5.139200
 21
6.354480
 12
5.170880
 22
5.589320
 13
5.171760
 23
6.342600
  0
POLYLINE
  8
0
  6
CONTINUOUS
 66
     1
 40
0.000000
 41
0.000000
  0
VERTEX
  8
0
  6
CONTINUOUS
 10
5.138320
 20
5.601200
  0
VERTEX
  8
0
  6
CONTINUOUS
 10
5.139200
 20
6.354480
  0
VERTEX
  8
0
  6
CONTINUOUS
 10
5.171760
 20
6.342600
  0
VERTEX
  8
0
  6
CONTINUOUS
 10
5.170880
 20
5.589320
  0
VERTEX
  8
0
  6
CONTINUOUS
 10
5.138320
 20
5.601200
  0
SEQEND
  8
0
  0
SOLID
  8
0
 62
     7
 10
5.170880
 20
5.589320
 11
5.171760
 21
6.342600
 12
5.202560
 22
5.572160
 13
5.203440
 23
6.325880
  0
POLYLINE
  8
0
  6
CONTINUOUS
 66
     1
 40
0.000000
 41
0.000000
  0
VERTEX
  8
0
  6
CONTINUOUS
 10
5.170880
 20
5.589320
  0
VERTEX
  8
0
  6
CONTINUOUS
 10
5.171760
 20
6.342600
  0
VERTEX
  8
0
  6
CONTINUOUS
 10
5.203440
 20
6.325880
  0
VERTEX
  8
0
  6
CONTINUOUS
 10
5.202560
 20
5.572160
  0
VERTEX
  8
0
  6
CONTINUOUS
 10
5.170880
 20
5.589320
  0
SEQEND
  8
0
  0
SOLID
  8
0
 62
     7
 10
5.202560
 20
5.572160
 11
5.203440
 21
6.325880
 12
5.233800
 22
5.550600
 13
5.234240
 23
6.304320
  0
POLYLINE
  8
0
  6
CONTINUOUS
 66
     1
 40
0.000000
 41
0.000000
  0
VERTEX
  8
0
  6
CONTINUOUS
 10
5.202560
 20
5.572160
  0
VERTEX
  8
0
  6
CONTINUOUS
 10
5.203440
 20
6.325880
  0
VERTEX
  8
0
  6
CONTINUOUS
 10
5.234240
 20
6.304320
  0
VERTEX
  8
0
  6
CONTINUOUS
 10
5.233800
 20
5.550600
  0
VERTEX
  8
0
  6
CONTINUOUS
 10
5.202560
 20
5.572160
  0
SEQEND
  8
0
  0
SOLID
  8
0
 62
     7
 10
5.233800
 20
5.550600
 11
5.234240
 21
6.304320
 12
5.262840
 22
5.525080
 13
5.263720
 23
6.278800
  0
POLYLINE
  8
0
  6
CONTINUOUS
 66
     1
 40
0.000000
 41
0.000000
  0
VERTEX
  8
0
  6
CONTINUOUS
 10
5.233800
 20
5.550600
  0
VERTEX
  8
0
  6
CONTINUOUS
 10
5.234240
 20
6.304320
  0
VERTEX
  8
0
  6
CONTINUOUS
 10
5.263720
 20
6.278800
  0
VERTEX
  8
0
  6
CONTINUOUS
 10
5.262840
 20
5.525080
  0
VERTEX
  8
0
  6
CONTINUOUS
 10
5.233800
 20
5.550600
  0
SEQEND
  8
0
  0
SOLID
  8
0
 62
     7
 10
5.262840
 20
5.525080
 11
5.263720
 21
6.278800
 12
5.290120
 22
5.496040
 13
5.290560
 23
6.249760
  0
POLYLINE
  8
0
  6
CONTINUOUS
 66
     1
 40
0.000000
 41
0.000000
  0
VERTEX
  8
0
  6
CONTINUOUS
 10
5.262840
 20
5.525080
  0
VERTEX
  8
0
  6
CONTINUOUS
 10
5.263720
 20
6.278800
  0
VERTEX
  8
0
  6
CONTINUOUS
 10
5.290560
 20
6.249760
  0
VERTEX
  8
0
  6
CONTINUOUS
 10
5.290120
 20
5.496040
  0
VERTEX
  8
0
  6
CONTINUOUS
 10
5.262840
 20
5.525080
  0
SEQEND
  8
0
  0
SOLID
  8
0
 62
     7
 10
5.290120
 20
5.496040
 11
5.290560
 21
6.249760
 12
5.314760
 22
5.464800
 13
5.315200
 23
6.218080
  0
POLYLINE
  8
0
  6
CONTINUOUS
 66
     1
 40
0.000000
 41
0.000000
  0
VERTEX
  8
0
  6
CONTINUOUS
 10
5.290120
 20
5.496040
  0
VERTEX
  8
0
  6
CONTINUOUS
 10
5.290560
 20
6.249760
  0
VERTEX
  8
0
  6
CONTINUOUS
 10
5.315200
 20
6.218080
  0
VERTEX
  8
0
  6
CONTINUOUS
 10
5.314760
 20
5.464800
  0
VERTEX
  8
0
  6
CONTINUOUS
 10
5.290120
 20
5.496040
  0
SEQEND
  8
0
  0
SOLID
  8
0
 62
    15
 10
5.314760
 20
5.464800
 11
5.315200
 21
6.218080
 12
5.335880
 22
5.430920
 13
5.336760
 23
6.184200
  0
POLYLINE
  8
0
  6
CONTINUOUS
 66
     1
 40
0.000000
 41
0.000000
  0
VERTEX
  8
0
  6
CONTINUOUS
 10
5.314760
 20
5.464800
  0
VERTEX
  8
0
  6
CONTINUOUS
 10
5.315200
 20
6.218080
  0
VERTEX
  8
0
  6
CONTINUOUS
 10
5.336760
 20
6.184200
  0
VERTEX
  8
0
  6
CONTINUOUS
 10
5.335880
 20
5.430920
  0
VERTEX
  8
0
  6
CONTINUOUS
 10
5.314760
 20
5.464800
  0
SEQEND
  8
0
  0
SOLID
  8
0
 62
    15
 10
5.335880
 20
5.430920
 11
5.336760
 21
6.184200
 12
5.353920
 22
5.395720
 13
5.354360
 23
6.149000
  0
POLYLINE
  8
0
  6
CONTINUOUS
 66
     1
 40
0.000000
 41
0.000000
  0
VERTEX
  8
0
  6
CONTINUOUS
 10
5.335880
 20
5.430920
  0
VERTEX
  8
0
  6
CONTINUOUS
 10
5.336760
 20
6.184200
  0
VERTEX
  8
0
  6
CONTINUOUS
 10
5.354360
 20
6.149000
  0
VERTEX
  8
0
  6
CONTINUOUS
 10
5.353920
 20
5.395720
  0
VERTEX
  8
0
  6
CONTINUOUS
 10
5.335880
 20
5.430920
  0
SEQEND
  8
0
  0
SOLID
  8
0
 62
     7
 10
5.353920
 20
5.395720
 11
5.354360
 21
6.149000
 12
5.389560
 22
5.355240
 13
5.390440
 23
6.108960
  0
POLYLINE
  8
0
  6
CONTINUOUS
 66
     1
 40
0.000000
 41
0.000000
  0
VERTEX
  8
0
  6
CONTINUOUS
 10
5.353920
 20
5.395720
  0
VERTEX
  8
0
  6
CONTINUOUS
 10
5.354360
 20
6.149000
  0
VERTEX
  8
0
  6
CONTINUOUS
 10
5.390440
 20
6.108960
  0
VERTEX
  8
0
  6
CONTINUOUS
 10
5.389560
 20
5.355240
  0
VERTEX
  8
0
  6
CONTINUOUS
 10
5.353920
 20
5.395720
  0
SEQEND
  8
0
  0
SOLID
  8
0
 62
     7
 10
5.389560
 20
5.355240
 11
5.390440
 21
6.108960
 12
5.425200
 22
5.322240
 13
5.426080
 23
6.075520
  0
POLYLINE
  8
0
  6
CONTINUOUS
 66
     1
 40
0.000000
 41
0.000000
  0
VERTEX
  8
0
  6
CONTINUOUS
 10
5.389560
 20
5.355240
  0
VERTEX
  8
0
  6
CONTINUOUS
 10
5.390440
 20
6.108960
  0
VERTEX
  8
0
  6
CONTINUOUS
 10
5.426080
 20
6.075520
  0
VERTEX
  8
0
  6
CONTINUOUS
 10
5.425200
 20
5.322240
  0
VERTEX
  8
0
  6
CONTINUOUS
 10
5.389560
 20
5.355240
  0
SEQEND
  8
0
  0
SOLID
  8
0
 62
     7
 10
5.425200
 20
5.322240
 11
5.426080
 21
6.075520
 12
5.462600
 22
5.295400
 13
5.463480
 23
6.048680
  0
POLYLINE
  8
0
  6
CONTINUOUS
 66
     1
 40
0.000000
 41
0.000000
  0
VERTEX
  8
0
  6
CONTINUOUS
 10
5.425200
 20
5.322240
  0
VERTEX
  8
0
  6
CONTINUOUS
 10
5.426080
 20
6.075520
  0
VERTEX
  8
0
  6
CONTINUOUS
 10
5.463480
 20
6.048680
  0
VERTEX
  8
0
  6
CONTINUOUS
 10
5.462600
 20
5.295400
  0
VERTEX
  8
0
  6
CONTINUOUS
 10
5.425200
 20
5.322240
  0
SEQEND
  8
0
  0
SOLID
  8
0
 62
    15
 10
4.923160
 20
5.435760
 11
4.924040
 21
6.189040
 12
4.931520
 22
5.463040
 13
4.932400
 23
6.216320
  0
POLYLINE
  8
0
  6
CONTINUOUS
 66
     1
 40
0.000000
 41
0.000000
  0
VERTEX
  8
0
  6
CONTINUOUS
 10
4.923160
 20
5.435760
  0
VERTEX
  8
0
  6
CONTINUOUS
 10
4.924040
 20
6.189040
  0
VERTEX
  8
0
  6
CONTINUOUS
 10
4.932400
 20
6.216320
  0
VERTEX
  8
0
  6
CONTINUOUS
 10
4.931520
 20
5.463040
  0
VERTEX
  8
0
  6
CONTINUOUS
 10
4.923160
 20
5.435760
  0
SEQEND
  8
0
  0
SOLID
  8
0
 62
     7
 10
5.504840
 20
5.273840
 11
5.505720
 21
6.027560
 12
5.528600
 22
5.265040
 13
5.529480
 23
6.018760
  0
POLYLINE
  8
0
  6
CONTINUOUS
 66
     1
 40
0.000000
 41
0.000000
  0
VERTEX
  8
0
  6
CONTINUOUS
 10
5.504840
 20
5.273840
  0
VERTEX
  8
0
  6
CONTINUOUS
 10
5.505720
 20
6.027560
  0
VERTEX
  8
0
  6
CONTINUOUS
 10
5.529480
 20
6.018760
  0
VERTEX
  8
0
  6
CONTINUOUS
 10
5.528600
 20
5.265040
  0
VERTEX
  8
0
  6
CONTINUOUS
 10
5.504840
 20
5.273840
  0
SEQEND
  8
0
  0
SOLID
  8
0
 62
     7
 10
5.528600
 20
5.265040
 11
5.529480
 21
6.018760
 12
5.554120
 22
5.257560
 13
5.555000
 23
6.010840
  0
POLYLINE
  8
0
  6
CONTINUOUS
 66
     1
 40
0.000000
 41
0.000000
  0
VERTEX
  8
0
  6
CONTINUOUS
 10
5.528600
 20
5.265040
  0
VERTEX
  8
0
  6
CONTINUOUS
 10
5.529480
 20
6.018760
  0
VERTEX
  8
0
  6
CONTINUOUS
 10
5.555000
 20
6.010840
  0
VERTEX
  8
0
  6
CONTINUOUS
 10
5.554120
 20
5.257560
  0
VERTEX
  8
0
  6
CONTINUOUS
 10
5.528600
 20
5.265040
  0
SEQEND
  8
0
  0
SOLID
  8
0
 62
     7
 10
5.554120
 20
5.257560
 11
5.555000
 21
6.010840
 12
5.582720
 22
5.250960
 13
5.583160
 23
6.004240
  0
POLYLINE
  8
0
  6
CONTINUOUS
 66
     1
 40
0.000000
 41
0.000000
  0
VERTEX
  8
0
  6
CONTINUOUS
 10
5.554120
 20
5.257560
  0
VERTEX
  8
0
  6
CONTINUOUS
 10
5.555000
 20
6.010840
  0
VERTEX
  8
0
  6
CONTINUOUS
 10
5.583160
 20
6.004240
  0
VERTEX
  8
0
  6
CONTINUOUS
 10
5.582720
 20
5.250960
  0
VERTEX
  8
0
  6
CONTINUOUS
 10
5.554120
 20
5.257560
  0
SEQEND
  8
0
  0
SOLID
  8
0
 62
     7
 10
5.582720
 20
5.250960
 11
5.583160
 21
6.004240
 12
5.613520
 22
5.245240
 13
5.614400
 23
5.998960
  0
POLYLINE
  8
0
  6
CONTINUOUS
 66
     1
 40
0.000000
 41
0.000000
  0
VERTEX
  8
0
  6
CONTINUOUS
 10
5.582720
 20
5.250960
  0
VERTEX
  8
0
  6
CONTINUOUS
 10
5.583160
 20
6.004240
  0
VERTEX
  8
0
  6
CONTINUOUS
 10
5.614400
 20
5.998960
  0
VERTEX
  8
0
  6
CONTINUOUS
 10
5.613520
 20
5.245240
  0
VERTEX
  8
0
  6
CONTINUOUS
 10
5.582720
 20
5.250960
  0
SEQEND
  8
0
  0
SOLID
  8
0
 62
     7
 10
5.613520
 20
5.245240
 11
5.614400
 21
5.998960
 12
5.647400
 22
5.240400
 13
5.648280
 23
5.994120
  0
POLYLINE
  8
0
  6
CONTINUOUS
 66
     1
 40
0.000000
 41
0.000000
  0
VERTEX
  8
0
  6
CONTINUOUS
 10
5.613520
 20
5.245240
  0
VERTEX
  8
0
  6
CONTINUOUS
 10
5.614400
 20
5.998960
  0
VERTEX
  8
0
  6
CONTINUOUS
 10
5.648280
 20
5.994120
  0
VERTEX
  8
0
  6
CONTINUOUS
 10
5.647400
 20
5.240400
  0
VERTEX
  8
0
  6
CONTINUOUS
 10
5.613520
 20
5.245240
  0
SEQEND
  8
0
  0
SOLID
  8
0
 62
     7
 10
5.647400
 20
5.240400
 11
5.648280
 21
5.994120
 12
5.684800
 22
5.236440
 13
5.685680
 23
5.990160
  0
POLYLINE
  8
0
  6
CONTINUOUS
 66
     1
 40
0.000000
 41
0.000000
  0
VERTEX
  8
0
  6
CONTINUOUS
 10
5.647400
 20
5.240400
  0
VERTEX
  8
0
  6
CONTINUOUS
 10
5.648280
 20
5.994120
  0
VERTEX
  8
0
  6
CONTINUOUS
 10
5.685680
 20
5.990160
  0
VERTEX
  8
0
  6
CONTINUOUS
 10
5.684800
 20
5.236440
  0
VERTEX
  8
0
  6
CONTINUOUS
 10
5.647400
 20
5.240400
  0
SEQEND
  8
0
  0
SOLID
  8
0
 62
     7
 10
5.684800
 20
5.236440
 11
5.685680
 21
5.990160
 12
5.726160
 22
5.232920
 13
5.726600
 23
5.986640
  0
POLYLINE
  8
0
  6
CONTINUOUS
 66
     1
 40
0.000000
 41
0.000000
  0
VERTEX
  8
0
  6
CONTINUOUS
 10
5.684800
 20
5.236440
  0
VERTEX
  8
0
  6
CONTINUOUS
 10
5.685680
 20
5.990160
  0
VERTEX
  8
0
  6
CONTINUOUS
 10
5.726600
 20
5.986640
  0
VERTEX
  8
0
  6
CONTINUOUS
 10
5.726160
 20
5.232920
  0
VERTEX
  8
0
  6
CONTINUOUS
 10
5.684800
 20
5.236440
  0
SEQEND
  8
0
  0
SOLID
  8
0
 62
    15
 10
5.773680
 20
5.227640
 11
5.774560
 21
5.980920
 12
5.773680
 22
5.099600
 13
5.774560
 23
5.853320
  0
POLYLINE
  8
0
  6
CONTINUOUS
 66
     1
 40
0.000000
 41
0.000000
  0
VERTEX
  8
0
  6
CONTINUOUS
 10
5.773680
 20
5.227640
  0
VERTEX
  8
0
  6
CONTINUOUS
 10
5.774560
 20
5.980920
  0
VERTEX
  8
0
  6
CONTINUOUS
 10
5.774560
 20
5.853320
  0
VERTEX
  8
0
  6
CONTINUOUS
 10
5.773680
 20
5.099600
  0
VERTEX
  8
0
  6
CONTINUOUS
 10
5.773680
 20
5.227640
  0
SEQEND
  8
0
  0
SOLID
  8
0
 62
     7
 10
5.771040
 20
5.227640
 11
5.771920
 21
5.980920
 12
5.773680
 22
5.227640
 13
5.774560
 23
5.980920
  0
POLYLINE
  8
0
  6
CONTINUOUS
 66
     1
 40
0.000000
 41
0.000000
  0
VERTEX
  8
0
  6
CONTINUOUS
 10
5.771040
 20
5.227640
  0
VERTEX
  8
0
  6
CONTINUOUS
 10
5.771920
 20
5.980920
  0
VERTEX
  8
0
  6
CONTINUOUS
 10
5.774560
 20
5.980920
  0
VERTEX
  8
0
  6
CONTINUOUS
 10
5.773680
 20
5.227640
  0
VERTEX
  8
0
  6
CONTINUOUS
 10
5.771040
 20
5.227640
  0
SEQEND
  8
0
  0
SOLID
  8
0
 62
    15
 10
5.771040
 20
5.230280
 11
5.771920
 21
5.984000
 12
5.771040
 22
5.227640
 13
5.771920
 23
5.980920
  0
POLYLINE
  8
0
  6
CONTINUOUS
 66
     1
 40
0.000000
 41
0.000000
  0
VERTEX
  8
0
  6
CONTINUOUS
 10
5.771040
 20
5.230280
  0
VERTEX
  8
0
  6
CONTINUOUS
 10
5.771920
 20
5.984000
  0
VERTEX
  8
0
  6
CONTINUOUS
 10
5.771920
 20
5.980920
  0
VERTEX
  8
0
  6
CONTINUOUS
 10
5.771040
 20
5.227640
  0
VERTEX
  8
0
  6
CONTINUOUS
 10
5.771040
 20
5.230280
  0
SEQEND
  8
0
  0
SOLID
  8
0
 62
     7
 10
5.726160
 20
5.232920
 11
5.726600
 21
5.986640
 12
5.771040
 22
5.230280
 13
5.771920
 23
5.984000
  0
POLYLINE
  8
0
  6
CONTINUOUS
 66
     1
 40
0.000000
 41
0.000000
  0
VERTEX
  8
0
  6
CONTINUOUS
 10
5.726160
 20
5.232920
  0
VERTEX
  8
0
  6
CONTINUOUS
 10
5.726600
 20
5.986640
  0
VERTEX
  8
0
  6
CONTINUOUS
 10
5.771920
 20
5.984000
  0
VERTEX
  8
0
  6
CONTINUOUS
 10
5.771040
 20
5.230280
  0
VERTEX
  8
0
  6
CONTINUOUS
 10
5.726160
 20
5.232920
  0
SEQEND
  8
0
  0
SOLID
  8
0
 62
     7
 10
4.607240
 20
5.207840
 11
4.607680
 21
5.961120
 12
4.652560
 22
5.223680
 13
4.653440
 23
5.976960
  0
POLYLINE
  8
0
  6
CONTINUOUS
 66
     1
 40
0.000000
 41
0.000000
  0
VERTEX
  8
0
  6
CONTINUOUS
 10
4.607240
 20
5.207840
  0
VERTEX
  8
0
  6
CONTINUOUS
 10
4.607680
 20
5.961120
  0
VERTEX
  8
0
  6
CONTINUOUS
 10
4.653440
 20
5.976960
  0
VERTEX
  8
0
  6
CONTINUOUS
 10
4.652560
 20
5.223680
  0
VERTEX
  8
0
  6
CONTINUOUS
 10
4.607240
 20
5.207840
  0
SEQEND
  8
0
  0
SOLID
  8
0
 62
    15
 10
4.652560
 20
5.223680
 11
4.653440
 21
5.976960
 12
4.690840
 22
5.242600
 13
4.691720
 23
5.995880
  0
POLYLINE
  8
0
  6
CONTINUOUS
 66
     1
 40
0.000000
 41
0.000000
  0
VERTEX
  8
0
  6
CONTINUOUS
 10
4.652560
 20
5.223680
  0
VERTEX
  8
0
  6
CONTINUOUS
 10
4.653440
 20
5.976960
  0
VERTEX
  8
0
  6
CONTINUOUS
 10
4.691720
 20
5.995880
  0
VERTEX
  8
0
  6
CONTINUOUS
 10
4.690840
 20
5.242600
  0
VERTEX
  8
0
  6
CONTINUOUS
 10
4.652560
 20
5.223680
  0
SEQEND
  8
0
  0
SOLID
  8
0
 62
    15
 10
4.690840
 20
5.242600
 11
4.691720
 21
5.995880
 12
4.722520
 22
5.264600
 13
4.722960
 23
6.018320
  0
POLYLINE
  8
0
  6
CONTINUOUS
 66
     1
 40
0.000000
 41
0.000000
  0
VERTEX
  8
0
  6
CONTINUOUS
 10
4.690840
 20
5.242600
  0
VERTEX
  8
0
  6
CONTINUOUS
 10
4.691720
 20
5.995880
  0
VERTEX
  8
0
  6
CONTINUOUS
 10
4.722960
 20
6.018320
  0
VERTEX
  8
0
  6
CONTINUOUS
 10
4.722520
 20
5.264600
  0
VERTEX
  8
0
  6
CONTINUOUS
 10
4.690840
 20
5.242600
  0
SEQEND
  8
0
  0
SOLID
  8
0
 62
    15
 10
4.722520
 20
5.264600
 11
4.722960
 21
6.018320
 12
4.747600
 22
5.290560
 13
4.748480
 23
6.044280
  0
POLYLINE
  8
0
  6
CONTINUOUS
 66
     1
 40
0.000000
 41
0.000000
  0
VERTEX
  8
0
  6
CONTINUOUS
 10
4.722520
 20
5.264600
  0
VERTEX
  8
0
  6
CONTINUOUS
 10
4.722960
 20
6.018320
  0
VERTEX
  8
0
  6
CONTINUOUS
 10
4.748480
 20
6.044280
  0
VERTEX
  8
0
  6
CONTINUOUS
 10
4.747600
 20
5.290560
  0
VERTEX
  8
0
  6
CONTINUOUS
 10
4.722520
 20
5.264600
  0
SEQEND
  8
0
  0
SOLID
  8
0
 62
    15
 10
4.747600
 20
5.290560
 11
4.748480
 21
6.044280
 12
4.767400
 22
5.320480
 13
4.767840
 23
6.073760
  0
POLYLINE
  8
0
  6
CONTINUOUS
 66
     1
 40
0.000000
 41
0.000000
  0
VERTEX
  8
0
  6
CONTINUOUS
 10
4.747600
 20
5.290560
  0
VERTEX
  8
0
  6
CONTINUOUS
 10
4.748480
 20
6.044280
  0
VERTEX
  8
0
  6
CONTINUOUS
 10
4.767840
 20
6.073760
  0
VERTEX
  8
0
  6
CONTINUOUS
 10
4.767400
 20
5.320480
  0
VERTEX
  8
0
  6
CONTINUOUS
 10
4.747600
 20
5.290560
  0
SEQEND
  8
0
  0
SOLID
  8
0
 62
    15
 10
4.767400
 20
5.320480
 11
4.767840
 21
6.073760
 12
4.781920
 22
5.354360
 13
4.782800
 23
6.107640
  0
POLYLINE
  8
0
  6
CONTINUOUS
 66
     1
 40
0.000000
 41
0.000000
  0
VERTEX
  8
0
  6
CONTINUOUS
 10
4.767400
 20
5.320480
  0
VERTEX
  8
0
  6
CONTINUOUS
 10
4.767840
 20
6.073760
  0
VERTEX
  8
0
  6
CONTINUOUS
 10
4.782800
 20
6.107640
  0
VERTEX
  8
0
  6
CONTINUOUS
 10
4.781920
 20
5.354360
  0
VERTEX
  8
0
  6
CONTINUOUS
 10
4.767400
 20
5.320480
  0
SEQEND
  8
0
  0
SOLID
  8
0
 62
    15
 10
4.781920
 20
5.354360
 11
4.782800
 21
6.107640
 12
4.792480
 22
5.392640
 13
4.793360
 23
6.145920
  0
POLYLINE
  8
0
  6
CONTINUOUS
 66
     1
 40
0.000000
 41
0.000000
  0
VERTEX
  8
0
  6
CONTINUOUS
 10
4.781920
 20
5.354360
  0
VERTEX
  8
0
  6
CONTINUOUS
 10
4.782800
 20
6.107640
  0
VERTEX
  8
0
  6
CONTINUOUS
 10
4.793360
 20
6.145920
  0
VERTEX
  8
0
  6
CONTINUOUS
 10
4.792480
 20
5.392640
  0
VERTEX
  8
0
  6
CONTINUOUS
 10
4.781920
 20
5.354360
  0
SEQEND
  8
0
  0
SOLID
  8
0
 62
    15
 10
4.792480
 20
5.392640
 11
4.793360
 21
6.145920
 12
4.799080
 22
5.435760
 13
4.799960
 23
6.189040
  0
POLYLINE
  8
0
  6
CONTINUOUS
 66
     1
 40
0.000000
 41
0.000000
  0
VERTEX
  8
0
  6
CONTINUOUS
 10
4.792480
 20
5.392640
  0
VERTEX
  8
0
  6
CONTINUOUS
 10
4.793360
 20
6.145920
  0
VERTEX
  8
0
  6
CONTINUOUS
 10
4.799960
 20
6.189040
  0
VERTEX
  8
0
  6
CONTINUOUS
 10
4.799080
 20
5.435760
  0
VERTEX
  8
0
  6
CONTINUOUS
 10
4.792480
 20
5.392640
  0
SEQEND
  8
0
  0
SOLID
  8
0
 62
     7
 10
4.799080
 20
5.435760
 11
4.799960
 21
6.189040
 12
4.920520
 22
5.435760
 13
4.921400
 23
6.189040
  0
POLYLINE
  8
0
  6
CONTINUOUS
 66
     1
 40
0.000000
 41
0.000000
  0
VERTEX
  8
0
  6
CONTINUOUS
 10
4.799080
 20
5.435760
  0
VERTEX
  8
0
  6
CONTINUOUS
 10
4.799960
 20
6.189040
  0
VERTEX
  8
0
  6
CONTINUOUS
 10
4.921400
 20
6.189040
  0
VERTEX
  8
0
  6
CONTINUOUS
 10
4.920520
 20
5.435760
  0
VERTEX
  8
0
  6
CONTINUOUS
 10
4.799080
 20
5.435760
  0
SEQEND
  8
0
  0
SOLID
  8
0
 62
     7
 10
4.920520
 20
5.435760
 11
4.921400
 21
6.189040
 12
4.923160
 22
5.435760
 13
4.924040
 23
6.189040
  0
POLYLINE
  8
0
  6
CONTINUOUS
 66
     1
 40
0.000000
 41
0.000000
  0
VERTEX
  8
0
  6
CONTINUOUS
 10
4.920520
 20
5.435760
  0
VERTEX
  8
0
  6
CONTINUOUS
 10
4.921400
 20
6.189040
  0
VERTEX
  8
0
  6
CONTINUOUS
 10
4.924040
 20
6.189040
  0
VERTEX
  8
0
  6
CONTINUOUS
 10
4.923160
 20
5.435760
  0
VERTEX
  8
0
  6
CONTINUOUS
 10
4.920520
 20
5.435760
  0
SEQEND
  8
0
  0
POLYLINE
  8
0
  6
CONTINUOUS
 66
     1
 40
0.000000
 41
0.000000
  0
VERTEX
  8
0
  6
CONTINUOUS
 10
4.923160
 20
5.435760
  0
VERTEX
  8
0
  6
CONTINUOUS
 10
4.931520
 20
5.463040
  0
VERTEX
  8
0
  6
CONTINUOUS
 10
4.940760
 20
5.487240
  0
VERTEX
  8
0
  6
CONTINUOUS
 10
4.951320
 20
5.509240
  0
VERTEX
  8
0
  6
CONTINUOUS
 10
4.962320
 20
5.529040
  0
VERTEX
  8
0
  6
CONTINUOUS
 10
4.974200
 20
5.546200
  0
VERTEX
  8
0
  6
CONTINUOUS
 10
4.986960
 20
5.561160
  0
VERTEX
  8
0
  6
CONTINUOUS
 10
5.013800
 20
5.584480
  0
VERTEX
  8
0
  6
CONTINUOUS
 10
5.043280
 20
5.599440
  0
VERTEX
  8
0
  6
CONTINUOUS
 10
5.074080
 20
5.606920
  0
VERTEX
  8
0
  6
CONTINUOUS
 10
5.106200
 20
5.607360
  0
VERTEX
  8
0
  6
CONTINUOUS
 10
5.138320
 20
5.601200
  0
VERTEX
  8
0
  6
CONTINUOUS
 10
5.170880
 20
5.589320
  0
VERTEX
  8
0
  6
CONTINUOUS
 10
5.202560
 20
5.572160
  0
VERTEX
  8
0
  6
CONTINUOUS
 10
5.233800
 20
5.550600
  0
VERTEX
  8
0
  6
CONTINUOUS
 10
5.262840
 20
5.525080
  0
VERTEX
  8
0
  6
CONTINUOUS
 10
5.290120
 20
5.496040
  0
VERTEX
  8
0
  6
CONTINUOUS
 10
5.314760
 20
5.464800
  0
VERTEX
  8
0
  6
CONTINUOUS
 10
5.335880
 20
5.430920
  0
VERTEX
  8
0
  6
CONTINUOUS
 10
5.353920
 20
5.395720
  0
VERTEX
  8
0
  6
CONTINUOUS
 10
5.389560
 20
5.355240
  0
VERTEX
  8
0
  6
CONTINUOUS
 10
5.425200
 20
5.322240
  0
VERTEX
  8
0
  6
CONTINUOUS
 10
5.462600
 20
5.295400
  0
VERTEX
  8
0
  6
CONTINUOUS
 10
5.504840
 20
5.273840
  0
VERTEX
  8
0
  6
CONTINUOUS
 10
5.528600
 20
5.265040
  0
VERTEX
  8
0
  6
CONTINUOUS
 10
5.554120
 20
5.257560
  0
VERTEX
  8
0
  6
CONTINUOUS
 10
5.582720
 20
5.250960
  0
VERTEX
  8
0
  6
CONTINUOUS
 10
5.613520
 20
5.245240
  0
VERTEX
  8
0
  6
CONTINUOUS
 10
5.647400
 20
5.240400
  0
VERTEX
  8
0
  6
CONTINUOUS
 10
5.684800
 20
5.236440
  0
VERTEX
  8
0
  6
CONTINUOUS
 10
5.726160
 20
5.232920
  0
VERTEX
  8
0
  6
CONTINUOUS
 10
5.771040
 20
5.230280
  0
VERTEX
  8
0
  6
CONTINUOUS
 10
5.771040
 20
5.227640
  0
VERTEX
  8
0
  6
CONTINUOUS
 10
5.773680
 20
5.227640
  0
VERTEX
  8
0
  6
CONTINUOUS
 10
5.773680
 20
5.099600
  0
VERTEX
  8
0
  6
CONTINUOUS
 10
4.607240
 20
5.099600
  0
VERTEX
  8
0
  6
CONTINUOUS
 10
4.607240
 20
5.207840
  0
VERTEX
  8
0
  6
CONTINUOUS
 10
4.652560
 20
5.223680
  0
VERTEX
  8
0
  6
CONTINUOUS
 10
4.690840
 20
5.242600
  0
VERTEX
  8
0
  6
CONTINUOUS
 10
4.722520
 20
5.264600
  0
VERTEX
  8
0
  6
CONTINUOUS
 10
4.747600
 20
5.290560
  0
VERTEX
  8
0
  6
CONTINUOUS
 10
4.767400
 20
5.320480
  0
VERTEX
  8
0
  6
CONTINUOUS
 10
4.781920
 20
5.354360
  0
VERTEX
  8
0
  6
CONTINUOUS
 10
4.792480
 20
5.392640
  0
VERTEX
  8
0
  6
CONTINUOUS
 10
4.799080
 20
5.435760
  0
VERTEX
  8
0
  6
CONTINUOUS
 10
4.920520
 20
5.435760
  0
VERTEX
  8
0
  6
CONTINUOUS
 10
4.923160
 20
5.435760
  0
SEQEND
  8
0
  0
TEXT
  8
0
 10
4.896320
 20
4.873880
 40
0.138051
  1
BA  289
 41
1.000000
  7
SN0
 71
     0
 72
     5
 11
5.486335
 21
4.873880
  0
TEXT
  8
0
 10
4.694360
 20
4.682480
 40
0.138051
  1
1/2" x 1-3/16"
 41
1.000000
  7
SN0
 71
     0
 72
     5
 11
5.686685
 21
4.682480
  0
POLYLINE
  8
0
  6
CONTINUOUS
 66
     1
 40
0.014080
 41
0.014080
  0
VERTEX
  8
0
  6
CONTINUOUS
 10
3.030720
 20
5.944840
  0
VERTEX
  8
0
  6
CONTINUOUS
 10
2.909280
 20
5.944840
  0
VERTEX
  8
0
  6
CONTINUOUS
 10
2.902680
 20
5.901720
  0
VERTEX
  8
0
  6
CONTINUOUS
 10
2.892120
 20
5.863440
  0
VERTEX
  8
0
  6
CONTINUOUS
 10
2.877160
 20
5.829560
  0
VERTEX
  8
0
  6
CONTINUOUS
 10
2.857360
 20
5.799640
  0
VERTEX
  8
0
  6
CONTINUOUS
 10
2.832280
 20
5.774120
  0
VERTEX
  8
0
  6
CONTINUOUS
 10
2.800600
 20
5.751680
  0
VERTEX
  8
0
  6
CONTINUOUS
 10
2.762760
 20
5.732760
  0
VERTEX
  8
0
  6
CONTINUOUS
 10
2.717000
 20
5.716920
  0
VERTEX
  8
0
  6
CONTINUOUS
 10
2.717000
 20
5.608680
  0
VERTEX
  8
0
  6
CONTINUOUS
 10
3.883880
 20
5.608680
  0
VERTEX
  8
0
  6
CONTINUOUS
 10
3.883880
 20
5.736720
  0
VERTEX
  8
0
  6
CONTINUOUS
 10
3.881240
 20
5.736720
  0
VERTEX
  8
0
  6
CONTINUOUS
 10
3.881240
 20
5.739360
  0
VERTEX
  8
0
  6
CONTINUOUS
 10
3.795000
 20
5.745520
  0
VERTEX
  8
0
  6
CONTINUOUS
 10
3.723720
 20
5.754320
  0
VERTEX
  8
0
  6
CONTINUOUS
 10
3.664320
 20
5.766640
  0
VERTEX
  8
0
  6
CONTINUOUS
 10
3.615040
 20
5.782920
  0
VERTEX
  8
0
  6
CONTINUOUS
 10
3.593040
 20
5.793040
  0
VERTEX
  8
0
  6
CONTINUOUS
 10
3.553440
 20
5.817240
  0
VERTEX
  8
0
  6
CONTINUOUS
 10
3.517360
 20
5.847160
  0
VERTEX
  8
0
  6
CONTINUOUS
 10
3.481720
 20
5.883680
  0
VERTEX
  8
0
  6
CONTINUOUS
 10
3.463680
 20
5.904800
  0
VERTEX
  8
0
  6
CONTINUOUS
 10
3.446080
 20
5.940000
  0
VERTEX
  8
0
  6
CONTINUOUS
 10
3.412640
 20
5.990160
  0
VERTEX
  8
0
  6
CONTINUOUS
 10
3.386680
 20
6.020080
  0
VERTEX
  8
0
  6
CONTINUOUS
 10
3.358520
 20
6.047800
  0
VERTEX
  8
0
  6
CONTINUOUS
 10
3.328160
 20
6.071120
  0
VERTEX
  8
0
  6
CONTINUOUS
 10
3.296920
 20
6.090480
  0
VERTEX
  8
0
  6
CONTINUOUS
 10
3.264800
 20
6.105000
  0
VERTEX
  8
0
  6
CONTINUOUS
 10
3.232240
 20
6.114240
  0
VERTEX
  8
0
  6
CONTINUOUS
 10
3.200120
 20
6.117320
  0
VERTEX
  8
0
  6
CONTINUOUS
 10
3.168440
 20
6.113360
  0
VERTEX
  8
0
  6
CONTINUOUS
 10
3.153480
 20
6.108960
  0
VERTEX
  8
0
  6
CONTINUOUS
 10
3.138520
 20
6.102360
  0
VERTEX
  8
0
  6
CONTINUOUS
 10
3.124000
 20
6.093560
  0
VERTEX
  8
0
  6
CONTINUOUS
 10
3.096720
 20
6.070240
  0
VERTEX
  8
0
  6
CONTINUOUS
 10
3.078240
 20
6.047360
  0
VERTEX
  8
0
  6
CONTINUOUS
 10
3.061080
 20
6.018760
  0
VERTEX
  8
0
  6
CONTINUOUS
 10
3.046120
 20
5.984440
  0
VERTEX
  8
0
  6
CONTINUOUS
 10
3.033360
 20
5.944840
  0
VERTEX
  8
0
  6
CONTINUOUS
 10
3.030720
 20
5.944840
  0
SEQEND
  8
0
  0
TEXT
  8
0
 10
3.014880
 20
5.396600
 40
0.138051
  1
BA  289
 41
1.000000
  7
SN0
 71
     0
 72
     5
 11
3.604895
 21
5.396600
  0
TEXT
  8
0
 10
2.812920
 20
5.204760
 40
0.138051
  1
1/2" x 1-3/16"
 41
1.000000
  7
SN0
 71
     0
 72
     5
 11
3.805245
 21
5.204760
  0
ENDSEC
  0
EOF
