  0
SECTION
  2
HEADER
  9
$ACADVER
  1
AC1006
  9
$EXTMIN
 10
2.458720
 20
0.367400
  9
$EXTMAX
 10
7.918680
 20
3.871560
  9
$LTSCALE
 40
0.044000
  9
$PDMODE
 70
    35
  9
$PDSIZE
 40
0.035200
  0
ENDSEC
  0
SECTION
  2
TABLES
  0
TABLE
  2
LTYPE
 70
     9
  0
LTYPE
  2
CONTINUOUS
 70
    64
  3
Solid line
 72
    65
 73
     0
 40
0.000000
  0
LTYPE
  2
DASHED
 70
    64
  3
__ __ __ __ __ __ __ __ __ __ __ __ __ __ __
 72
    65
 73
     2
 40
0.000330
 49
0.000220
 49
-0.000110
  0
LTYPE
  2
HIDDEN
 70
    64
  3
 _ _ _ _ _ _ _ _ _ _ _ _ _ _ _ _ _ _ _ _ _ _
 72
    65
 73
     2
 40
0.000165
 49
0.000110
 49
-0.000055
  0
LTYPE
  2
CENTER
 70
    64
  3
____ _ ____ _ ____ _ ____ _ ____ _ ____ _ ____
 72
    65
 73
     4
 40
0.000880
 49
0.000550
 49
-0.000110
 49
0.000110
 49
-0.000110
  0
LTYPE
  2
PHANTOM
 70
    64
  3
_____ _ _ _____ _ _ _____ _ _ _____ _ _ ____
 72
    65
 73
     6
 40
0.001100
 49
0.000550
 49
-0.000110
 49
0.000110
 49
-0.000110
 49
0.000110
 49
-0.000110
  0
LTYPE
  2
DOT
 70
    64
  3
...............................................
 72
    65
 73
     2
 40
0.000110
 49
0.000000
 49
-0.000110
  0
LTYPE
  2
DASHDOT
 70
    64
  3
__ . __ . __ . __ . __ . __ . __ . __ . __ . __
 72
    65
 73
     4
 40
0.000440
 49
0.000220
 49
-0.000110
 49
0.000000
 49
-0.000110
  0
LTYPE
  2
BORDER
 70
    64
  3
__ __ . __ __ . __ __ . __ __ . __ __ . __ __
 72
    65
 73
     6
 40
0.000770
 49
0.000220
 49
-0.000110
 49
0.000220
 49
-0.000110
 49
0.000000
 49
-0.000110
  0
LTYPE
  2
DIVIDE
 70
    64
  3
__ . . __ . . __ . . __ . . __ . . __ . . __
 72
    65
 73
     6
 40
0.000550
 49
0.000220
 49
-0.000110
 49
0.000000
 49
-0.000110
 49
0.000000
 49
-0.000110
  0
LTYPE
  2
DOTDOT
 70
    64
  3
 . .  . .  . .  . .  . .  . . 
 72
    65
 73
     5
 40
0.000242
 49
-0.000110
 49
0.000000
 49
-0.000110
 49
0.000000
 49
-0.000110
  0
ENDTAB
  0
TABLE
  2
STYLE
 70
     2
  0
STYLE
 70
     0
  2
SN0
 40
0.000000
 41
0.000440
 50
0.000000
 71
     0
 42
0.000000
  3
ROMAND
  0
STYLE
 70
    68
  2
SV0
 40
0.000000
 41
0.000440
 50
0.000000
 71
     0
 42
0.000000
  3
ROMAND
  0
ENDTAB
  0
TABLE
  2
LAYER
 70
     3
  0
LAYER
  2
FOREGROUND
 70
    64
 62
     7
  6
CONTINUOUS
  0
LAYER
  2
BACKGROUND
 70
    65
 62
    -7
  6
CONTINUOUS
  0
LAYER
  2
0
 70
    64
 62
     7
  6
CONTINUOUS
  0
ENDTAB
  0
ENDSEC
  0
SECTION
  2
ENTITIES
  0
POLYLINE
  8
FOREGROUND
  6
CONTINUOUS
 66
     1
 40
0.000000
 41
0.000000
  0
VERTEX
  8
FOREGROUND
  6
CONTINUOUS
 10
0.000000
 20
4.238960
  0
VERTEX
  8
FOREGROUND
  6
CONTINUOUS
 10
8.499920
 20
4.238960
  0
VERTEX
  8
FOREGROUND
  6
CONTINUOUS
 10
8.499920
 20
-6.761040
  0
VERTEX
  8
FOREGROUND
  6
CONTINUOUS
 10
0.000000
 20
-6.761040
  0
VERTEX
  8
FOREGROUND
  6
CONTINUOUS
 10
0.000000
 20
4.238960
  0
SEQEND
  8
0
  0
POLYLINE
  8
FOREGROUND
  6
CONTINUOUS
 66
     1
 40
0.000000
 41
0.000000
  0
VERTEX
  8
FOREGROUND
  6
CONTINUOUS
 10
0.000000
 20
4.238960
  0
VERTEX
  8
FOREGROUND
  6
CONTINUOUS
 10
8.499920
 20
4.238960
  0
VERTEX
  8
FOREGROUND
  6
CONTINUOUS
 10
8.499920
 20
-6.761040
  0
VERTEX
  8
FOREGROUND
  6
CONTINUOUS
 10
0.000000
 20
-6.761040
  0
VERTEX
  8
FOREGROUND
  6
CONTINUOUS
 10
0.000000
 20
4.238960
  0
SEQEND
  8
0
  0
POLYLINE
  8
0
  6
CONTINUOUS
 66
     1
 40
0.014080
 41
0.014080
  0
VERTEX
  8
0
  6
CONTINUOUS
 10
5.094760
 20
3.384920
  0
VERTEX
  8
0
  6
CONTINUOUS
 10
5.021280
 20
3.384920
  0
VERTEX
  8
0
  6
CONTINUOUS
 10
5.017760
 20
3.325520
  0
VERTEX
  8
0
  6
CONTINUOUS
 10
5.011160
 20
3.272720
  0
VERTEX
  8
0
  6
CONTINUOUS
 10
5.001920
 20
3.225640
  0
VERTEX
  8
0
  6
CONTINUOUS
 10
4.990040
 20
3.183840
  0
VERTEX
  8
0
  6
CONTINUOUS
 10
4.975080
 20
3.147320
  0
VERTEX
  8
0
  6
CONTINUOUS
 10
4.958360
 20
3.115640
  0
VERTEX
  8
0
  6
CONTINUOUS
 10
4.939440
 20
3.088800
  0
VERTEX
  8
0
  6
CONTINUOUS
 10
4.918320
 20
3.065920
  0
VERTEX
  8
0
  6
CONTINUOUS
 10
4.895440
 20
3.046560
  0
VERTEX
  8
0
  6
CONTINUOUS
 10
4.871240
 20
3.030720
  0
VERTEX
  8
0
  6
CONTINUOUS
 10
4.831640
 20
3.013120
  0
VERTEX
  8
0
  6
CONTINUOUS
 10
4.803920
 20
3.004320
  0
VERTEX
  8
0
  6
CONTINUOUS
 10
4.759920
 20
2.995080
  0
VERTEX
  8
0
  6
CONTINUOUS
 10
4.698760
 20
2.988920
  0
VERTEX
  8
0
  6
CONTINUOUS
 10
4.698760
 20
1.603360
  0
VERTEX
  8
0
  6
CONTINUOUS
 10
6.270440
 20
1.603360
  0
VERTEX
  8
0
  6
CONTINUOUS
 10
6.270440
 20
3.135440
  0
VERTEX
  8
0
  6
CONTINUOUS
 10
6.781280
 20
3.135440
  0
VERTEX
  8
0
  6
CONTINUOUS
 10
6.761480
 20
3.203200
  0
VERTEX
  8
0
  6
CONTINUOUS
 10
6.737280
 20
3.268320
  0
VERTEX
  8
0
  6
CONTINUOUS
 10
6.709120
 20
3.330800
  0
VERTEX
  8
0
  6
CONTINUOUS
 10
6.676560
 20
3.389760
  0
VERTEX
  8
0
  6
CONTINUOUS
 10
6.640480
 20
3.446080
  0
VERTEX
  8
0
  6
CONTINUOUS
 10
6.600880
 20
3.498880
  0
VERTEX
  8
0
  6
CONTINUOUS
 10
6.558200
 20
3.548160
  0
VERTEX
  8
0
  6
CONTINUOUS
 10
6.512440
 20
3.594360
  0
VERTEX
  8
0
  6
CONTINUOUS
 10
6.463600
 20
3.637040
  0
VERTEX
  8
0
  6
CONTINUOUS
 10
6.412560
 20
3.675760
  0
VERTEX
  8
0
  6
CONTINUOUS
 10
6.358880
 20
3.710960
  0
VERTEX
  8
0
  6
CONTINUOUS
 10
6.303000
 20
3.742200
  0
VERTEX
  8
0
  6
CONTINUOUS
 10
6.245800
 20
3.769480
  0
VERTEX
  8
0
  6
CONTINUOUS
 10
6.186400
 20
3.792360
  0
VERTEX
  8
0
  6
CONTINUOUS
 10
6.125680
 20
3.811720
  0
VERTEX
  8
0
  6
CONTINUOUS
 10
6.064080
 20
3.826240
  0
VERTEX
  8
0
  6
CONTINUOUS
 10
6.001160
 20
3.836360
  0
VERTEX
  8
0
  6
CONTINUOUS
 10
5.937800
 20
3.842080
  0
VERTEX
  8
0
  6
CONTINUOUS
 10
5.874000
 20
3.842960
  0
VERTEX
  8
0
  6
CONTINUOUS
 10
5.809760
 20
3.839440
  0
VERTEX
  8
0
  6
CONTINUOUS
 10
5.745520
 20
3.830640
  0
VERTEX
  8
0
  6
CONTINUOUS
 10
5.681720
 20
3.817440
  0
VERTEX
  8
0
  6
CONTINUOUS
 10
5.617920
 20
3.798520
  0
VERTEX
  8
0
  6
CONTINUOUS
 10
5.555000
 20
3.774760
  0
VERTEX
  8
0
  6
CONTINUOUS
 10
5.493400
 20
3.745720
  0
VERTEX
  8
0
  6
CONTINUOUS
 10
5.432240
 20
3.711400
  0
VERTEX
  8
0
  6
CONTINUOUS
 10
5.372840
 20
3.671360
  0
VERTEX
  8
0
  6
CONTINUOUS
 10
5.314760
 20
3.625600
  0
VERTEX
  8
0
  6
CONTINUOUS
 10
5.258880
 20
3.574560
  0
VERTEX
  8
0
  6
CONTINUOUS
 10
5.204760
 20
3.517360
  0
VERTEX
  8
0
  6
CONTINUOUS
 10
5.153280
 20
3.454000
  0
VERTEX
  8
0
  6
CONTINUOUS
 10
5.104000
 20
3.384920
  0
VERTEX
  8
0
  6
CONTINUOUS
 10
5.094760
 20
3.384920
  0
SEQEND
  8
0
  0
SOLID
  8
0
 62
    15
 10
4.363480
 20
2.766720
 11
4.361280
 21
3.527480
 12
4.439160
 22
2.658040
 13
4.436960
 23
3.418360
  0
POLYLINE
  8
0
  6
CONTINUOUS
 66
     1
 40
0.000000
 41
0.000000
  0
VERTEX
  8
0
  6
CONTINUOUS
 10
4.363480
 20
2.766720
  0
VERTEX
  8
0
  6
CONTINUOUS
 10
4.361280
 20
3.527480
  0
VERTEX
  8
0
  6
CONTINUOUS
 10
4.436960
 20
3.418360
  0
VERTEX
  8
0
  6
CONTINUOUS
 10
4.439160
 20
2.658040
  0
VERTEX
  8
0
  6
CONTINUOUS
 10
4.363480
 20
2.766720
  0
SEQEND
  8
0
  0
SOLID
  8
0
 62
    15
 10
2.967360
 20
2.785200
 11
2.965600
 21
3.545960
 12
3.077800
 22
2.893880
 13
3.075600
 23
3.654200
  0
POLYLINE
  8
0
  6
CONTINUOUS
 66
     1
 40
0.000000
 41
0.000000
  0
VERTEX
  8
0
  6
CONTINUOUS
 10
2.967360
 20
2.785200
  0
VERTEX
  8
0
  6
CONTINUOUS
 10
2.965600
 20
3.545960
  0
VERTEX
  8
0
  6
CONTINUOUS
 10
3.075600
 20
3.654200
  0
VERTEX
  8
0
  6
CONTINUOUS
 10
3.077800
 20
2.893880
  0
VERTEX
  8
0
  6
CONTINUOUS
 10
2.967360
 20
2.785200
  0
SEQEND
  8
0
  0
SOLID
  8
0
 62
    15
 10
3.077800
 20
2.893880
 11
3.075600
 21
3.654200
 12
3.194840
 22
2.979240
 13
3.193080
 23
3.740000
  0
POLYLINE
  8
0
  6
CONTINUOUS
 66
     1
 40
0.000000
 41
0.000000
  0
VERTEX
  8
0
  6
CONTINUOUS
 10
3.077800
 20
2.893880
  0
VERTEX
  8
0
  6
CONTINUOUS
 10
3.075600
 20
3.654200
  0
VERTEX
  8
0
  6
CONTINUOUS
 10
3.193080
 20
3.740000
  0
VERTEX
  8
0
  6
CONTINUOUS
 10
3.194840
 20
2.979240
  0
VERTEX
  8
0
  6
CONTINUOUS
 10
3.077800
 20
2.893880
  0
SEQEND
  8
0
  0
SOLID
  8
0
 62
    15
 10
3.194840
 20
2.979240
 11
3.193080
 21
3.740000
 12
3.318040
 22
3.043040
 13
3.315840
 23
3.803360
  0
POLYLINE
  8
0
  6
CONTINUOUS
 66
     1
 40
0.000000
 41
0.000000
  0
VERTEX
  8
0
  6
CONTINUOUS
 10
3.194840
 20
2.979240
  0
VERTEX
  8
0
  6
CONTINUOUS
 10
3.193080
 20
3.740000
  0
VERTEX
  8
0
  6
CONTINUOUS
 10
3.315840
 20
3.803360
  0
VERTEX
  8
0
  6
CONTINUOUS
 10
3.318040
 20
3.043040
  0
VERTEX
  8
0
  6
CONTINUOUS
 10
3.194840
 20
2.979240
  0
SEQEND
  8
0
  0
SOLID
  8
0
 62
    15
 10
3.318040
 20
3.043040
 11
3.315840
 21
3.803360
 12
3.444320
 22
3.085280
 13
3.442120
 23
3.846040
  0
POLYLINE
  8
0
  6
CONTINUOUS
 66
     1
 40
0.000000
 41
0.000000
  0
VERTEX
  8
0
  6
CONTINUOUS
 10
3.318040
 20
3.043040
  0
VERTEX
  8
0
  6
CONTINUOUS
 10
3.315840
 20
3.803360
  0
VERTEX
  8
0
  6
CONTINUOUS
 10
3.442120
 20
3.846040
  0
VERTEX
  8
0
  6
CONTINUOUS
 10
3.444320
 20
3.085280
  0
VERTEX
  8
0
  6
CONTINUOUS
 10
3.318040
 20
3.043040
  0
SEQEND
  8
0
  0
SOLID
  8
0
 62
    15
 10
3.444320
 20
3.085280
 11
3.442120
 21
3.846040
 12
3.572360
 22
3.107280
 13
3.570600
 23
3.868040
  0
POLYLINE
  8
0
  6
CONTINUOUS
 66
     1
 40
0.000000
 41
0.000000
  0
VERTEX
  8
0
  6
CONTINUOUS
 10
3.444320
 20
3.085280
  0
VERTEX
  8
0
  6
CONTINUOUS
 10
3.442120
 20
3.846040
  0
VERTEX
  8
0
  6
CONTINUOUS
 10
3.570600
 20
3.868040
  0
VERTEX
  8
0
  6
CONTINUOUS
 10
3.572360
 20
3.107280
  0
VERTEX
  8
0
  6
CONTINUOUS
 10
3.444320
 20
3.085280
  0
SEQEND
  8
0
  0
SOLID
  8
0
 62
    15
 10
3.572360
 20
3.107280
 11
3.570600
 21
3.868040
 12
3.700840
 22
3.109920
 13
3.698640
 23
3.870680
  0
POLYLINE
  8
0
  6
CONTINUOUS
 66
     1
 40
0.000000
 41
0.000000
  0
VERTEX
  8
0
  6
CONTINUOUS
 10
3.572360
 20
3.107280
  0
VERTEX
  8
0
  6
CONTINUOUS
 10
3.570600
 20
3.868040
  0
VERTEX
  8
0
  6
CONTINUOUS
 10
3.698640
 20
3.870680
  0
VERTEX
  8
0
  6
CONTINUOUS
 10
3.700840
 20
3.109920
  0
VERTEX
  8
0
  6
CONTINUOUS
 10
3.572360
 20
3.107280
  0
SEQEND
  8
0
  0
SOLID
  8
0
 62
    15
 10
3.700840
 20
3.109920
 11
3.698640
 21
3.870680
 12
3.826680
 22
3.094080
 13
3.824480
 23
3.854840
  0
POLYLINE
  8
0
  6
CONTINUOUS
 66
     1
 40
0.000000
 41
0.000000
  0
VERTEX
  8
0
  6
CONTINUOUS
 10
3.700840
 20
3.109920
  0
VERTEX
  8
0
  6
CONTINUOUS
 10
3.698640
 20
3.870680
  0
VERTEX
  8
0
  6
CONTINUOUS
 10
3.824480
 20
3.854840
  0
VERTEX
  8
0
  6
CONTINUOUS
 10
3.826680
 20
3.094080
  0
VERTEX
  8
0
  6
CONTINUOUS
 10
3.700840
 20
3.109920
  0
SEQEND
  8
0
  0
SOLID
  8
0
 62
    15
 10
3.826680
 20
3.094080
 11
3.824480
 21
3.854840
 12
3.949000
 22
3.060640
 13
3.946800
 23
3.821400
  0
POLYLINE
  8
0
  6
CONTINUOUS
 66
     1
 40
0.000000
 41
0.000000
  0
VERTEX
  8
0
  6
CONTINUOUS
 10
3.826680
 20
3.094080
  0
VERTEX
  8
0
  6
CONTINUOUS
 10
3.824480
 20
3.854840
  0
VERTEX
  8
0
  6
CONTINUOUS
 10
3.946800
 20
3.821400
  0
VERTEX
  8
0
  6
CONTINUOUS
 10
3.949000
 20
3.060640
  0
VERTEX
  8
0
  6
CONTINUOUS
 10
3.826680
 20
3.094080
  0
SEQEND
  8
0
  0
SOLID
  8
0
 62
    15
 10
3.949000
 20
3.060640
 11
3.946800
 21
3.821400
 12
4.066040
 22
3.010040
 13
4.063840
 23
3.770800
  0
POLYLINE
  8
0
  6
CONTINUOUS
 66
     1
 40
0.000000
 41
0.000000
  0
VERTEX
  8
0
  6
CONTINUOUS
 10
3.949000
 20
3.060640
  0
VERTEX
  8
0
  6
CONTINUOUS
 10
3.946800
 20
3.821400
  0
VERTEX
  8
0
  6
CONTINUOUS
 10
4.063840
 20
3.770800
  0
VERTEX
  8
0
  6
CONTINUOUS
 10
4.066040
 20
3.010040
  0
VERTEX
  8
0
  6
CONTINUOUS
 10
3.949000
 20
3.060640
  0
SEQEND
  8
0
  0
SOLID
  8
0
 62
    15
 10
4.066040
 20
3.010040
 11
4.063840
 21
3.770800
 12
4.175160
 22
2.944040
 13
4.172960
 23
3.704800
  0
POLYLINE
  8
0
  6
CONTINUOUS
 66
     1
 40
0.000000
 41
0.000000
  0
VERTEX
  8
0
  6
CONTINUOUS
 10
4.066040
 20
3.010040
  0
VERTEX
  8
0
  6
CONTINUOUS
 10
4.063840
 20
3.770800
  0
VERTEX
  8
0
  6
CONTINUOUS
 10
4.172960
 20
3.704800
  0
VERTEX
  8
0
  6
CONTINUOUS
 10
4.175160
 20
2.944040
  0
VERTEX
  8
0
  6
CONTINUOUS
 10
4.066040
 20
3.010040
  0
SEQEND
  8
0
  0
SOLID
  8
0
 62
    15
 10
4.175160
 20
2.944040
 11
4.172960
 21
3.704800
 12
4.275040
 22
2.862640
 13
4.272840
 23
3.622960
  0
POLYLINE
  8
0
  6
CONTINUOUS
 66
     1
 40
0.000000
 41
0.000000
  0
VERTEX
  8
0
  6
CONTINUOUS
 10
4.175160
 20
2.944040
  0
VERTEX
  8
0
  6
CONTINUOUS
 10
4.172960
 20
3.704800
  0
VERTEX
  8
0
  6
CONTINUOUS
 10
4.272840
 20
3.622960
  0
VERTEX
  8
0
  6
CONTINUOUS
 10
4.275040
 20
2.862640
  0
VERTEX
  8
0
  6
CONTINUOUS
 10
4.175160
 20
2.944040
  0
SEQEND
  8
0
  0
SOLID
  8
0
 62
    15
 10
4.275040
 20
2.862640
 11
4.272840
 21
3.622960
 12
4.363480
 22
2.766720
 13
4.361280
 23
3.527480
  0
POLYLINE
  8
0
  6
CONTINUOUS
 66
     1
 40
0.000000
 41
0.000000
  0
VERTEX
  8
0
  6
CONTINUOUS
 10
4.275040
 20
2.862640
  0
VERTEX
  8
0
  6
CONTINUOUS
 10
4.272840
 20
3.622960
  0
VERTEX
  8
0
  6
CONTINUOUS
 10
4.361280
 20
3.527480
  0
VERTEX
  8
0
  6
CONTINUOUS
 10
4.363480
 20
2.766720
  0
VERTEX
  8
0
  6
CONTINUOUS
 10
4.275040
 20
2.862640
  0
SEQEND
  8
0
  0
SOLID
  8
0
 62
    15
 10
2.866600
 20
2.652760
 11
2.864400
 21
3.413520
 12
2.967360
 22
2.785200
 13
2.965600
 23
3.545960
  0
POLYLINE
  8
0
  6
CONTINUOUS
 66
     1
 40
0.000000
 41
0.000000
  0
VERTEX
  8
0
  6
CONTINUOUS
 10
2.866600
 20
2.652760
  0
VERTEX
  8
0
  6
CONTINUOUS
 10
2.864400
 20
3.413520
  0
VERTEX
  8
0
  6
CONTINUOUS
 10
2.965600
 20
3.545960
  0
VERTEX
  8
0
  6
CONTINUOUS
 10
2.967360
 20
2.785200
  0
VERTEX
  8
0
  6
CONTINUOUS
 10
2.866600
 20
2.652760
  0
SEQEND
  8
0
  0
SOLID
  8
0
 62
    15
 10
4.439160
 20
2.658040
 11
4.436960
 21
3.418360
 12
4.499880
 22
2.536600
 13
4.497680
 23
3.297360
  0
POLYLINE
  8
0
  6
CONTINUOUS
 66
     1
 40
0.000000
 41
0.000000
  0
VERTEX
  8
0
  6
CONTINUOUS
 10
4.439160
 20
2.658040
  0
VERTEX
  8
0
  6
CONTINUOUS
 10
4.436960
 20
3.418360
  0
VERTEX
  8
0
  6
CONTINUOUS
 10
4.497680
 20
3.297360
  0
VERTEX
  8
0
  6
CONTINUOUS
 10
4.499880
 20
2.536600
  0
VERTEX
  8
0
  6
CONTINUOUS
 10
4.439160
 20
2.658040
  0
SEQEND
  8
0
  0
SOLID
  8
0
 62
    15
 10
4.499880
 20
2.536600
 11
4.497680
 21
3.297360
 12
4.543880
 22
2.403280
 13
4.541680
 23
3.164040
  0
POLYLINE
  8
0
  6
CONTINUOUS
 66
     1
 40
0.000000
 41
0.000000
  0
VERTEX
  8
0
  6
CONTINUOUS
 10
4.499880
 20
2.536600
  0
VERTEX
  8
0
  6
CONTINUOUS
 10
4.497680
 20
3.297360
  0
VERTEX
  8
0
  6
CONTINUOUS
 10
4.541680
 20
3.164040
  0
VERTEX
  8
0
  6
CONTINUOUS
 10
4.543880
 20
2.403280
  0
VERTEX
  8
0
  6
CONTINUOUS
 10
4.499880
 20
2.536600
  0
SEQEND
  8
0
  0
SOLID
  8
0
 62
    15
 10
2.461360
 20
0.871640
 11
2.459160
 21
1.631960
 12
2.461360
 22
2.256760
 13
2.459160
 23
3.017520
  0
POLYLINE
  8
0
  6
CONTINUOUS
 66
     1
 40
0.000000
 41
0.000000
  0
VERTEX
  8
0
  6
CONTINUOUS
 10
2.461360
 20
0.871640
  0
VERTEX
  8
0
  6
CONTINUOUS
 10
2.459160
 20
1.631960
  0
VERTEX
  8
0
  6
CONTINUOUS
 10
2.459160
 20
3.017520
  0
VERTEX
  8
0
  6
CONTINUOUS
 10
2.461360
 20
2.256760
  0
VERTEX
  8
0
  6
CONTINUOUS
 10
2.461360
 20
0.871640
  0
SEQEND
  8
0
  0
SOLID
  8
0
 62
    15
 10
2.461360
 20
2.256760
 11
2.459160
 21
3.017520
 12
2.580600
 22
2.276120
 13
2.578400
 23
3.036880
  0
POLYLINE
  8
0
  6
CONTINUOUS
 66
     1
 40
0.000000
 41
0.000000
  0
VERTEX
  8
0
  6
CONTINUOUS
 10
2.461360
 20
2.256760
  0
VERTEX
  8
0
  6
CONTINUOUS
 10
2.459160
 20
3.017520
  0
VERTEX
  8
0
  6
CONTINUOUS
 10
2.578400
 20
3.036880
  0
VERTEX
  8
0
  6
CONTINUOUS
 10
2.580600
 20
2.276120
  0
VERTEX
  8
0
  6
CONTINUOUS
 10
2.461360
 20
2.256760
  0
SEQEND
  8
0
  0
SOLID
  8
0
 62
    15
 10
2.580600
 20
2.276120
 11
2.578400
 21
3.036880
 12
2.633840
 22
2.299000
 13
2.631640
 23
3.059760
  0
POLYLINE
  8
0
  6
CONTINUOUS
 66
     1
 40
0.000000
 41
0.000000
  0
VERTEX
  8
0
  6
CONTINUOUS
 10
2.580600
 20
2.276120
  0
VERTEX
  8
0
  6
CONTINUOUS
 10
2.578400
 20
3.036880
  0
VERTEX
  8
0
  6
CONTINUOUS
 10
2.631640
 20
3.059760
  0
VERTEX
  8
0
  6
CONTINUOUS
 10
2.633840
 20
2.299000
  0
VERTEX
  8
0
  6
CONTINUOUS
 10
2.580600
 20
2.276120
  0
SEQEND
  8
0
  0
SOLID
  8
0
 62
    15
 10
2.633840
 20
2.299000
 11
2.631640
 21
3.059760
 12
2.681360
 22
2.333760
 13
2.679160
 23
3.094520
  0
POLYLINE
  8
0
  6
CONTINUOUS
 66
     1
 40
0.000000
 41
0.000000
  0
VERTEX
  8
0
  6
CONTINUOUS
 10
2.633840
 20
2.299000
  0
VERTEX
  8
0
  6
CONTINUOUS
 10
2.631640
 20
3.059760
  0
VERTEX
  8
0
  6
CONTINUOUS
 10
2.679160
 20
3.094520
  0
VERTEX
  8
0
  6
CONTINUOUS
 10
2.681360
 20
2.333760
  0
VERTEX
  8
0
  6
CONTINUOUS
 10
2.633840
 20
2.299000
  0
SEQEND
  8
0
  0
SOLID
  8
0
 62
    15
 10
2.681360
 20
2.333760
 11
2.679160
 21
3.094520
 12
2.721400
 22
2.383920
 13
2.719200
 23
3.144680
  0
POLYLINE
  8
0
  6
CONTINUOUS
 66
     1
 40
0.000000
 41
0.000000
  0
VERTEX
  8
0
  6
CONTINUOUS
 10
2.681360
 20
2.333760
  0
VERTEX
  8
0
  6
CONTINUOUS
 10
2.679160
 20
3.094520
  0
VERTEX
  8
0
  6
CONTINUOUS
 10
2.719200
 20
3.144680
  0
VERTEX
  8
0
  6
CONTINUOUS
 10
2.721400
 20
2.383920
  0
VERTEX
  8
0
  6
CONTINUOUS
 10
2.681360
 20
2.333760
  0
SEQEND
  8
0
  0
SOLID
  8
0
 62
    15
 10
2.721400
 20
2.383920
 11
2.719200
 21
3.144680
 12
2.752640
 22
2.451680
 13
2.750440
 23
3.212440
  0
POLYLINE
  8
0
  6
CONTINUOUS
 66
     1
 40
0.000000
 41
0.000000
  0
VERTEX
  8
0
  6
CONTINUOUS
 10
2.721400
 20
2.383920
  0
VERTEX
  8
0
  6
CONTINUOUS
 10
2.719200
 20
3.144680
  0
VERTEX
  8
0
  6
CONTINUOUS
 10
2.750440
 20
3.212440
  0
VERTEX
  8
0
  6
CONTINUOUS
 10
2.752640
 20
2.451680
  0
VERTEX
  8
0
  6
CONTINUOUS
 10
2.721400
 20
2.383920
  0
SEQEND
  8
0
  0
SOLID
  8
0
 62
    15
 10
2.752640
 20
2.451680
 11
2.750440
 21
3.212440
 12
2.773760
 22
2.540560
 13
2.771560
 23
3.301320
  0
POLYLINE
  8
0
  6
CONTINUOUS
 66
     1
 40
0.000000
 41
0.000000
  0
VERTEX
  8
0
  6
CONTINUOUS
 10
2.752640
 20
2.451680
  0
VERTEX
  8
0
  6
CONTINUOUS
 10
2.750440
 20
3.212440
  0
VERTEX
  8
0
  6
CONTINUOUS
 10
2.771560
 20
3.301320
  0
VERTEX
  8
0
  6
CONTINUOUS
 10
2.773760
 20
2.540560
  0
VERTEX
  8
0
  6
CONTINUOUS
 10
2.752640
 20
2.451680
  0
SEQEND
  8
0
  0
SOLID
  8
0
 62
    15
 10
2.773760
 20
2.540560
 11
2.771560
 21
3.301320
 12
2.783880
 22
2.652760
 13
2.781680
 23
3.413520
  0
POLYLINE
  8
0
  6
CONTINUOUS
 66
     1
 40
0.000000
 41
0.000000
  0
VERTEX
  8
0
  6
CONTINUOUS
 10
2.773760
 20
2.540560
  0
VERTEX
  8
0
  6
CONTINUOUS
 10
2.771560
 20
3.301320
  0
VERTEX
  8
0
  6
CONTINUOUS
 10
2.781680
 20
3.413520
  0
VERTEX
  8
0
  6
CONTINUOUS
 10
2.783880
 20
2.652760
  0
VERTEX
  8
0
  6
CONTINUOUS
 10
2.773760
 20
2.540560
  0
SEQEND
  8
0
  0
SOLID
  8
0
 62
    15
 10
2.783880
 20
2.652760
 11
2.781680
 21
3.413520
 12
2.857360
 22
2.652760
 13
2.855160
 23
3.413520
  0
POLYLINE
  8
0
  6
CONTINUOUS
 66
     1
 40
0.000000
 41
0.000000
  0
VERTEX
  8
0
  6
CONTINUOUS
 10
2.783880
 20
2.652760
  0
VERTEX
  8
0
  6
CONTINUOUS
 10
2.781680
 20
3.413520
  0
VERTEX
  8
0
  6
CONTINUOUS
 10
2.855160
 20
3.413520
  0
VERTEX
  8
0
  6
CONTINUOUS
 10
2.857360
 20
2.652760
  0
VERTEX
  8
0
  6
CONTINUOUS
 10
2.783880
 20
2.652760
  0
SEQEND
  8
0
  0
SOLID
  8
0
 62
    15
 10
2.857360
 20
2.652760
 11
2.855160
 21
3.413520
 12
2.866600
 22
2.652760
 13
2.864400
 23
3.413520
  0
POLYLINE
  8
0
  6
CONTINUOUS
 66
     1
 40
0.000000
 41
0.000000
  0
VERTEX
  8
0
  6
CONTINUOUS
 10
2.857360
 20
2.652760
  0
VERTEX
  8
0
  6
CONTINUOUS
 10
2.855160
 20
3.413520
  0
VERTEX
  8
0
  6
CONTINUOUS
 10
2.864400
 20
3.413520
  0
VERTEX
  8
0
  6
CONTINUOUS
 10
2.866600
 20
2.652760
  0
VERTEX
  8
0
  6
CONTINUOUS
 10
2.857360
 20
2.652760
  0
SEQEND
  8
0
  0
POLYLINE
  8
0
  6
CONTINUOUS
 66
     1
 40
0.000000
 41
0.000000
  0
VERTEX
  8
0
  6
CONTINUOUS
 10
2.866600
 20
2.652760
  0
VERTEX
  8
0
  6
CONTINUOUS
 10
2.967360
 20
2.785200
  0
VERTEX
  8
0
  6
CONTINUOUS
 10
3.077800
 20
2.893880
  0
VERTEX
  8
0
  6
CONTINUOUS
 10
3.194840
 20
2.979240
  0
VERTEX
  8
0
  6
CONTINUOUS
 10
3.318040
 20
3.043040
  0
VERTEX
  8
0
  6
CONTINUOUS
 10
3.444320
 20
3.085280
  0
VERTEX
  8
0
  6
CONTINUOUS
 10
3.572360
 20
3.107280
  0
VERTEX
  8
0
  6
CONTINUOUS
 10
3.700840
 20
3.109920
  0
VERTEX
  8
0
  6
CONTINUOUS
 10
3.826680
 20
3.094080
  0
VERTEX
  8
0
  6
CONTINUOUS
 10
3.949000
 20
3.060640
  0
VERTEX
  8
0
  6
CONTINUOUS
 10
4.066040
 20
3.010040
  0
VERTEX
  8
0
  6
CONTINUOUS
 10
4.175160
 20
2.944040
  0
VERTEX
  8
0
  6
CONTINUOUS
 10
4.275040
 20
2.862640
  0
VERTEX
  8
0
  6
CONTINUOUS
 10
4.363480
 20
2.766720
  0
VERTEX
  8
0
  6
CONTINUOUS
 10
4.439160
 20
2.658040
  0
VERTEX
  8
0
  6
CONTINUOUS
 10
4.499880
 20
2.536600
  0
VERTEX
  8
0
  6
CONTINUOUS
 10
4.543880
 20
2.403280
  0
VERTEX
  8
0
  6
CONTINUOUS
 10
4.033480
 20
2.403280
  0
VERTEX
  8
0
  6
CONTINUOUS
 10
4.033480
 20
0.871640
  0
VERTEX
  8
0
  6
CONTINUOUS
 10
2.461360
 20
0.871640
  0
VERTEX
  8
0
  6
CONTINUOUS
 10
2.461360
 20
2.256760
  0
VERTEX
  8
0
  6
CONTINUOUS
 10
2.580600
 20
2.276120
  0
VERTEX
  8
0
  6
CONTINUOUS
 10
2.633840
 20
2.299000
  0
VERTEX
  8
0
  6
CONTINUOUS
 10
2.681360
 20
2.333760
  0
VERTEX
  8
0
  6
CONTINUOUS
 10
2.721400
 20
2.383920
  0
VERTEX
  8
0
  6
CONTINUOUS
 10
2.752640
 20
2.451680
  0
VERTEX
  8
0
  6
CONTINUOUS
 10
2.773760
 20
2.540560
  0
VERTEX
  8
0
  6
CONTINUOUS
 10
2.783880
 20
2.652760
  0
VERTEX
  8
0
  6
CONTINUOUS
 10
2.857360
 20
2.652760
  0
VERTEX
  8
0
  6
CONTINUOUS
 10
2.866600
 20
2.652760
  0
SEQEND
  8
0
  0
TEXT
  8
0
 10
3.207160
 20
0.602800
 40
0.138142
  1
BA  288
 41
1.000000
  7
SN0
 71
     0
 72
     5
 11
3.797655
 21
0.602800
  0
TEXT
  8
0
 10
2.931280
 20
0.410960
 40
0.138142
  1
2-1/4" x 2-1/16"
 41
1.000000
  7
SN0
 71
     0
 72
     5
 11
4.072139
 21
0.410960
  0
TEXT
  8
0
 10
7.152200
 20
3.665200
 40
0.138142
  1
back band
 41
1.000000
  7
SN0
 71
     0
 72
     5
 11
7.917959
 21
3.665200
  0
TEXT
  8
0
 10
7.396840
 20
3.473360
 40
0.138142
  1
288
 41
1.000000
  7
SN0
 71
     0
 72
     5
 11
7.673933
 21
3.473360
  0
ENDSEC
  0
EOF
