  0
SECTION
  2
HEADER
  9
$ACADVER
  1
AC1006
  9
$EXTMIN
 10
4.111800
 20
0.446160
  9
$EXTMAX
 10
8.079280
 20
4.332680
  9
$LTSCALE
 40
0.044000
  9
$PDMODE
 70
    35
  9
$PDSIZE
 40
0.035200
  0
ENDSEC
  0
SECTION
  2
TABLES
  0
TABLE
  2
LTYPE
 70
     9
  0
LTYPE
  2
CONTINUOUS
 70
    64
  3
Solid line
 72
    65
 73
     0
 40
0.000000
  0
LTYPE
  2
DASHED
 70
    64
  3
__ __ __ __ __ __ __ __ __ __ __ __ __ __ __
 72
    65
 73
     2
 40
0.000330
 49
0.000220
 49
-0.000110
  0
LTYPE
  2
HIDDEN
 70
    64
  3
 _ _ _ _ _ _ _ _ _ _ _ _ _ _ _ _ _ _ _ _ _ _
 72
    65
 73
     2
 40
0.000165
 49
0.000110
 49
-0.000055
  0
LTYPE
  2
CENTER
 70
    64
  3
____ _ ____ _ ____ _ ____ _ ____ _ ____ _ ____
 72
    65
 73
     4
 40
0.000880
 49
0.000550
 49
-0.000110
 49
0.000110
 49
-0.000110
  0
LTYPE
  2
PHANTOM
 70
    64
  3
_____ _ _ _____ _ _ _____ _ _ _____ _ _ ____
 72
    65
 73
     6
 40
0.001100
 49
0.000550
 49
-0.000110
 49
0.000110
 49
-0.000110
 49
0.000110
 49
-0.000110
  0
LTYPE
  2
DOT
 70
    64
  3
...............................................
 72
    65
 73
     2
 40
0.000110
 49
0.000000
 49
-0.000110
  0
LTYPE
  2
DASHDOT
 70
    64
  3
__ . __ . __ . __ . __ . __ . __ . __ . __ . __
 72
    65
 73
     4
 40
0.000440
 49
0.000220
 49
-0.000110
 49
0.000000
 49
-0.000110
  0
LTYPE
  2
BORDER
 70
    64
  3
__ __ . __ __ . __ __ . __ __ . __ __ . __ __
 72
    65
 73
     6
 40
0.000770
 49
0.000220
 49
-0.000110
 49
0.000220
 49
-0.000110
 49
0.000000
 49
-0.000110
  0
LTYPE
  2
DIVIDE
 70
    64
  3
__ . . __ . . __ . . __ . . __ . . __ . . __
 72
    65
 73
     6
 40
0.000550
 49
0.000220
 49
-0.000110
 49
0.000000
 49
-0.000110
 49
0.000000
 49
-0.000110
  0
LTYPE
  2
DOTDOT
 70
    64
  3
 . .  . .  . .  . .  . .  . . 
 72
    65
 73
     5
 40
0.000242
 49
-0.000110
 49
0.000000
 49
-0.000110
 49
0.000000
 49
-0.000110
  0
ENDTAB
  0
TABLE
  2
STYLE
 70
     2
  0
STYLE
 70
     0
  2
SN0
 40
0.000000
 41
0.000440
 50
0.000000
 71
     0
 42
0.000000
  3
ROMAND
  0
STYLE
 70
    68
  2
SV0
 40
0.000000
 41
0.000440
 50
0.000000
 71
     0
 42
0.000000
  3
ROMAND
  0
ENDTAB
  0
TABLE
  2
LAYER
 70
     3
  0
LAYER
  2
FOREGROUND
 70
    64
 62
     7
  6
CONTINUOUS
  0
LAYER
  2
BACKGROUND
 70
    65
 62
    -7
  6
CONTINUOUS
  0
LAYER
  2
0
 70
    64
 62
     7
  6
CONTINUOUS
  0
ENDTAB
  0
ENDSEC
  0
SECTION
  2
ENTITIES
  0
POLYLINE
  8
FOREGROUND
  6
CONTINUOUS
 66
     1
 40
0.000000
 41
0.000000
  0
VERTEX
  8
FOREGROUND
  6
CONTINUOUS
 10
0.000000
 20
4.778840
  0
VERTEX
  8
FOREGROUND
  6
CONTINUOUS
 10
8.499920
 20
4.778840
  0
VERTEX
  8
FOREGROUND
  6
CONTINUOUS
 10
8.499920
 20
-6.221160
  0
VERTEX
  8
FOREGROUND
  6
CONTINUOUS
 10
0.000000
 20
-6.221160
  0
VERTEX
  8
FOREGROUND
  6
CONTINUOUS
 10
0.000000
 20
4.778840
  0
SEQEND
  8
0
  0
POLYLINE
  8
FOREGROUND
  6
CONTINUOUS
 66
     1
 40
0.000000
 41
0.000000
  0
VERTEX
  8
FOREGROUND
  6
CONTINUOUS
 10
0.000000
 20
4.778840
  0
VERTEX
  8
FOREGROUND
  6
CONTINUOUS
 10
8.499920
 20
4.778840
  0
VERTEX
  8
FOREGROUND
  6
CONTINUOUS
 10
8.499920
 20
-6.221160
  0
VERTEX
  8
FOREGROUND
  6
CONTINUOUS
 10
0.000000
 20
-6.221160
  0
VERTEX
  8
FOREGROUND
  6
CONTINUOUS
 10
0.000000
 20
4.778840
  0
SEQEND
  8
0
  0
POLYLINE
  8
0
  6
CONTINUOUS
 66
     1
 40
0.013200
 41
0.013200
  0
VERTEX
  8
0
  6
CONTINUOUS
 10
6.756640
 20
1.467840
  0
VERTEX
  8
0
  6
CONTINUOUS
 10
6.756640
 20
1.341120
  0
VERTEX
  8
0
  6
CONTINUOUS
 10
6.228640
 20
1.341120
  0
VERTEX
  8
0
  6
CONTINUOUS
 10
6.228640
 20
4.331800
  0
VERTEX
  8
0
  6
CONTINUOUS
 10
6.431480
 20
4.331800
  0
VERTEX
  8
0
  6
CONTINUOUS
 10
6.432800
 20
4.330480
  0
VERTEX
  8
0
  6
CONTINUOUS
 10
6.435880
 20
4.279000
  0
VERTEX
  8
0
  6
CONTINUOUS
 10
6.439840
 20
4.252160
  0
VERTEX
  8
0
  6
CONTINUOUS
 10
6.452600
 20
4.196720
  0
VERTEX
  8
0
  6
CONTINUOUS
 10
6.461400
 20
4.169000
  0
VERTEX
  8
0
  6
CONTINUOUS
 10
6.471960
 20
4.141720
  0
VERTEX
  8
0
  6
CONTINUOUS
 10
6.497480
 20
4.090240
  0
VERTEX
  8
0
  6
CONTINUOUS
 10
6.529600
 20
4.044040
  0
VERTEX
  8
0
  6
CONTINUOUS
 10
6.558200
 20
4.015000
  0
VERTEX
  8
0
  6
CONTINUOUS
 10
6.589880
 20
3.992120
  0
VERTEX
  8
0
  6
CONTINUOUS
 10
6.613200
 20
3.980240
  0
VERTEX
  8
0
  6
CONTINUOUS
 10
6.638280
 20
3.971880
  0
VERTEX
  8
0
  6
CONTINUOUS
 10
6.640920
 20
3.969240
  0
VERTEX
  8
0
  6
CONTINUOUS
 10
6.640920
 20
3.762440
  0
VERTEX
  8
0
  6
CONTINUOUS
 10
6.666000
 20
3.759800
  0
VERTEX
  8
0
  6
CONTINUOUS
 10
6.690200
 20
3.754520
  0
VERTEX
  8
0
  6
CONTINUOUS
 10
6.713520
 20
3.747040
  0
VERTEX
  8
0
  6
CONTINUOUS
 10
6.735960
 20
3.737800
  0
VERTEX
  8
0
  6
CONTINUOUS
 10
6.757520
 20
3.725920
  0
VERTEX
  8
0
  6
CONTINUOUS
 10
6.777760
 20
3.712720
  0
VERTEX
  8
0
  6
CONTINUOUS
 10
6.796680
 20
3.697320
  0
VERTEX
  8
0
  6
CONTINUOUS
 10
6.813840
 20
3.680160
  0
VERTEX
  8
0
  6
CONTINUOUS
 10
6.829680
 20
3.661680
  0
VERTEX
  8
0
  6
CONTINUOUS
 10
6.843760
 20
3.641880
  0
VERTEX
  8
0
  6
CONTINUOUS
 10
6.856080
 20
3.620760
  0
VERTEX
  8
0
  6
CONTINUOUS
 10
6.866640
 20
3.598320
  0
VERTEX
  8
0
  6
CONTINUOUS
 10
6.878080
 20
3.563120
  0
VERTEX
  8
0
  6
CONTINUOUS
 10
6.883360
 20
3.538480
  0
VERTEX
  8
0
  6
CONTINUOUS
 10
6.886000
 20
3.500200
  0
VERTEX
  8
0
  6
CONTINUOUS
 10
6.884240
 20
3.473360
  0
VERTEX
  8
0
  6
CONTINUOUS
 10
6.879400
 20
3.447400
  0
VERTEX
  8
0
  6
CONTINUOUS
 10
6.866640
 20
3.410000
  0
VERTEX
  8
0
  6
CONTINUOUS
 10
6.847720
 20
3.375240
  0
VERTEX
  8
0
  6
CONTINUOUS
 10
6.832320
 20
3.353680
  0
VERTEX
  8
0
  6
CONTINUOUS
 10
6.814720
 20
3.333440
  0
VERTEX
  8
0
  6
CONTINUOUS
 10
6.795360
 20
3.314520
  0
VERTEX
  8
0
  6
CONTINUOUS
 10
6.774240
 20
3.297800
  0
VERTEX
  8
0
  6
CONTINUOUS
 10
6.751800
 20
3.282400
  0
VERTEX
  8
0
  6
CONTINUOUS
 10
6.727600
 20
3.269200
  0
VERTEX
  8
0
  6
CONTINUOUS
 10
6.702960
 20
3.258200
  0
VERTEX
  8
0
  6
CONTINUOUS
 10
6.663800
 20
3.245880
  0
VERTEX
  8
0
  6
CONTINUOUS
 10
6.623760
 20
3.238840
  0
VERTEX
  8
0
  6
CONTINUOUS
 10
6.596920
 20
3.237520
  0
VERTEX
  8
0
  6
CONTINUOUS
 10
6.596040
 20
3.136320
  0
VERTEX
  8
0
  6
CONTINUOUS
 10
6.600000
 20
3.040840
  0
VERTEX
  8
0
  6
CONTINUOUS
 10
6.604400
 20
2.979680
  0
VERTEX
  8
0
  6
CONTINUOUS
 10
6.614520
 20
2.892560
  0
VERTEX
  8
0
  6
CONTINUOUS
 10
6.628160
 20
2.810720
  0
VERTEX
  8
0
  6
CONTINUOUS
 10
6.645320
 20
2.733720
  0
VERTEX
  8
0
  6
CONTINUOUS
 10
6.665120
 20
2.662440
  0
VERTEX
  8
0
  6
CONTINUOUS
 10
6.687560
 20
2.596000
  0
VERTEX
  8
0
  6
CONTINUOUS
 10
6.721000
 20
2.515920
  0
VERTEX
  8
0
  6
CONTINUOUS
 10
6.748280
 20
2.462240
  0
VERTEX
  8
0
  6
CONTINUOUS
 10
6.845960
 20
2.296360
  0
VERTEX
  8
0
  6
CONTINUOUS
 10
6.908880
 20
2.175360
  0
VERTEX
  8
0
  6
CONTINUOUS
 10
6.947160
 20
2.091760
  0
VERTEX
  8
0
  6
CONTINUOUS
 10
6.977520
 20
2.014320
  0
VERTEX
  8
0
  6
CONTINUOUS
 10
7.001280
 20
1.943040
  0
VERTEX
  8
0
  6
CONTINUOUS
 10
7.018000
 20
1.877040
  0
VERTEX
  8
0
  6
CONTINUOUS
 10
7.029000
 20
1.817200
  0
VERTEX
  8
0
  6
CONTINUOUS
 10
7.033400
 20
1.762640
  0
VERTEX
  8
0
  6
CONTINUOUS
 10
7.033840
 20
1.729200
  0
VERTEX
  8
0
  6
CONTINUOUS
 10
7.029880
 20
1.683440
  0
VERTEX
  8
0
  6
CONTINUOUS
 10
7.021080
 20
1.642080
  0
VERTEX
  8
0
  6
CONTINUOUS
 10
7.007880
 20
1.606000
  0
VERTEX
  8
0
  6
CONTINUOUS
 10
6.990720
 20
1.574760
  0
VERTEX
  8
0
  6
CONTINUOUS
 10
6.977520
 20
1.555840
  0
VERTEX
  8
0
  6
CONTINUOUS
 10
6.946720
 20
1.524600
  0
VERTEX
  8
0
  6
CONTINUOUS
 10
6.929560
 20
1.511840
  0
VERTEX
  8
0
  6
CONTINUOUS
 10
6.911080
 20
1.500400
  0
VERTEX
  8
0
  6
CONTINUOUS
 10
6.871480
 20
1.483240
  0
VERTEX
  8
0
  6
CONTINUOUS
 10
6.850800
 20
1.477080
  0
VERTEX
  8
0
  6
CONTINUOUS
 10
6.807240
 20
1.469600
  0
VERTEX
  8
0
  6
CONTINUOUS
 10
6.784800
 20
1.467840
  0
VERTEX
  8
0
  6
CONTINUOUS
 10
6.756640
 20
1.467840
  0
SEQEND
  8
0
  0
SOLID
  8
0
 62
    15
 10
4.480520
 20
2.819080
 11
5.121600
 21
3.184720
 12
4.480520
 22
2.685760
 13
5.121600
 23
3.051400
  0
POLYLINE
  8
0
  6
CONTINUOUS
 66
     1
 40
0.000000
 41
0.000000
  0
VERTEX
  8
0
  6
CONTINUOUS
 10
4.480520
 20
2.819080
  0
VERTEX
  8
0
  6
CONTINUOUS
 10
5.121600
 20
3.184720
  0
VERTEX
  8
0
  6
CONTINUOUS
 10
5.121600
 20
3.051400
  0
VERTEX
  8
0
  6
CONTINUOUS
 10
4.480520
 20
2.685760
  0
VERTEX
  8
0
  6
CONTINUOUS
 10
4.480520
 20
2.819080
  0
SEQEND
  8
0
  0
SOLID
  8
0
 62
    15
 10
4.112240
 20
3.913800
 11
4.753760
 21
4.279440
 12
4.315080
 22
3.913800
 13
4.956160
 23
4.279440
  0
POLYLINE
  8
0
  6
CONTINUOUS
 66
     1
 40
0.000000
 41
0.000000
  0
VERTEX
  8
0
  6
CONTINUOUS
 10
4.112240
 20
3.913800
  0
VERTEX
  8
0
  6
CONTINUOUS
 10
4.753760
 20
4.279440
  0
VERTEX
  8
0
  6
CONTINUOUS
 10
4.956160
 20
4.279440
  0
VERTEX
  8
0
  6
CONTINUOUS
 10
4.315080
 20
3.913800
  0
VERTEX
  8
0
  6
CONTINUOUS
 10
4.112240
 20
3.913800
  0
SEQEND
  8
0
  0
SOLID
  8
0
 62
    15
 10
4.315080
 20
3.913800
 11
4.956160
 21
4.279440
 12
4.316400
 22
3.912480
 13
4.957480
 23
4.278120
  0
POLYLINE
  8
0
  6
CONTINUOUS
 66
     1
 40
0.000000
 41
0.000000
  0
VERTEX
  8
0
  6
CONTINUOUS
 10
4.315080
 20
3.913800
  0
VERTEX
  8
0
  6
CONTINUOUS
 10
4.956160
 20
4.279440
  0
VERTEX
  8
0
  6
CONTINUOUS
 10
4.957480
 20
4.278120
  0
VERTEX
  8
0
  6
CONTINUOUS
 10
4.316400
 20
3.912480
  0
VERTEX
  8
0
  6
CONTINUOUS
 10
4.315080
 20
3.913800
  0
SEQEND
  8
0
  0
SOLID
  8
0
 62
    15
 10
4.316400
 20
3.912480
 11
4.957480
 21
4.278120
 12
4.319480
 22
3.861000
 13
4.960560
 23
4.226640
  0
POLYLINE
  8
0
  6
CONTINUOUS
 66
     1
 40
0.000000
 41
0.000000
  0
VERTEX
  8
0
  6
CONTINUOUS
 10
4.316400
 20
3.912480
  0
VERTEX
  8
0
  6
CONTINUOUS
 10
4.957480
 20
4.278120
  0
VERTEX
  8
0
  6
CONTINUOUS
 10
4.960560
 20
4.226640
  0
VERTEX
  8
0
  6
CONTINUOUS
 10
4.319480
 20
3.861000
  0
VERTEX
  8
0
  6
CONTINUOUS
 10
4.316400
 20
3.912480
  0
SEQEND
  8
0
  0
SOLID
  8
0
 62
    15
 10
4.319480
 20
3.861000
 11
4.960560
 21
4.226640
 12
4.329160
 22
3.806440
 13
4.970240
 23
4.172080
  0
POLYLINE
  8
0
  6
CONTINUOUS
 66
     1
 40
0.000000
 41
0.000000
  0
VERTEX
  8
0
  6
CONTINUOUS
 10
4.319480
 20
3.861000
  0
VERTEX
  8
0
  6
CONTINUOUS
 10
4.960560
 20
4.226640
  0
VERTEX
  8
0
  6
CONTINUOUS
 10
4.970240
 20
4.172080
  0
VERTEX
  8
0
  6
CONTINUOUS
 10
4.329160
 20
3.806440
  0
VERTEX
  8
0
  6
CONTINUOUS
 10
4.319480
 20
3.861000
  0
SEQEND
  8
0
  0
SOLID
  8
0
 62
    15
 10
4.329160
 20
3.806440
 11
4.970240
 21
4.172080
 12
4.345000
 22
3.751000
 13
4.986080
 23
4.116640
  0
POLYLINE
  8
0
  6
CONTINUOUS
 66
     1
 40
0.000000
 41
0.000000
  0
VERTEX
  8
0
  6
CONTINUOUS
 10
4.329160
 20
3.806440
  0
VERTEX
  8
0
  6
CONTINUOUS
 10
4.970240
 20
4.172080
  0
VERTEX
  8
0
  6
CONTINUOUS
 10
4.986080
 20
4.116640
  0
VERTEX
  8
0
  6
CONTINUOUS
 10
4.345000
 20
3.751000
  0
VERTEX
  8
0
  6
CONTINUOUS
 10
4.329160
 20
3.806440
  0
SEQEND
  8
0
  0
SOLID
  8
0
 62
    15
 10
4.345000
 20
3.751000
 11
4.986080
 21
4.116640
 12
4.367440
 22
3.697320
 13
5.008960
 23
4.062960
  0
POLYLINE
  8
0
  6
CONTINUOUS
 66
     1
 40
0.000000
 41
0.000000
  0
VERTEX
  8
0
  6
CONTINUOUS
 10
4.345000
 20
3.751000
  0
VERTEX
  8
0
  6
CONTINUOUS
 10
4.986080
 20
4.116640
  0
VERTEX
  8
0
  6
CONTINUOUS
 10
5.008960
 20
4.062960
  0
VERTEX
  8
0
  6
CONTINUOUS
 10
4.367440
 20
3.697320
  0
VERTEX
  8
0
  6
CONTINUOUS
 10
4.345000
 20
3.751000
  0
SEQEND
  8
0
  0
SOLID
  8
0
 62
    15
 10
4.367440
 20
3.697320
 11
5.008960
 21
4.062960
 12
4.396480
 22
3.648040
 13
5.037560
 23
4.013680
  0
POLYLINE
  8
0
  6
CONTINUOUS
 66
     1
 40
0.000000
 41
0.000000
  0
VERTEX
  8
0
  6
CONTINUOUS
 10
4.367440
 20
3.697320
  0
VERTEX
  8
0
  6
CONTINUOUS
 10
5.008960
 20
4.062960
  0
VERTEX
  8
0
  6
CONTINUOUS
 10
5.037560
 20
4.013680
  0
VERTEX
  8
0
  6
CONTINUOUS
 10
4.396480
 20
3.648040
  0
VERTEX
  8
0
  6
CONTINUOUS
 10
4.367440
 20
3.697320
  0
SEQEND
  8
0
  0
SOLID
  8
0
 62
    15
 10
4.396480
 20
3.648040
 11
5.037560
 21
4.013680
 12
4.431680
 22
3.606240
 13
5.072760
 23
3.971880
  0
POLYLINE
  8
0
  6
CONTINUOUS
 66
     1
 40
0.000000
 41
0.000000
  0
VERTEX
  8
0
  6
CONTINUOUS
 10
4.396480
 20
3.648040
  0
VERTEX
  8
0
  6
CONTINUOUS
 10
5.037560
 20
4.013680
  0
VERTEX
  8
0
  6
CONTINUOUS
 10
5.072760
 20
3.971880
  0
VERTEX
  8
0
  6
CONTINUOUS
 10
4.431680
 20
3.606240
  0
VERTEX
  8
0
  6
CONTINUOUS
 10
4.396480
 20
3.648040
  0
SEQEND
  8
0
  0
SOLID
  8
0
 62
    15
 10
4.431680
 20
3.606240
 11
5.072760
 21
3.971880
 12
4.473480
 22
3.574120
 13
5.114560
 23
3.939760
  0
POLYLINE
  8
0
  6
CONTINUOUS
 66
     1
 40
0.000000
 41
0.000000
  0
VERTEX
  8
0
  6
CONTINUOUS
 10
4.431680
 20
3.606240
  0
VERTEX
  8
0
  6
CONTINUOUS
 10
5.072760
 20
3.971880
  0
VERTEX
  8
0
  6
CONTINUOUS
 10
5.114560
 20
3.939760
  0
VERTEX
  8
0
  6
CONTINUOUS
 10
4.473480
 20
3.574120
  0
VERTEX
  8
0
  6
CONTINUOUS
 10
4.431680
 20
3.606240
  0
SEQEND
  8
0
  0
SOLID
  8
0
 62
    15
 10
4.473480
 20
3.574120
 11
5.114560
 21
3.939760
 12
4.496800
 22
3.562240
 13
5.137880
 23
3.927880
  0
POLYLINE
  8
0
  6
CONTINUOUS
 66
     1
 40
0.000000
 41
0.000000
  0
VERTEX
  8
0
  6
CONTINUOUS
 10
4.473480
 20
3.574120
  0
VERTEX
  8
0
  6
CONTINUOUS
 10
5.114560
 20
3.939760
  0
VERTEX
  8
0
  6
CONTINUOUS
 10
5.137880
 20
3.927880
  0
VERTEX
  8
0
  6
CONTINUOUS
 10
4.496800
 20
3.562240
  0
VERTEX
  8
0
  6
CONTINUOUS
 10
4.473480
 20
3.574120
  0
SEQEND
  8
0
  0
SOLID
  8
0
 62
    15
 10
4.496800
 20
3.562240
 11
5.137880
 21
3.927880
 12
4.521440
 22
3.553880
 13
5.162960
 23
3.919520
  0
POLYLINE
  8
0
  6
CONTINUOUS
 66
     1
 40
0.000000
 41
0.000000
  0
VERTEX
  8
0
  6
CONTINUOUS
 10
4.496800
 20
3.562240
  0
VERTEX
  8
0
  6
CONTINUOUS
 10
5.137880
 20
3.927880
  0
VERTEX
  8
0
  6
CONTINUOUS
 10
5.162960
 20
3.919520
  0
VERTEX
  8
0
  6
CONTINUOUS
 10
4.521440
 20
3.553880
  0
VERTEX
  8
0
  6
CONTINUOUS
 10
4.496800
 20
3.562240
  0
SEQEND
  8
0
  0
SOLID
  8
0
 62
    15
 10
4.521440
 20
3.553880
 11
5.162960
 21
3.919520
 12
4.524080
 22
3.551240
 13
5.165600
 23
3.916880
  0
POLYLINE
  8
0
  6
CONTINUOUS
 66
     1
 40
0.000000
 41
0.000000
  0
VERTEX
  8
0
  6
CONTINUOUS
 10
4.521440
 20
3.553880
  0
VERTEX
  8
0
  6
CONTINUOUS
 10
5.162960
 20
3.919520
  0
VERTEX
  8
0
  6
CONTINUOUS
 10
5.165600
 20
3.916880
  0
VERTEX
  8
0
  6
CONTINUOUS
 10
4.524080
 20
3.551240
  0
VERTEX
  8
0
  6
CONTINUOUS
 10
4.521440
 20
3.553880
  0
SEQEND
  8
0
  0
SOLID
  8
0
 62
    15
 10
4.524080
 20
3.551240
 11
5.165600
 21
3.916880
 12
4.524520
 22
3.344440
 13
5.165600
 23
3.710080
  0
POLYLINE
  8
0
  6
CONTINUOUS
 66
     1
 40
0.000000
 41
0.000000
  0
VERTEX
  8
0
  6
CONTINUOUS
 10
4.524080
 20
3.551240
  0
VERTEX
  8
0
  6
CONTINUOUS
 10
5.165600
 20
3.916880
  0
VERTEX
  8
0
  6
CONTINUOUS
 10
5.165600
 20
3.710080
  0
VERTEX
  8
0
  6
CONTINUOUS
 10
4.524520
 20
3.344440
  0
VERTEX
  8
0
  6
CONTINUOUS
 10
4.524080
 20
3.551240
  0
SEQEND
  8
0
  0
SOLID
  8
0
 62
    15
 10
4.524520
 20
3.344440
 11
5.165600
 21
3.710080
 12
4.573360
 22
3.336520
 13
5.214880
 23
3.702160
  0
POLYLINE
  8
0
  6
CONTINUOUS
 66
     1
 40
0.000000
 41
0.000000
  0
VERTEX
  8
0
  6
CONTINUOUS
 10
4.524520
 20
3.344440
  0
VERTEX
  8
0
  6
CONTINUOUS
 10
5.165600
 20
3.710080
  0
VERTEX
  8
0
  6
CONTINUOUS
 10
5.214880
 20
3.702160
  0
VERTEX
  8
0
  6
CONTINUOUS
 10
4.573360
 20
3.336520
  0
VERTEX
  8
0
  6
CONTINUOUS
 10
4.524520
 20
3.344440
  0
SEQEND
  8
0
  0
SOLID
  8
0
 62
    15
 10
4.573360
 20
3.336520
 11
5.214880
 21
3.702160
 12
4.619560
 22
3.319800
 13
5.260640
 23
3.685440
  0
POLYLINE
  8
0
  6
CONTINUOUS
 66
     1
 40
0.000000
 41
0.000000
  0
VERTEX
  8
0
  6
CONTINUOUS
 10
4.573360
 20
3.336520
  0
VERTEX
  8
0
  6
CONTINUOUS
 10
5.214880
 20
3.702160
  0
VERTEX
  8
0
  6
CONTINUOUS
 10
5.260640
 20
3.685440
  0
VERTEX
  8
0
  6
CONTINUOUS
 10
4.619560
 20
3.319800
  0
VERTEX
  8
0
  6
CONTINUOUS
 10
4.573360
 20
3.336520
  0
SEQEND
  8
0
  0
SOLID
  8
0
 62
    15
 10
4.619560
 20
3.319800
 11
5.260640
 21
3.685440
 12
4.661360
 22
3.294720
 13
5.302440
 23
3.659920
  0
POLYLINE
  8
0
  6
CONTINUOUS
 66
     1
 40
0.000000
 41
0.000000
  0
VERTEX
  8
0
  6
CONTINUOUS
 10
4.619560
 20
3.319800
  0
VERTEX
  8
0
  6
CONTINUOUS
 10
5.260640
 20
3.685440
  0
VERTEX
  8
0
  6
CONTINUOUS
 10
5.302440
 20
3.659920
  0
VERTEX
  8
0
  6
CONTINUOUS
 10
4.661360
 20
3.294720
  0
VERTEX
  8
0
  6
CONTINUOUS
 10
4.619560
 20
3.319800
  0
SEQEND
  8
0
  0
SOLID
  8
0
 62
    15
 10
4.661360
 20
3.294720
 11
5.302440
 21
3.659920
 12
4.697440
 22
3.262160
 13
5.338960
 23
3.627800
  0
POLYLINE
  8
0
  6
CONTINUOUS
 66
     1
 40
0.000000
 41
0.000000
  0
VERTEX
  8
0
  6
CONTINUOUS
 10
4.661360
 20
3.294720
  0
VERTEX
  8
0
  6
CONTINUOUS
 10
5.302440
 20
3.659920
  0
VERTEX
  8
0
  6
CONTINUOUS
 10
5.338960
 20
3.627800
  0
VERTEX
  8
0
  6
CONTINUOUS
 10
4.697440
 20
3.262160
  0
VERTEX
  8
0
  6
CONTINUOUS
 10
4.661360
 20
3.294720
  0
SEQEND
  8
0
  0
SOLID
  8
0
 62
    15
 10
4.697440
 20
3.262160
 11
5.338960
 21
3.627800
 12
4.727360
 22
3.223880
 13
5.368880
 23
3.589520
  0
POLYLINE
  8
0
  6
CONTINUOUS
 66
     1
 40
0.000000
 41
0.000000
  0
VERTEX
  8
0
  6
CONTINUOUS
 10
4.697440
 20
3.262160
  0
VERTEX
  8
0
  6
CONTINUOUS
 10
5.338960
 20
3.627800
  0
VERTEX
  8
0
  6
CONTINUOUS
 10
5.368880
 20
3.589520
  0
VERTEX
  8
0
  6
CONTINUOUS
 10
4.727360
 20
3.223880
  0
VERTEX
  8
0
  6
CONTINUOUS
 10
4.697440
 20
3.262160
  0
SEQEND
  8
0
  0
SOLID
  8
0
 62
    15
 10
4.727360
 20
3.223880
 11
5.368880
 21
3.589520
 12
4.750240
 22
3.180320
 13
5.391320
 23
3.545960
  0
POLYLINE
  8
0
  6
CONTINUOUS
 66
     1
 40
0.000000
 41
0.000000
  0
VERTEX
  8
0
  6
CONTINUOUS
 10
4.727360
 20
3.223880
  0
VERTEX
  8
0
  6
CONTINUOUS
 10
5.368880
 20
3.589520
  0
VERTEX
  8
0
  6
CONTINUOUS
 10
5.391320
 20
3.545960
  0
VERTEX
  8
0
  6
CONTINUOUS
 10
4.750240
 20
3.180320
  0
VERTEX
  8
0
  6
CONTINUOUS
 10
4.727360
 20
3.223880
  0
SEQEND
  8
0
  0
SOLID
  8
0
 62
    15
 10
4.750240
 20
3.180320
 11
5.391320
 21
3.545960
 12
4.764760
 22
3.132800
 13
5.405840
 23
3.498440
  0
POLYLINE
  8
0
  6
CONTINUOUS
 66
     1
 40
0.000000
 41
0.000000
  0
VERTEX
  8
0
  6
CONTINUOUS
 10
4.750240
 20
3.180320
  0
VERTEX
  8
0
  6
CONTINUOUS
 10
5.391320
 20
3.545960
  0
VERTEX
  8
0
  6
CONTINUOUS
 10
5.405840
 20
3.498440
  0
VERTEX
  8
0
  6
CONTINUOUS
 10
4.764760
 20
3.132800
  0
VERTEX
  8
0
  6
CONTINUOUS
 10
4.750240
 20
3.180320
  0
SEQEND
  8
0
  0
SOLID
  8
0
 62
    15
 10
4.764760
 20
3.132800
 11
5.405840
 21
3.498440
 12
4.769600
 22
3.081760
 13
5.411120
 23
3.447400
  0
POLYLINE
  8
0
  6
CONTINUOUS
 66
     1
 40
0.000000
 41
0.000000
  0
VERTEX
  8
0
  6
CONTINUOUS
 10
4.764760
 20
3.132800
  0
VERTEX
  8
0
  6
CONTINUOUS
 10
5.405840
 20
3.498440
  0
VERTEX
  8
0
  6
CONTINUOUS
 10
5.411120
 20
3.447400
  0
VERTEX
  8
0
  6
CONTINUOUS
 10
4.769600
 20
3.081760
  0
VERTEX
  8
0
  6
CONTINUOUS
 10
4.764760
 20
3.132800
  0
SEQEND
  8
0
  0
SOLID
  8
0
 62
    15
 10
4.769600
 20
3.081760
 11
5.411120
 21
3.447400
 12
4.763000
 22
3.029400
 13
5.404520
 23
3.395040
  0
POLYLINE
  8
0
  6
CONTINUOUS
 66
     1
 40
0.000000
 41
0.000000
  0
VERTEX
  8
0
  6
CONTINUOUS
 10
4.769600
 20
3.081760
  0
VERTEX
  8
0
  6
CONTINUOUS
 10
5.411120
 20
3.447400
  0
VERTEX
  8
0
  6
CONTINUOUS
 10
5.404520
 20
3.395040
  0
VERTEX
  8
0
  6
CONTINUOUS
 10
4.763000
 20
3.029400
  0
VERTEX
  8
0
  6
CONTINUOUS
 10
4.769600
 20
3.081760
  0
SEQEND
  8
0
  0
SOLID
  8
0
 62
    15
 10
4.763000
 20
3.029400
 11
5.404520
 21
3.395040
 12
4.744520
 22
2.980120
 13
5.386040
 23
3.345760
  0
POLYLINE
  8
0
  6
CONTINUOUS
 66
     1
 40
0.000000
 41
0.000000
  0
VERTEX
  8
0
  6
CONTINUOUS
 10
4.763000
 20
3.029400
  0
VERTEX
  8
0
  6
CONTINUOUS
 10
5.404520
 20
3.395040
  0
VERTEX
  8
0
  6
CONTINUOUS
 10
5.386040
 20
3.345760
  0
VERTEX
  8
0
  6
CONTINUOUS
 10
4.744520
 20
2.980120
  0
VERTEX
  8
0
  6
CONTINUOUS
 10
4.763000
 20
3.029400
  0
SEQEND
  8
0
  0
SOLID
  8
0
 62
    15
 10
4.744520
 20
2.980120
 11
5.386040
 21
3.345760
 12
4.715920
 22
2.935680
 13
5.357440
 23
3.301320
  0
POLYLINE
  8
0
  6
CONTINUOUS
 66
     1
 40
0.000000
 41
0.000000
  0
VERTEX
  8
0
  6
CONTINUOUS
 10
4.744520
 20
2.980120
  0
VERTEX
  8
0
  6
CONTINUOUS
 10
5.386040
 20
3.345760
  0
VERTEX
  8
0
  6
CONTINUOUS
 10
5.357440
 20
3.301320
  0
VERTEX
  8
0
  6
CONTINUOUS
 10
4.715920
 20
2.935680
  0
VERTEX
  8
0
  6
CONTINUOUS
 10
4.744520
 20
2.980120
  0
SEQEND
  8
0
  0
SOLID
  8
0
 62
    15
 10
4.640240
 20
1.049840
 11
5.281760
 21
1.415480
 12
4.640240
 22
0.923120
 13
5.281760
 23
1.288760
  0
POLYLINE
  8
0
  6
CONTINUOUS
 66
     1
 40
0.000000
 41
0.000000
  0
VERTEX
  8
0
  6
CONTINUOUS
 10
4.640240
 20
1.049840
  0
VERTEX
  8
0
  6
CONTINUOUS
 10
5.281760
 20
1.415480
  0
VERTEX
  8
0
  6
CONTINUOUS
 10
5.281760
 20
1.288760
  0
VERTEX
  8
0
  6
CONTINUOUS
 10
4.640240
 20
0.923120
  0
VERTEX
  8
0
  6
CONTINUOUS
 10
4.640240
 20
1.049840
  0
SEQEND
  8
0
  0
SOLID
  8
0
 62
    15
 10
4.678960
 20
2.896520
 11
5.320040
 21
3.262160
 12
4.634960
 22
2.864400
 13
5.276480
 23
3.230040
  0
POLYLINE
  8
0
  6
CONTINUOUS
 66
     1
 40
0.000000
 41
0.000000
  0
VERTEX
  8
0
  6
CONTINUOUS
 10
4.678960
 20
2.896520
  0
VERTEX
  8
0
  6
CONTINUOUS
 10
5.320040
 20
3.262160
  0
VERTEX
  8
0
  6
CONTINUOUS
 10
5.276480
 20
3.230040
  0
VERTEX
  8
0
  6
CONTINUOUS
 10
4.634960
 20
2.864400
  0
VERTEX
  8
0
  6
CONTINUOUS
 10
4.678960
 20
2.896520
  0
SEQEND
  8
0
  0
SOLID
  8
0
 62
    15
 10
4.715920
 20
2.935680
 11
5.357440
 21
3.301320
 12
4.678960
 22
2.896520
 13
5.320040
 23
3.262160
  0
POLYLINE
  8
0
  6
CONTINUOUS
 66
     1
 40
0.000000
 41
0.000000
  0
VERTEX
  8
0
  6
CONTINUOUS
 10
4.715920
 20
2.935680
  0
VERTEX
  8
0
  6
CONTINUOUS
 10
5.357440
 20
3.301320
  0
VERTEX
  8
0
  6
CONTINUOUS
 10
5.320040
 20
3.262160
  0
VERTEX
  8
0
  6
CONTINUOUS
 10
4.678960
 20
2.896520
  0
VERTEX
  8
0
  6
CONTINUOUS
 10
4.715920
 20
2.935680
  0
SEQEND
  8
0
  0
SOLID
  8
0
 62
    15
 10
4.480520
 20
2.685760
 11
5.121600
 21
3.051400
 12
4.488000
 22
2.561680
 13
5.129080
 23
2.927320
  0
POLYLINE
  8
0
  6
CONTINUOUS
 66
     1
 40
0.000000
 41
0.000000
  0
VERTEX
  8
0
  6
CONTINUOUS
 10
4.480520
 20
2.685760
  0
VERTEX
  8
0
  6
CONTINUOUS
 10
5.121600
 20
3.051400
  0
VERTEX
  8
0
  6
CONTINUOUS
 10
5.129080
 20
2.927320
  0
VERTEX
  8
0
  6
CONTINUOUS
 10
4.488000
 20
2.561680
  0
VERTEX
  8
0
  6
CONTINUOUS
 10
4.480520
 20
2.685760
  0
SEQEND
  8
0
  0
SOLID
  8
0
 62
    15
 10
4.488000
 20
2.561680
 11
5.129080
 21
2.927320
 12
4.502080
 22
2.446400
 13
5.143600
 23
2.812040
  0
POLYLINE
  8
0
  6
CONTINUOUS
 66
     1
 40
0.000000
 41
0.000000
  0
VERTEX
  8
0
  6
CONTINUOUS
 10
4.488000
 20
2.561680
  0
VERTEX
  8
0
  6
CONTINUOUS
 10
5.129080
 20
2.927320
  0
VERTEX
  8
0
  6
CONTINUOUS
 10
5.143600
 20
2.812040
  0
VERTEX
  8
0
  6
CONTINUOUS
 10
4.502080
 20
2.446400
  0
VERTEX
  8
0
  6
CONTINUOUS
 10
4.488000
 20
2.561680
  0
SEQEND
  8
0
  0
SOLID
  8
0
 62
    15
 10
4.502080
 20
2.446400
 11
5.143600
 21
2.812040
 12
4.522760
 22
2.340800
 13
5.163840
 23
2.706440
  0
POLYLINE
  8
0
  6
CONTINUOUS
 66
     1
 40
0.000000
 41
0.000000
  0
VERTEX
  8
0
  6
CONTINUOUS
 10
4.502080
 20
2.446400
  0
VERTEX
  8
0
  6
CONTINUOUS
 10
5.143600
 20
2.812040
  0
VERTEX
  8
0
  6
CONTINUOUS
 10
5.163840
 20
2.706440
  0
VERTEX
  8
0
  6
CONTINUOUS
 10
4.522760
 20
2.340800
  0
VERTEX
  8
0
  6
CONTINUOUS
 10
4.502080
 20
2.446400
  0
SEQEND
  8
0
  0
SOLID
  8
0
 62
    15
 10
4.522760
 20
2.340800
 11
5.163840
 21
2.706440
 12
4.548280
 22
2.244440
 13
5.189800
 23
2.610080
  0
POLYLINE
  8
0
  6
CONTINUOUS
 66
     1
 40
0.000000
 41
0.000000
  0
VERTEX
  8
0
  6
CONTINUOUS
 10
4.522760
 20
2.340800
  0
VERTEX
  8
0
  6
CONTINUOUS
 10
5.163840
 20
2.706440
  0
VERTEX
  8
0
  6
CONTINUOUS
 10
5.189800
 20
2.610080
  0
VERTEX
  8
0
  6
CONTINUOUS
 10
4.548280
 20
2.244440
  0
VERTEX
  8
0
  6
CONTINUOUS
 10
4.522760
 20
2.340800
  0
SEQEND
  8
0
  0
SOLID
  8
0
 62
    15
 10
4.548280
 20
2.244440
 11
5.189800
 21
2.610080
 12
4.579080
 22
2.157320
 13
5.220160
 23
2.522960
  0
POLYLINE
  8
0
  6
CONTINUOUS
 66
     1
 40
0.000000
 41
0.000000
  0
VERTEX
  8
0
  6
CONTINUOUS
 10
4.548280
 20
2.244440
  0
VERTEX
  8
0
  6
CONTINUOUS
 10
5.189800
 20
2.610080
  0
VERTEX
  8
0
  6
CONTINUOUS
 10
5.220160
 20
2.522960
  0
VERTEX
  8
0
  6
CONTINUOUS
 10
4.579080
 20
2.157320
  0
VERTEX
  8
0
  6
CONTINUOUS
 10
4.548280
 20
2.244440
  0
SEQEND
  8
0
  0
SOLID
  8
0
 62
    15
 10
4.579080
 20
2.157320
 11
5.220160
 21
2.522960
 12
4.613400
 22
2.079440
 13
5.254480
 23
2.445080
  0
POLYLINE
  8
0
  6
CONTINUOUS
 66
     1
 40
0.000000
 41
0.000000
  0
VERTEX
  8
0
  6
CONTINUOUS
 10
4.579080
 20
2.157320
  0
VERTEX
  8
0
  6
CONTINUOUS
 10
5.220160
 20
2.522960
  0
VERTEX
  8
0
  6
CONTINUOUS
 10
5.254480
 20
2.445080
  0
VERTEX
  8
0
  6
CONTINUOUS
 10
4.613400
 20
2.079440
  0
VERTEX
  8
0
  6
CONTINUOUS
 10
4.579080
 20
2.157320
  0
SEQEND
  8
0
  0
SOLID
  8
0
 62
    15
 10
4.613400
 20
2.079440
 11
5.254480
 21
2.445080
 12
4.650800
 22
2.011240
 13
5.292320
 23
2.376880
  0
POLYLINE
  8
0
  6
CONTINUOUS
 66
     1
 40
0.000000
 41
0.000000
  0
VERTEX
  8
0
  6
CONTINUOUS
 10
4.613400
 20
2.079440
  0
VERTEX
  8
0
  6
CONTINUOUS
 10
5.254480
 20
2.445080
  0
VERTEX
  8
0
  6
CONTINUOUS
 10
5.292320
 20
2.376880
  0
VERTEX
  8
0
  6
CONTINUOUS
 10
4.650800
 20
2.011240
  0
VERTEX
  8
0
  6
CONTINUOUS
 10
4.613400
 20
2.079440
  0
SEQEND
  8
0
  0
SOLID
  8
0
 62
    15
 10
4.650800
 20
2.011240
 11
5.292320
 21
2.376880
 12
4.692160
 22
1.943480
 13
5.333240
 23
2.309120
  0
POLYLINE
  8
0
  6
CONTINUOUS
 66
     1
 40
0.000000
 41
0.000000
  0
VERTEX
  8
0
  6
CONTINUOUS
 10
4.650800
 20
2.011240
  0
VERTEX
  8
0
  6
CONTINUOUS
 10
5.292320
 20
2.376880
  0
VERTEX
  8
0
  6
CONTINUOUS
 10
5.333240
 20
2.309120
  0
VERTEX
  8
0
  6
CONTINUOUS
 10
4.692160
 20
1.943480
  0
VERTEX
  8
0
  6
CONTINUOUS
 10
4.650800
 20
2.011240
  0
SEQEND
  8
0
  0
SOLID
  8
0
 62
    15
 10
4.692160
 20
1.943480
 11
5.333240
 21
2.309120
 12
4.729120
 22
1.878360
 13
5.370200
 23
2.244000
  0
POLYLINE
  8
0
  6
CONTINUOUS
 66
     1
 40
0.000000
 41
0.000000
  0
VERTEX
  8
0
  6
CONTINUOUS
 10
4.692160
 20
1.943480
  0
VERTEX
  8
0
  6
CONTINUOUS
 10
5.333240
 20
2.309120
  0
VERTEX
  8
0
  6
CONTINUOUS
 10
5.370200
 20
2.244000
  0
VERTEX
  8
0
  6
CONTINUOUS
 10
4.729120
 20
1.878360
  0
VERTEX
  8
0
  6
CONTINUOUS
 10
4.692160
 20
1.943480
  0
SEQEND
  8
0
  0
SOLID
  8
0
 62
    15
 10
4.729120
 20
1.878360
 11
5.370200
 21
2.244000
 12
4.762560
 22
1.816320
 13
5.403640
 23
2.181960
  0
POLYLINE
  8
0
  6
CONTINUOUS
 66
     1
 40
0.000000
 41
0.000000
  0
VERTEX
  8
0
  6
CONTINUOUS
 10
4.729120
 20
1.878360
  0
VERTEX
  8
0
  6
CONTINUOUS
 10
5.370200
 20
2.244000
  0
VERTEX
  8
0
  6
CONTINUOUS
 10
5.403640
 20
2.181960
  0
VERTEX
  8
0
  6
CONTINUOUS
 10
4.762560
 20
1.816320
  0
VERTEX
  8
0
  6
CONTINUOUS
 10
4.729120
 20
1.878360
  0
SEQEND
  8
0
  0
SOLID
  8
0
 62
    15
 10
4.762560
 20
1.816320
 11
5.403640
 21
2.181960
 12
4.792480
 22
1.757360
 13
5.433560
 23
2.123000
  0
POLYLINE
  8
0
  6
CONTINUOUS
 66
     1
 40
0.000000
 41
0.000000
  0
VERTEX
  8
0
  6
CONTINUOUS
 10
4.762560
 20
1.816320
  0
VERTEX
  8
0
  6
CONTINUOUS
 10
5.403640
 20
2.181960
  0
VERTEX
  8
0
  6
CONTINUOUS
 10
5.433560
 20
2.123000
  0
VERTEX
  8
0
  6
CONTINUOUS
 10
4.792480
 20
1.757360
  0
VERTEX
  8
0
  6
CONTINUOUS
 10
4.762560
 20
1.816320
  0
SEQEND
  8
0
  0
SOLID
  8
0
 62
    15
 10
4.792480
 20
1.757360
 11
5.433560
 21
2.123000
 12
4.818440
 22
1.701040
 13
5.459960
 23
2.066680
  0
POLYLINE
  8
0
  6
CONTINUOUS
 66
     1
 40
0.000000
 41
0.000000
  0
VERTEX
  8
0
  6
CONTINUOUS
 10
4.792480
 20
1.757360
  0
VERTEX
  8
0
  6
CONTINUOUS
 10
5.433560
 20
2.123000
  0
VERTEX
  8
0
  6
CONTINUOUS
 10
5.459960
 20
2.066680
  0
VERTEX
  8
0
  6
CONTINUOUS
 10
4.818440
 20
1.701040
  0
VERTEX
  8
0
  6
CONTINUOUS
 10
4.792480
 20
1.757360
  0
SEQEND
  8
0
  0
SOLID
  8
0
 62
    15
 10
4.818440
 20
1.701040
 11
5.459960
 21
2.066680
 12
4.841320
 22
1.647360
 13
5.482840
 23
2.013000
  0
POLYLINE
  8
0
  6
CONTINUOUS
 66
     1
 40
0.000000
 41
0.000000
  0
VERTEX
  8
0
  6
CONTINUOUS
 10
4.818440
 20
1.701040
  0
VERTEX
  8
0
  6
CONTINUOUS
 10
5.459960
 20
2.066680
  0
VERTEX
  8
0
  6
CONTINUOUS
 10
5.482840
 20
2.013000
  0
VERTEX
  8
0
  6
CONTINUOUS
 10
4.841320
 20
1.647360
  0
VERTEX
  8
0
  6
CONTINUOUS
 10
4.818440
 20
1.701040
  0
SEQEND
  8
0
  0
SOLID
  8
0
 62
    15
 10
4.841320
 20
1.647360
 11
5.482840
 21
2.013000
 12
4.861120
 22
1.596320
 13
5.502200
 23
1.961960
  0
POLYLINE
  8
0
  6
CONTINUOUS
 66
     1
 40
0.000000
 41
0.000000
  0
VERTEX
  8
0
  6
CONTINUOUS
 10
4.841320
 20
1.647360
  0
VERTEX
  8
0
  6
CONTINUOUS
 10
5.482840
 20
2.013000
  0
VERTEX
  8
0
  6
CONTINUOUS
 10
5.502200
 20
1.961960
  0
VERTEX
  8
0
  6
CONTINUOUS
 10
4.861120
 20
1.596320
  0
VERTEX
  8
0
  6
CONTINUOUS
 10
4.841320
 20
1.647360
  0
SEQEND
  8
0
  0
SOLID
  8
0
 62
    15
 10
4.861120
 20
1.596320
 11
5.502200
 21
1.961960
 12
4.877400
 22
1.547920
 13
5.518920
 23
1.913560
  0
POLYLINE
  8
0
  6
CONTINUOUS
 66
     1
 40
0.000000
 41
0.000000
  0
VERTEX
  8
0
  6
CONTINUOUS
 10
4.861120
 20
1.596320
  0
VERTEX
  8
0
  6
CONTINUOUS
 10
5.502200
 20
1.961960
  0
VERTEX
  8
0
  6
CONTINUOUS
 10
5.518920
 20
1.913560
  0
VERTEX
  8
0
  6
CONTINUOUS
 10
4.877400
 20
1.547920
  0
VERTEX
  8
0
  6
CONTINUOUS
 10
4.861120
 20
1.596320
  0
SEQEND
  8
0
  0
SOLID
  8
0
 62
    15
 10
4.877400
 20
1.547920
 11
5.518920
 21
1.913560
 12
4.901600
 22
1.459480
 13
5.542680
 23
1.825120
  0
POLYLINE
  8
0
  6
CONTINUOUS
 66
     1
 40
0.000000
 41
0.000000
  0
VERTEX
  8
0
  6
CONTINUOUS
 10
4.877400
 20
1.547920
  0
VERTEX
  8
0
  6
CONTINUOUS
 10
5.518920
 20
1.913560
  0
VERTEX
  8
0
  6
CONTINUOUS
 10
5.542680
 20
1.825120
  0
VERTEX
  8
0
  6
CONTINUOUS
 10
4.901600
 20
1.459480
  0
VERTEX
  8
0
  6
CONTINUOUS
 10
4.877400
 20
1.547920
  0
SEQEND
  8
0
  0
SOLID
  8
0
 62
    15
 10
4.901600
 20
1.459480
 11
5.542680
 21
1.825120
 12
4.914360
 22
1.380280
 13
5.555880
 23
1.745920
  0
POLYLINE
  8
0
  6
CONTINUOUS
 66
     1
 40
0.000000
 41
0.000000
  0
VERTEX
  8
0
  6
CONTINUOUS
 10
4.901600
 20
1.459480
  0
VERTEX
  8
0
  6
CONTINUOUS
 10
5.542680
 20
1.825120
  0
VERTEX
  8
0
  6
CONTINUOUS
 10
5.555880
 20
1.745920
  0
VERTEX
  8
0
  6
CONTINUOUS
 10
4.914360
 20
1.380280
  0
VERTEX
  8
0
  6
CONTINUOUS
 10
4.901600
 20
1.459480
  0
SEQEND
  8
0
  0
SOLID
  8
0
 62
    15
 10
4.914360
 20
1.380280
 11
5.555880
 21
1.745920
 12
4.917000
 22
1.311200
 13
5.558520
 23
1.676840
  0
POLYLINE
  8
0
  6
CONTINUOUS
 66
     1
 40
0.000000
 41
0.000000
  0
VERTEX
  8
0
  6
CONTINUOUS
 10
4.914360
 20
1.380280
  0
VERTEX
  8
0
  6
CONTINUOUS
 10
5.555880
 20
1.745920
  0
VERTEX
  8
0
  6
CONTINUOUS
 10
5.558520
 20
1.676840
  0
VERTEX
  8
0
  6
CONTINUOUS
 10
4.917000
 20
1.311200
  0
VERTEX
  8
0
  6
CONTINUOUS
 10
4.914360
 20
1.380280
  0
SEQEND
  8
0
  0
SOLID
  8
0
 62
    15
 10
4.917000
 20
1.311200
 11
5.558520
 21
1.676840
 12
4.910840
 22
1.250920
 13
5.551920
 23
1.616560
  0
POLYLINE
  8
0
  6
CONTINUOUS
 66
     1
 40
0.000000
 41
0.000000
  0
VERTEX
  8
0
  6
CONTINUOUS
 10
4.917000
 20
1.311200
  0
VERTEX
  8
0
  6
CONTINUOUS
 10
5.558520
 20
1.676840
  0
VERTEX
  8
0
  6
CONTINUOUS
 10
5.551920
 20
1.616560
  0
VERTEX
  8
0
  6
CONTINUOUS
 10
4.910840
 20
1.250920
  0
VERTEX
  8
0
  6
CONTINUOUS
 10
4.917000
 20
1.311200
  0
SEQEND
  8
0
  0
SOLID
  8
0
 62
    15
 10
4.910840
 20
1.250920
 11
5.551920
 21
1.616560
 12
4.896320
 22
1.199880
 13
5.537400
 23
1.565520
  0
POLYLINE
  8
0
  6
CONTINUOUS
 66
     1
 40
0.000000
 41
0.000000
  0
VERTEX
  8
0
  6
CONTINUOUS
 10
4.910840
 20
1.250920
  0
VERTEX
  8
0
  6
CONTINUOUS
 10
5.551920
 20
1.616560
  0
VERTEX
  8
0
  6
CONTINUOUS
 10
5.537400
 20
1.565520
  0
VERTEX
  8
0
  6
CONTINUOUS
 10
4.896320
 20
1.199880
  0
VERTEX
  8
0
  6
CONTINUOUS
 10
4.910840
 20
1.250920
  0
SEQEND
  8
0
  0
SOLID
  8
0
 62
    15
 10
4.896320
 20
1.199880
 11
5.537400
 21
1.565520
 12
4.874320
 22
1.156760
 13
5.515400
 23
1.522400
  0
POLYLINE
  8
0
  6
CONTINUOUS
 66
     1
 40
0.000000
 41
0.000000
  0
VERTEX
  8
0
  6
CONTINUOUS
 10
4.896320
 20
1.199880
  0
VERTEX
  8
0
  6
CONTINUOUS
 10
5.537400
 20
1.565520
  0
VERTEX
  8
0
  6
CONTINUOUS
 10
5.515400
 20
1.522400
  0
VERTEX
  8
0
  6
CONTINUOUS
 10
4.874320
 20
1.156760
  0
VERTEX
  8
0
  6
CONTINUOUS
 10
4.896320
 20
1.199880
  0
SEQEND
  8
0
  0
SOLID
  8
0
 62
    15
 10
4.874320
 20
1.156760
 11
5.515400
 21
1.522400
 12
4.846160
 22
1.121560
 13
5.487240
 23
1.487200
  0
POLYLINE
  8
0
  6
CONTINUOUS
 66
     1
 40
0.000000
 41
0.000000
  0
VERTEX
  8
0
  6
CONTINUOUS
 10
4.874320
 20
1.156760
  0
VERTEX
  8
0
  6
CONTINUOUS
 10
5.515400
 20
1.522400
  0
VERTEX
  8
0
  6
CONTINUOUS
 10
5.487240
 20
1.487200
  0
VERTEX
  8
0
  6
CONTINUOUS
 10
4.846160
 20
1.121560
  0
VERTEX
  8
0
  6
CONTINUOUS
 10
4.874320
 20
1.156760
  0
SEQEND
  8
0
  0
SOLID
  8
0
 62
    15
 10
4.846160
 20
1.121560
 11
5.487240
 21
1.487200
 12
4.812720
 22
1.093840
 13
5.454240
 23
1.459480
  0
POLYLINE
  8
0
  6
CONTINUOUS
 66
     1
 40
0.000000
 41
0.000000
  0
VERTEX
  8
0
  6
CONTINUOUS
 10
4.846160
 20
1.121560
  0
VERTEX
  8
0
  6
CONTINUOUS
 10
5.487240
 20
1.487200
  0
VERTEX
  8
0
  6
CONTINUOUS
 10
5.454240
 20
1.459480
  0
VERTEX
  8
0
  6
CONTINUOUS
 10
4.812720
 20
1.093840
  0
VERTEX
  8
0
  6
CONTINUOUS
 10
4.846160
 20
1.121560
  0
SEQEND
  8
0
  0
POLYLINE
  8
0
  6
CONTINUOUS
 66
     1
 40
0.000000
 41
0.000000
  0
VERTEX
  8
0
  6
CONTINUOUS
 10
4.640240
 20
1.049840
  0
VERTEX
  8
0
  6
CONTINUOUS
 10
4.640240
 20
0.923120
  0
VERTEX
  8
0
  6
CONTINUOUS
 10
4.112240
 20
0.923120
  0
VERTEX
  8
0
  6
CONTINUOUS
 10
4.112240
 20
3.913800
  0
VERTEX
  8
0
  6
CONTINUOUS
 10
4.315080
 20
3.913800
  0
VERTEX
  8
0
  6
CONTINUOUS
 10
4.316400
 20
3.912480
  0
VERTEX
  8
0
  6
CONTINUOUS
 10
4.319480
 20
3.861000
  0
VERTEX
  8
0
  6
CONTINUOUS
 10
4.329160
 20
3.806440
  0
VERTEX
  8
0
  6
CONTINUOUS
 10
4.345000
 20
3.751000
  0
VERTEX
  8
0
  6
CONTINUOUS
 10
4.367440
 20
3.697320
  0
VERTEX
  8
0
  6
CONTINUOUS
 10
4.396480
 20
3.648040
  0
VERTEX
  8
0
  6
CONTINUOUS
 10
4.431680
 20
3.606240
  0
VERTEX
  8
0
  6
CONTINUOUS
 10
4.473480
 20
3.574120
  0
VERTEX
  8
0
  6
CONTINUOUS
 10
4.496800
 20
3.562240
  0
VERTEX
  8
0
  6
CONTINUOUS
 10
4.521440
 20
3.553880
  0
VERTEX
  8
0
  6
CONTINUOUS
 10
4.524080
 20
3.551240
  0
VERTEX
  8
0
  6
CONTINUOUS
 10
4.524520
 20
3.344440
  0
VERTEX
  8
0
  6
CONTINUOUS
 10
4.573360
 20
3.336520
  0
VERTEX
  8
0
  6
CONTINUOUS
 10
4.619560
 20
3.319800
  0
VERTEX
  8
0
  6
CONTINUOUS
 10
4.661360
 20
3.294720
  0
VERTEX
  8
0
  6
CONTINUOUS
 10
4.697440
 20
3.262160
  0
VERTEX
  8
0
  6
CONTINUOUS
 10
4.727360
 20
3.223880
  0
VERTEX
  8
0
  6
CONTINUOUS
 10
4.750240
 20
3.180320
  0
VERTEX
  8
0
  6
CONTINUOUS
 10
4.764760
 20
3.132800
  0
VERTEX
  8
0
  6
CONTINUOUS
 10
4.769600
 20
3.081760
  0
VERTEX
  8
0
  6
CONTINUOUS
 10
4.763000
 20
3.029400
  0
VERTEX
  8
0
  6
CONTINUOUS
 10
4.744520
 20
2.980120
  0
VERTEX
  8
0
  6
CONTINUOUS
 10
4.715920
 20
2.935680
  0
VERTEX
  8
0
  6
CONTINUOUS
 10
4.678960
 20
2.896520
  0
VERTEX
  8
0
  6
CONTINUOUS
 10
4.634960
 20
2.864400
  0
VERTEX
  8
0
  6
CONTINUOUS
 10
4.586120
 20
2.840200
  0
VERTEX
  8
0
  6
CONTINUOUS
 10
4.534200
 20
2.824800
  0
VERTEX
  8
0
  6
CONTINUOUS
 10
4.480520
 20
2.819080
  0
VERTEX
  8
0
  6
CONTINUOUS
 10
4.480520
 20
2.685760
  0
VERTEX
  8
0
  6
CONTINUOUS
 10
4.488000
 20
2.561680
  0
VERTEX
  8
0
  6
CONTINUOUS
 10
4.502080
 20
2.446400
  0
VERTEX
  8
0
  6
CONTINUOUS
 10
4.522760
 20
2.340800
  0
VERTEX
  8
0
  6
CONTINUOUS
 10
4.548280
 20
2.244440
  0
VERTEX
  8
0
  6
CONTINUOUS
 10
4.579080
 20
2.157320
  0
VERTEX
  8
0
  6
CONTINUOUS
 10
4.613400
 20
2.079440
  0
VERTEX
  8
0
  6
CONTINUOUS
 10
4.650800
 20
2.011240
  0
VERTEX
  8
0
  6
CONTINUOUS
 10
4.692160
 20
1.943480
  0
VERTEX
  8
0
  6
CONTINUOUS
 10
4.762560
 20
1.816320
  0
VERTEX
  8
0
  6
CONTINUOUS
 10
4.792480
 20
1.757360
  0
VERTEX
  8
0
  6
CONTINUOUS
 10
4.818440
 20
1.701040
  0
VERTEX
  8
0
  6
CONTINUOUS
 10
4.841320
 20
1.647360
  0
VERTEX
  8
0
  6
CONTINUOUS
 10
4.861120
 20
1.596320
  0
VERTEX
  8
0
  6
CONTINUOUS
 10
4.877400
 20
1.547920
  0
VERTEX
  8
0
  6
CONTINUOUS
 10
4.901600
 20
1.459480
  0
VERTEX
  8
0
  6
CONTINUOUS
 10
4.914360
 20
1.380280
  0
VERTEX
  8
0
  6
CONTINUOUS
 10
4.917000
 20
1.311200
  0
VERTEX
  8
0
  6
CONTINUOUS
 10
4.910840
 20
1.250920
  0
VERTEX
  8
0
  6
CONTINUOUS
 10
4.896320
 20
1.199880
  0
VERTEX
  8
0
  6
CONTINUOUS
 10
4.874320
 20
1.156760
  0
VERTEX
  8
0
  6
CONTINUOUS
 10
4.846160
 20
1.121560
  0
VERTEX
  8
0
  6
CONTINUOUS
 10
4.812720
 20
1.093840
  0
VERTEX
  8
0
  6
CONTINUOUS
 10
4.774880
 20
1.073160
  0
VERTEX
  8
0
  6
CONTINUOUS
 10
4.733960
 20
1.059520
  0
VERTEX
  8
0
  6
CONTINUOUS
 10
4.690400
 20
1.051600
  0
VERTEX
  8
0
  6
CONTINUOUS
 10
4.640240
 20
1.049840
  0
SEQEND
  8
0
  0
TEXT
  8
0
 10
4.610320
 20
0.681560
 40
0.138206
  1
BA  286
 41
1.000000
  7
SN0
 71
     0
 72
     5
 11
5.200483
 21
0.681560
  0
TEXT
  8
0
 10
4.610320
 20
0.489720
 40
0.138206
  1
3/4" x 3
 41
1.000000
  7
SN0
 71
     0
 72
     5
 11
5.166561
 21
0.489720
  0
TEXT
  8
0
 10
7.406080
 20
4.134680
 40
0.138206
  1
base cap
 41
1.000000
  7
SN0
 71
     0
 72
     5
 11
8.079361
 21
4.134680
  0
TEXT
  8
0
 10
7.604520
 20
3.942840
 40
0.138206
  1
286
 41
1.000000
  7
SN0
 71
     0
 72
     5
 11
7.881648
 21
3.942840
  0
ENDSEC
  0
EOF
