  0
SECTION
  2
HEADER
  9
$ACADVER
  1
AC1006
  9
$EXTMIN
 10
0.787600
 20
0.425480
  9
$EXTMAX
 10
8.012400
 20
6.430160
  9
$LTSCALE
 40
0.044000
  9
$PDMODE
 70
    35
  9
$PDSIZE
 40
0.035200
  0
ENDSEC
  0
SECTION
  2
TABLES
  0
TABLE
  2
LTYPE
 70
     9
  0
LTYPE
  2
CONTINUOUS
 70
    64
  3
Solid line
 72
    65
 73
     0
 40
0.000000
  0
LTYPE
  2
DASHED
 70
    64
  3
__ __ __ __ __ __ __ __ __ __ __ __ __ __ __
 72
    65
 73
     2
 40
0.000330
 49
0.000220
 49
-0.000110
  0
LTYPE
  2
HIDDEN
 70
    64
  3
 _ _ _ _ _ _ _ _ _ _ _ _ _ _ _ _ _ _ _ _ _ _
 72
    65
 73
     2
 40
0.000165
 49
0.000110
 49
-0.000055
  0
LTYPE
  2
CENTER
 70
    64
  3
____ _ ____ _ ____ _ ____ _ ____ _ ____ _ ____
 72
    65
 73
     4
 40
0.000880
 49
0.000550
 49
-0.000110
 49
0.000110
 49
-0.000110
  0
LTYPE
  2
PHANTOM
 70
    64
  3
_____ _ _ _____ _ _ _____ _ _ _____ _ _ ____
 72
    65
 73
     6
 40
0.001100
 49
0.000550
 49
-0.000110
 49
0.000110
 49
-0.000110
 49
0.000110
 49
-0.000110
  0
LTYPE
  2
DOT
 70
    64
  3
...............................................
 72
    65
 73
     2
 40
0.000110
 49
0.000000
 49
-0.000110
  0
LTYPE
  2
DASHDOT
 70
    64
  3
__ . __ . __ . __ . __ . __ . __ . __ . __ . __
 72
    65
 73
     4
 40
0.000440
 49
0.000220
 49
-0.000110
 49
0.000000
 49
-0.000110
  0
LTYPE
  2
BORDER
 70
    64
  3
__ __ . __ __ . __ __ . __ __ . __ __ . __ __
 72
    65
 73
     6
 40
0.000770
 49
0.000220
 49
-0.000110
 49
0.000220
 49
-0.000110
 49
0.000000
 49
-0.000110
  0
LTYPE
  2
DIVIDE
 70
    64
  3
__ . . __ . . __ . . __ . . __ . . __ . . __
 72
    65
 73
     6
 40
0.000550
 49
0.000220
 49
-0.000110
 49
0.000000
 49
-0.000110
 49
0.000000
 49
-0.000110
  0
LTYPE
  2
DOTDOT
 70
    64
  3
 . .  . .  . .  . .  . .  . . 
 72
    65
 73
     5
 40
0.000242
 49
-0.000110
 49
0.000000
 49
-0.000110
 49
0.000000
 49
-0.000110
  0
ENDTAB
  0
TABLE
  2
STYLE
 70
     2
  0
STYLE
 70
     0
  2
SN0
 40
0.000000
 41
0.000440
 50
0.000000
 71
     0
 42
0.000000
  3
ROMAND
  0
STYLE
 70
    68
  2
SV0
 40
0.000000
 41
0.000440
 50
0.000000
 71
     0
 42
0.000000
  3
ROMAND
  0
ENDTAB
  0
TABLE
  2
LAYER
 70
     3
  0
LAYER
  2
FOREGROUND
 70
    64
 62
     7
  6
CONTINUOUS
  0
LAYER
  2
BACKGROUND
 70
    65
 62
    -7
  6
CONTINUOUS
  0
LAYER
  2
0
 70
    64
 62
     7
  6
CONTINUOUS
  0
ENDTAB
  0
ENDSEC
  0
SECTION
  2
ENTITIES
  0
POLYLINE
  8
FOREGROUND
  6
CONTINUOUS
 66
     1
 40
0.000000
 41
0.000000
  0
VERTEX
  8
FOREGROUND
  6
CONTINUOUS
 10
0.000000
 20
6.855640
  0
VERTEX
  8
FOREGROUND
  6
CONTINUOUS
 10
8.499920
 20
6.855640
  0
VERTEX
  8
FOREGROUND
  6
CONTINUOUS
 10
8.499920
 20
-4.144360
  0
VERTEX
  8
FOREGROUND
  6
CONTINUOUS
 10
0.000000
 20
-4.144360
  0
VERTEX
  8
FOREGROUND
  6
CONTINUOUS
 10
0.000000
 20
6.855640
  0
SEQEND
  8
0
  0
POLYLINE
  8
FOREGROUND
  6
CONTINUOUS
 66
     1
 40
0.000000
 41
0.000000
  0
VERTEX
  8
FOREGROUND
  6
CONTINUOUS
 10
0.000000
 20
6.855640
  0
VERTEX
  8
FOREGROUND
  6
CONTINUOUS
 10
8.499920
 20
6.855640
  0
VERTEX
  8
FOREGROUND
  6
CONTINUOUS
 10
8.499920
 20
-4.144360
  0
VERTEX
  8
FOREGROUND
  6
CONTINUOUS
 10
0.000000
 20
-4.144360
  0
VERTEX
  8
FOREGROUND
  6
CONTINUOUS
 10
0.000000
 20
6.855640
  0
SEQEND
  8
0
  0
POLYLINE
  8
0
  6
CONTINUOUS
 66
     1
 40
0.011880
 41
0.011880
  0
VERTEX
  8
0
  6
CONTINUOUS
 10
4.986080
 20
4.804360
  0
VERTEX
  8
0
  6
CONTINUOUS
 10
4.713720
 20
4.804360
  0
VERTEX
  8
0
  6
CONTINUOUS
 10
4.708440
 20
4.841760
  0
VERTEX
  8
0
  6
CONTINUOUS
 10
4.699200
 20
4.877840
  0
VERTEX
  8
0
  6
CONTINUOUS
 10
4.686440
 20
4.913040
  0
VERTEX
  8
0
  6
CONTINUOUS
 10
4.660920
 20
4.962760
  0
VERTEX
  8
0
  6
CONTINUOUS
 10
4.628360
 20
5.009400
  0
VERTEX
  8
0
  6
CONTINUOUS
 10
4.589640
 20
5.052080
  0
VERTEX
  8
0
  6
CONTINUOUS
 10
4.546080
 20
5.090360
  0
VERTEX
  8
0
  6
CONTINUOUS
 10
4.497680
 20
5.124680
  0
VERTEX
  8
0
  6
CONTINUOUS
 10
4.445320
 20
5.154160
  0
VERTEX
  8
0
  6
CONTINUOUS
 10
4.409240
 20
5.171320
  0
VERTEX
  8
0
  6
CONTINUOUS
 10
4.352480
 20
5.192000
  0
VERTEX
  8
0
  6
CONTINUOUS
 10
4.313760
 20
5.203000
  0
VERTEX
  8
0
  6
CONTINUOUS
 10
4.254360
 20
5.214880
  0
VERTEX
  8
0
  6
CONTINUOUS
 10
4.194960
 20
5.220160
  0
VERTEX
  8
0
  6
CONTINUOUS
 10
4.155360
 20
5.220160
  0
VERTEX
  8
0
  6
CONTINUOUS
 10
4.116640
 20
5.217520
  0
VERTEX
  8
0
  6
CONTINUOUS
 10
4.077920
 20
5.211800
  0
VERTEX
  8
0
  6
CONTINUOUS
 10
4.022040
 20
5.196840
  0
VERTEX
  8
0
  6
CONTINUOUS
 10
3.985960
 20
5.183200
  0
VERTEX
  8
0
  6
CONTINUOUS
 10
3.934920
 20
5.155920
  0
VERTEX
  8
0
  6
CONTINUOUS
 10
3.903240
 20
5.133480
  0
VERTEX
  8
0
  6
CONTINUOUS
 10
3.873320
 20
5.107520
  0
VERTEX
  8
0
  6
CONTINUOUS
 10
3.845600
 20
5.077600
  0
VERTEX
  8
0
  6
CONTINUOUS
 10
3.820520
 20
5.044160
  0
VERTEX
  8
0
  6
CONTINUOUS
 10
3.798080
 20
5.006760
  0
VERTEX
  8
0
  6
CONTINUOUS
 10
3.778720
 20
4.965400
  0
VERTEX
  8
0
  6
CONTINUOUS
 10
3.769920
 20
4.942960
  0
VERTEX
  8
0
  6
CONTINUOUS
 10
3.710080
 20
4.979920
  0
VERTEX
  8
0
  6
CONTINUOUS
 10
3.682800
 20
5.001480
  0
VERTEX
  8
0
  6
CONTINUOUS
 10
3.656840
 20
5.028760
  0
VERTEX
  8
0
  6
CONTINUOUS
 10
3.631760
 20
5.064400
  0
VERTEX
  8
0
  6
CONTINUOUS
 10
3.607120
 20
5.111920
  0
VERTEX
  8
0
  6
CONTINUOUS
 10
3.582480
 20
5.173520
  0
VERTEX
  8
0
  6
CONTINUOUS
 10
3.557840
 20
5.252280
  0
VERTEX
  8
0
  6
CONTINUOUS
 10
2.340800
 20
5.252280
  0
VERTEX
  8
0
  6
CONTINUOUS
 10
2.340800
 20
3.980240
  0
VERTEX
  8
0
  6
CONTINUOUS
 10
2.344760
 20
3.976280
  0
VERTEX
  8
0
  6
CONTINUOUS
 10
7.667440
 20
3.976280
  0
VERTEX
  8
0
  6
CONTINUOUS
 10
7.667440
 20
4.205520
  0
VERTEX
  8
0
  6
CONTINUOUS
 10
7.625640
 20
4.207280
  0
VERTEX
  8
0
  6
CONTINUOUS
 10
7.585160
 20
4.213000
  0
VERTEX
  8
0
  6
CONTINUOUS
 10
7.545560
 20
4.221800
  0
VERTEX
  8
0
  6
CONTINUOUS
 10
7.487920
 20
4.241160
  0
VERTEX
  8
0
  6
CONTINUOUS
 10
7.451400
 20
4.257000
  0
VERTEX
  8
0
  6
CONTINUOUS
 10
7.399480
 20
4.285600
  0
VERTEX
  8
0
  6
CONTINUOUS
 10
7.352840
 20
4.318600
  0
VERTEX
  8
0
  6
CONTINUOUS
 10
7.311480
 20
4.354680
  0
VERTEX
  8
0
  6
CONTINUOUS
 10
7.276720
 20
4.392960
  0
VERTEX
  8
0
  6
CONTINUOUS
 10
7.250320
 20
4.433000
  0
VERTEX
  8
0
  6
CONTINUOUS
 10
7.237120
 20
4.460280
  0
VERTEX
  8
0
  6
CONTINUOUS
 10
7.227880
 20
4.487120
  0
VERTEX
  8
0
  6
CONTINUOUS
 10
7.223480
 20
4.513520
  0
VERTEX
  8
0
  6
CONTINUOUS
 10
6.936600
 20
4.513520
  0
VERTEX
  8
0
  6
CONTINUOUS
 10
6.935280
 20
4.541240
  0
VERTEX
  8
0
  6
CONTINUOUS
 10
6.927800
 20
4.580400
  0
VERTEX
  8
0
  6
CONTINUOUS
 10
6.919880
 20
4.605040
  0
VERTEX
  8
0
  6
CONTINUOUS
 10
6.909760
 20
4.628800
  0
VERTEX
  8
0
  6
CONTINUOUS
 10
6.889960
 20
4.660920
  0
VERTEX
  8
0
  6
CONTINUOUS
 10
6.874120
 20
4.680720
  0
VERTEX
  8
0
  6
CONTINUOUS
 10
6.856520
 20
4.698760
  0
VERTEX
  8
0
  6
CONTINUOUS
 10
6.837160
 20
4.715480
  0
VERTEX
  8
0
  6
CONTINUOUS
 10
6.816480
 20
4.730000
  0
VERTEX
  8
0
  6
CONTINUOUS
 10
6.782160
 20
4.748040
  0
VERTEX
  8
0
  6
CONTINUOUS
 10
6.745200
 20
4.761240
  0
VERTEX
  8
0
  6
CONTINUOUS
 10
6.706040
 20
4.769600
  0
VERTEX
  8
0
  6
CONTINUOUS
 10
6.664680
 20
4.772240
  0
VERTEX
  8
0
  6
CONTINUOUS
 10
6.623320
 20
4.769600
  0
VERTEX
  8
0
  6
CONTINUOUS
 10
6.584160
 20
4.761240
  0
VERTEX
  8
0
  6
CONTINUOUS
 10
6.547200
 20
4.748040
  0
VERTEX
  8
0
  6
CONTINUOUS
 10
6.513320
 20
4.730000
  0
VERTEX
  8
0
  6
CONTINUOUS
 10
6.492640
 20
4.715480
  0
VERTEX
  8
0
  6
CONTINUOUS
 10
6.473280
 20
4.698760
  0
VERTEX
  8
0
  6
CONTINUOUS
 10
6.447760
 20
4.671040
  0
VERTEX
  8
0
  6
CONTINUOUS
 10
6.426640
 20
4.639800
  0
VERTEX
  8
0
  6
CONTINUOUS
 10
6.410360
 20
4.605040
  0
VERTEX
  8
0
  6
CONTINUOUS
 10
6.399360
 20
4.567640
  0
VERTEX
  8
0
  6
CONTINUOUS
 10
6.395400
 20
4.541240
  0
VERTEX
  8
0
  6
CONTINUOUS
 10
6.394080
 20
4.513520
  0
VERTEX
  8
0
  6
CONTINUOUS
 10
6.107200
 20
4.513520
  0
VERTEX
  8
0
  6
CONTINUOUS
 10
6.094000
 20
4.476560
  0
VERTEX
  8
0
  6
CONTINUOUS
 10
6.071560
 20
4.440480
  0
VERTEX
  8
0
  6
CONTINUOUS
 10
6.052200
 20
4.417600
  0
VERTEX
  8
0
  6
CONTINUOUS
 10
6.016560
 20
4.384600
  0
VERTEX
  8
0
  6
CONTINUOUS
 10
5.973880
 20
4.354680
  0
VERTEX
  8
0
  6
CONTINUOUS
 10
5.925040
 20
4.327840
  0
VERTEX
  8
0
  6
CONTINUOUS
 10
5.870920
 20
4.305400
  0
VERTEX
  8
0
  6
CONTINUOUS
 10
5.812400
 20
4.286920
  0
VERTEX
  8
0
  6
CONTINUOUS
 10
5.750360
 20
4.273720
  0
VERTEX
  8
0
  6
CONTINUOUS
 10
5.707240
 20
4.268000
  0
VERTEX
  8
0
  6
CONTINUOUS
 10
5.663240
 20
4.265360
  0
VERTEX
  8
0
  6
CONTINUOUS
 10
5.618360
 20
4.264920
  0
VERTEX
  8
0
  6
CONTINUOUS
 10
5.573040
 20
4.268000
  0
VERTEX
  8
0
  6
CONTINUOUS
 10
5.527280
 20
4.274160
  0
VERTEX
  8
0
  6
CONTINUOUS
 10
5.481520
 20
4.283840
  0
VERTEX
  8
0
  6
CONTINUOUS
 10
5.436200
 20
4.297040
  0
VERTEX
  8
0
  6
CONTINUOUS
 10
5.390880
 20
4.313760
  0
VERTEX
  8
0
  6
CONTINUOUS
 10
5.346440
 20
4.334880
  0
VERTEX
  8
0
  6
CONTINUOUS
 10
5.302880
 20
4.359520
  0
VERTEX
  8
0
  6
CONTINUOUS
 10
5.260640
 20
4.389000
  0
VERTEX
  8
0
  6
CONTINUOUS
 10
5.219720
 20
4.422440
  0
VERTEX
  8
0
  6
CONTINUOUS
 10
5.161640
 20
4.481840
  0
VERTEX
  8
0
  6
CONTINUOUS
 10
5.125120
 20
4.527600
  0
VERTEX
  8
0
  6
CONTINUOUS
 10
5.090800
 20
4.578200
  0
VERTEX
  8
0
  6
CONTINUOUS
 10
5.059120
 20
4.634080
  0
VERTEX
  8
0
  6
CONTINUOUS
 10
5.030520
 20
4.695240
  0
VERTEX
  8
0
  6
CONTINUOUS
 10
5.016880
 20
4.727800
  0
VERTEX
  8
0
  6
CONTINUOUS
 10
4.992680
 20
4.797760
  0
VERTEX
  8
0
  6
CONTINUOUS
 10
4.986080
 20
4.804360
  0
SEQEND
  8
0
  0
POLYLINE
  8
0
  6
CONTINUOUS
 66
     1
 40
0.011880
 41
0.011880
  0
VERTEX
  8
0
  6
CONTINUOUS
 10
1.122880
 20
5.520240
  0
VERTEX
  8
0
  6
CONTINUOUS
 10
1.015080
 20
5.521560
  0
VERTEX
  8
0
  6
CONTINUOUS
 10
1.013320
 20
5.495600
  0
VERTEX
  8
0
  6
CONTINUOUS
 10
1.004080
 20
5.446760
  0
VERTEX
  8
0
  6
CONTINUOUS
 10
0.987800
 20
5.400560
  0
VERTEX
  8
0
  6
CONTINUOUS
 10
0.964920
 20
5.357880
  0
VERTEX
  8
0
  6
CONTINUOUS
 10
0.951280
 20
5.338080
  0
VERTEX
  8
0
  6
CONTINUOUS
 10
0.935880
 20
5.319160
  0
VERTEX
  8
0
  6
CONTINUOUS
 10
0.919160
 20
5.301560
  0
VERTEX
  8
0
  6
CONTINUOUS
 10
0.901120
 20
5.285280
  0
VERTEX
  8
0
  6
CONTINUOUS
 10
0.881760
 20
5.270760
  0
VERTEX
  8
0
  6
CONTINUOUS
 10
0.860640
 20
5.257560
  0
VERTEX
  8
0
  6
CONTINUOUS
 10
0.838640
 20
5.246120
  0
VERTEX
  8
0
  6
CONTINUOUS
 10
0.815760
 20
5.236440
  0
VERTEX
  8
0
  6
CONTINUOUS
 10
0.791120
 20
5.228520
  0
VERTEX
  8
0
  6
CONTINUOUS
 10
0.789800
 20
5.229840
  0
VERTEX
  8
0
  6
CONTINUOUS
 10
0.789800
 20
4.029520
  0
VERTEX
  8
0
  6
CONTINUOUS
 10
0.788480
 20
4.029520
  0
VERTEX
  8
0
  6
CONTINUOUS
 10
2.217600
 20
4.029520
  0
VERTEX
  8
0
  6
CONTINUOUS
 10
2.216280
 20
4.028640
  0
VERTEX
  8
0
  6
CONTINUOUS
 10
2.216280
 20
5.309920
  0
VERTEX
  8
0
  6
CONTINUOUS
 10
2.423080
 20
5.311240
  0
VERTEX
  8
0
  6
CONTINUOUS
 10
2.416040
 20
5.382960
  0
VERTEX
  8
0
  6
CONTINUOUS
 10
2.403280
 20
5.450720
  0
VERTEX
  8
0
  6
CONTINUOUS
 10
2.385680
 20
5.515400
  0
VERTEX
  8
0
  6
CONTINUOUS
 10
2.363240
 20
5.576120
  0
VERTEX
  8
0
  6
CONTINUOUS
 10
2.336840
 20
5.632880
  0
VERTEX
  8
0
  6
CONTINUOUS
 10
2.306040
 20
5.686120
  0
VERTEX
  8
0
  6
CONTINUOUS
 10
2.271720
 20
5.735400
  0
VERTEX
  8
0
  6
CONTINUOUS
 10
2.233880
 20
5.780720
  0
VERTEX
  8
0
  6
CONTINUOUS
 10
2.192520
 20
5.822080
  0
VERTEX
  8
0
  6
CONTINUOUS
 10
2.148960
 20
5.859480
  0
VERTEX
  8
0
  6
CONTINUOUS
 10
2.102760
 20
5.892920
  0
VERTEX
  8
0
  6
CONTINUOUS
 10
2.054360
 20
5.921960
  0
VERTEX
  8
0
  6
CONTINUOUS
 10
2.003760
 20
5.946600
  0
VERTEX
  8
0
  6
CONTINUOUS
 10
1.952280
 20
5.967280
  0
VERTEX
  8
0
  6
CONTINUOUS
 10
1.899040
 20
5.983120
  0
VERTEX
  8
0
  6
CONTINUOUS
 10
1.872200
 20
5.989720
  0
VERTEX
  8
0
  6
CONTINUOUS
 10
1.818080
 20
5.998960
  0
VERTEX
  8
0
  6
CONTINUOUS
 10
1.763520
 20
6.003800
  0
VERTEX
  8
0
  6
CONTINUOUS
 10
1.708960
 20
6.003800
  0
VERTEX
  8
0
  6
CONTINUOUS
 10
1.681680
 20
6.002480
  0
VERTEX
  8
0
  6
CONTINUOUS
 10
1.627120
 20
5.995440
  0
VERTEX
  8
0
  6
CONTINUOUS
 10
1.573880
 20
5.984000
  0
VERTEX
  8
0
  6
CONTINUOUS
 10
1.521520
 20
5.967720
  0
VERTEX
  8
0
  6
CONTINUOUS
 10
1.470040
 20
5.946160
  0
VERTEX
  8
0
  6
CONTINUOUS
 10
1.420760
 20
5.919760
  0
VERTEX
  8
0
  6
CONTINUOUS
 10
1.373240
 20
5.888520
  0
VERTEX
  8
0
  6
CONTINUOUS
 10
1.327920
 20
5.852440
  0
VERTEX
  8
0
  6
CONTINUOUS
 10
1.285240
 20
5.810640
  0
VERTEX
  8
0
  6
CONTINUOUS
 10
1.245640
 20
5.764000
  0
VERTEX
  8
0
  6
CONTINUOUS
 10
1.209560
 20
5.712080
  0
VERTEX
  8
0
  6
CONTINUOUS
 10
1.176560
 20
5.654440
  0
VERTEX
  8
0
  6
CONTINUOUS
 10
1.147520
 20
5.591520
  0
VERTEX
  8
0
  6
CONTINUOUS
 10
1.122880
 20
5.523320
  0
VERTEX
  8
0
  6
CONTINUOUS
 10
1.122880
 20
5.520240
  0
SEQEND
  8
0
  0
TEXT
  8
0
 10
7.662600
 20
6.278360
 40
0.138089
  1
case
 41
1.000000
  7
SN0
 71
     0
 72
     5
 11
8.013364
 21
6.278360
  0
TEXT
  8
0
 10
7.699560
 20
6.086960
 40
0.138089
  1
284
 41
1.000000
  7
SN0
 71
     0
 72
     5
 11
7.976270
 21
6.086960
  0
TEXT
  8
0
 10
7.699560
 20
5.895120
 40
0.138089
  1
285
 41
1.000000
  7
SN0
 71
     0
 72
     5
 11
7.976270
 21
5.895120
  0
TEXT
  8
0
 10
3.449600
 20
0.660440
 40
0.138089
  1
BA  285 1-15/16" x 1-5/8"
 41
1.000000
  7
SN0
 71
     0
 72
     5
 11
5.316850
 21
0.660440
  0
TEXT
  8
0
 10
3.449600
 20
0.469040
 40
0.138089
  1
BA  284 1-1/4 x 5-5/16"
 41
1.000000
  7
SN0
 71
     0
 72
     5
 11
5.165851
 21
0.469040
  0
SOLID
  8
0
 62
    15
 10
7.168920
 20
1.411520
 11
7.160120
 21
2.145880
 12
7.198840
 22
1.357840
 13
7.190480
 23
2.092200
  0
POLYLINE
  8
0
  6
CONTINUOUS
 66
     1
 40
0.011880
 41
0.011880
  0
VERTEX
  8
0
  6
CONTINUOUS
 10
7.168920
 20
1.411520
  0
VERTEX
  8
0
  6
CONTINUOUS
 10
7.160120
 20
2.145880
  0
VERTEX
  8
0
  6
CONTINUOUS
 10
7.190480
 20
2.092200
  0
VERTEX
  8
0
  6
CONTINUOUS
 10
7.198840
 20
1.357840
  0
VERTEX
  8
0
  6
CONTINUOUS
 10
7.168920
 20
1.411520
  0
SEQEND
  8
0
  0
SOLID
  8
0
 62
    15
 10
4.949120
 20
1.679480
 11
4.940320
 21
2.413840
 12
4.976400
 22
1.615240
 13
4.968040
 23
2.349600
  0
POLYLINE
  8
0
  6
CONTINUOUS
 66
     1
 40
0.011880
 41
0.011880
  0
VERTEX
  8
0
  6
CONTINUOUS
 10
4.949120
 20
1.679480
  0
VERTEX
  8
0
  6
CONTINUOUS
 10
4.940320
 20
2.413840
  0
VERTEX
  8
0
  6
CONTINUOUS
 10
4.968040
 20
2.349600
  0
VERTEX
  8
0
  6
CONTINUOUS
 10
4.976400
 20
1.615240
  0
VERTEX
  8
0
  6
CONTINUOUS
 10
4.949120
 20
1.679480
  0
SEQEND
  8
0
  0
SOLID
  8
0
 62
    15
 10
4.976400
 20
1.615240
 11
4.968040
 21
2.349600
 12
5.006760
 22
1.556720
 13
4.998400
 23
2.291080
  0
POLYLINE
  8
0
  6
CONTINUOUS
 66
     1
 40
0.011880
 41
0.011880
  0
VERTEX
  8
0
  6
CONTINUOUS
 10
4.976400
 20
1.615240
  0
VERTEX
  8
0
  6
CONTINUOUS
 10
4.968040
 20
2.349600
  0
VERTEX
  8
0
  6
CONTINUOUS
 10
4.998400
 20
2.291080
  0
VERTEX
  8
0
  6
CONTINUOUS
 10
5.006760
 20
1.556720
  0
VERTEX
  8
0
  6
CONTINUOUS
 10
4.976400
 20
1.615240
  0
SEQEND
  8
0
  0
SOLID
  8
0
 62
    15
 10
5.006760
 20
1.556720
 11
4.998400
 21
2.291080
 12
5.039760
 22
1.503480
 13
5.031400
 23
2.237840
  0
POLYLINE
  8
0
  6
CONTINUOUS
 66
     1
 40
0.011880
 41
0.011880
  0
VERTEX
  8
0
  6
CONTINUOUS
 10
5.006760
 20
1.556720
  0
VERTEX
  8
0
  6
CONTINUOUS
 10
4.998400
 20
2.291080
  0
VERTEX
  8
0
  6
CONTINUOUS
 10
5.031400
 20
2.237840
  0
VERTEX
  8
0
  6
CONTINUOUS
 10
5.039760
 20
1.503480
  0
VERTEX
  8
0
  6
CONTINUOUS
 10
5.006760
 20
1.556720
  0
SEQEND
  8
0
  0
SOLID
  8
0
 62
    15
 10
5.039760
 20
1.503480
 11
5.031400
 21
2.237840
 12
5.112360
 22
1.412400
 13
5.104000
 23
2.146760
  0
POLYLINE
  8
0
  6
CONTINUOUS
 66
     1
 40
0.011880
 41
0.011880
  0
VERTEX
  8
0
  6
CONTINUOUS
 10
5.039760
 20
1.503480
  0
VERTEX
  8
0
  6
CONTINUOUS
 10
5.031400
 20
2.237840
  0
VERTEX
  8
0
  6
CONTINUOUS
 10
5.104000
 20
2.146760
  0
VERTEX
  8
0
  6
CONTINUOUS
 10
5.112360
 20
1.412400
  0
VERTEX
  8
0
  6
CONTINUOUS
 10
5.039760
 20
1.503480
  0
SEQEND
  8
0
  0
SOLID
  8
0
 62
    15
 10
5.112360
 20
1.412400
 11
5.104000
 21
2.146760
 12
5.192880
 22
1.340240
 13
5.184080
 23
2.074600
  0
POLYLINE
  8
0
  6
CONTINUOUS
 66
     1
 40
0.011880
 41
0.011880
  0
VERTEX
  8
0
  6
CONTINUOUS
 10
5.112360
 20
1.412400
  0
VERTEX
  8
0
  6
CONTINUOUS
 10
5.104000
 20
2.146760
  0
VERTEX
  8
0
  6
CONTINUOUS
 10
5.184080
 20
2.074600
  0
VERTEX
  8
0
  6
CONTINUOUS
 10
5.192880
 20
1.340240
  0
VERTEX
  8
0
  6
CONTINUOUS
 10
5.112360
 20
1.412400
  0
SEQEND
  8
0
  0
SOLID
  8
0
 62
    15
 10
5.192880
 20
1.340240
 11
5.184080
 21
2.074600
 12
5.278680
 22
1.286120
 13
5.269880
 23
2.020480
  0
POLYLINE
  8
0
  6
CONTINUOUS
 66
     1
 40
0.011880
 41
0.011880
  0
VERTEX
  8
0
  6
CONTINUOUS
 10
5.192880
 20
1.340240
  0
VERTEX
  8
0
  6
CONTINUOUS
 10
5.184080
 20
2.074600
  0
VERTEX
  8
0
  6
CONTINUOUS
 10
5.269880
 20
2.020480
  0
VERTEX
  8
0
  6
CONTINUOUS
 10
5.278680
 20
1.286120
  0
VERTEX
  8
0
  6
CONTINUOUS
 10
5.192880
 20
1.340240
  0
SEQEND
  8
0
  0
SOLID
  8
0
 62
    15
 10
5.278680
 20
1.286120
 11
5.269880
 21
2.020480
 12
5.368000
 22
1.248280
 13
5.359640
 23
1.982640
  0
POLYLINE
  8
0
  6
CONTINUOUS
 66
     1
 40
0.011880
 41
0.011880
  0
VERTEX
  8
0
  6
CONTINUOUS
 10
5.278680
 20
1.286120
  0
VERTEX
  8
0
  6
CONTINUOUS
 10
5.269880
 20
2.020480
  0
VERTEX
  8
0
  6
CONTINUOUS
 10
5.359640
 20
1.982640
  0
VERTEX
  8
0
  6
CONTINUOUS
 10
5.368000
 20
1.248280
  0
VERTEX
  8
0
  6
CONTINUOUS
 10
5.278680
 20
1.286120
  0
SEQEND
  8
0
  0
SOLID
  8
0
 62
    15
 10
5.368000
 20
1.248280
 11
5.359640
 21
1.982640
 12
5.459520
 22
1.225840
 13
5.450720
 23
1.960200
  0
POLYLINE
  8
0
  6
CONTINUOUS
 66
     1
 40
0.011880
 41
0.011880
  0
VERTEX
  8
0
  6
CONTINUOUS
 10
5.368000
 20
1.248280
  0
VERTEX
  8
0
  6
CONTINUOUS
 10
5.359640
 20
1.982640
  0
VERTEX
  8
0
  6
CONTINUOUS
 10
5.450720
 20
1.960200
  0
VERTEX
  8
0
  6
CONTINUOUS
 10
5.459520
 20
1.225840
  0
VERTEX
  8
0
  6
CONTINUOUS
 10
5.368000
 20
1.248280
  0
SEQEND
  8
0
  0
SOLID
  8
0
 62
    15
 10
5.459520
 20
1.225840
 11
5.450720
 21
1.960200
 12
5.550600
 22
1.216600
 13
5.541800
 23
1.950960
  0
POLYLINE
  8
0
  6
CONTINUOUS
 66
     1
 40
0.011880
 41
0.011880
  0
VERTEX
  8
0
  6
CONTINUOUS
 10
5.459520
 20
1.225840
  0
VERTEX
  8
0
  6
CONTINUOUS
 10
5.450720
 20
1.960200
  0
VERTEX
  8
0
  6
CONTINUOUS
 10
5.541800
 20
1.950960
  0
VERTEX
  8
0
  6
CONTINUOUS
 10
5.550600
 20
1.216600
  0
VERTEX
  8
0
  6
CONTINUOUS
 10
5.459520
 20
1.225840
  0
SEQEND
  8
0
  0
SOLID
  8
0
 62
    15
 10
5.550600
 20
1.216600
 11
5.541800
 21
1.950960
 12
5.639480
 22
1.219680
 13
5.630680
 23
1.954040
  0
POLYLINE
  8
0
  6
CONTINUOUS
 66
     1
 40
0.011880
 41
0.011880
  0
VERTEX
  8
0
  6
CONTINUOUS
 10
5.550600
 20
1.216600
  0
VERTEX
  8
0
  6
CONTINUOUS
 10
5.541800
 20
1.950960
  0
VERTEX
  8
0
  6
CONTINUOUS
 10
5.630680
 20
1.954040
  0
VERTEX
  8
0
  6
CONTINUOUS
 10
5.639480
 20
1.219680
  0
VERTEX
  8
0
  6
CONTINUOUS
 10
5.550600
 20
1.216600
  0
SEQEND
  8
0
  0
SOLID
  8
0
 62
    15
 10
5.639480
 20
1.219680
 11
5.630680
 21
1.954040
 12
5.723960
 22
1.233320
 13
5.715600
 23
1.967680
  0
POLYLINE
  8
0
  6
CONTINUOUS
 66
     1
 40
0.011880
 41
0.011880
  0
VERTEX
  8
0
  6
CONTINUOUS
 10
5.639480
 20
1.219680
  0
VERTEX
  8
0
  6
CONTINUOUS
 10
5.630680
 20
1.954040
  0
VERTEX
  8
0
  6
CONTINUOUS
 10
5.715600
 20
1.967680
  0
VERTEX
  8
0
  6
CONTINUOUS
 10
5.723960
 20
1.233320
  0
VERTEX
  8
0
  6
CONTINUOUS
 10
5.639480
 20
1.219680
  0
SEQEND
  8
0
  0
SOLID
  8
0
 62
    15
 10
5.723960
 20
1.233320
 11
5.715600
 21
1.967680
 12
5.803160
 22
1.256640
 13
5.794360
 23
1.991000
  0
POLYLINE
  8
0
  6
CONTINUOUS
 66
     1
 40
0.011880
 41
0.011880
  0
VERTEX
  8
0
  6
CONTINUOUS
 10
5.723960
 20
1.233320
  0
VERTEX
  8
0
  6
CONTINUOUS
 10
5.715600
 20
1.967680
  0
VERTEX
  8
0
  6
CONTINUOUS
 10
5.794360
 20
1.991000
  0
VERTEX
  8
0
  6
CONTINUOUS
 10
5.803160
 20
1.256640
  0
VERTEX
  8
0
  6
CONTINUOUS
 10
5.723960
 20
1.233320
  0
SEQEND
  8
0
  0
SOLID
  8
0
 62
    15
 10
5.803160
 20
1.256640
 11
5.794360
 21
1.991000
 12
5.874000
 22
1.287880
 13
5.865200
 23
2.022240
  0
POLYLINE
  8
0
  6
CONTINUOUS
 66
     1
 40
0.011880
 41
0.011880
  0
VERTEX
  8
0
  6
CONTINUOUS
 10
5.803160
 20
1.256640
  0
VERTEX
  8
0
  6
CONTINUOUS
 10
5.794360
 20
1.991000
  0
VERTEX
  8
0
  6
CONTINUOUS
 10
5.865200
 20
2.022240
  0
VERTEX
  8
0
  6
CONTINUOUS
 10
5.874000
 20
1.287880
  0
VERTEX
  8
0
  6
CONTINUOUS
 10
5.803160
 20
1.256640
  0
SEQEND
  8
0
  0
SOLID
  8
0
 62
    15
 10
5.874000
 20
1.287880
 11
5.865200
 21
2.022240
 12
5.934720
 22
1.325720
 13
5.926360
 23
2.060080
  0
POLYLINE
  8
0
  6
CONTINUOUS
 66
     1
 40
0.011880
 41
0.011880
  0
VERTEX
  8
0
  6
CONTINUOUS
 10
5.874000
 20
1.287880
  0
VERTEX
  8
0
  6
CONTINUOUS
 10
5.865200
 20
2.022240
  0
VERTEX
  8
0
  6
CONTINUOUS
 10
5.926360
 20
2.060080
  0
VERTEX
  8
0
  6
CONTINUOUS
 10
5.934720
 20
1.325720
  0
VERTEX
  8
0
  6
CONTINUOUS
 10
5.874000
 20
1.287880
  0
SEQEND
  8
0
  0
SOLID
  8
0
 62
    15
 10
5.934720
 20
1.325720
 11
5.926360
 21
2.060080
 12
5.984000
 22
1.368840
 13
5.975640
 23
2.103200
  0
POLYLINE
  8
0
  6
CONTINUOUS
 66
     1
 40
0.011880
 41
0.011880
  0
VERTEX
  8
0
  6
CONTINUOUS
 10
5.934720
 20
1.325720
  0
VERTEX
  8
0
  6
CONTINUOUS
 10
5.926360
 20
2.060080
  0
VERTEX
  8
0
  6
CONTINUOUS
 10
5.975640
 20
2.103200
  0
VERTEX
  8
0
  6
CONTINUOUS
 10
5.984000
 20
1.368840
  0
VERTEX
  8
0
  6
CONTINUOUS
 10
5.934720
 20
1.325720
  0
SEQEND
  8
0
  0
SOLID
  8
0
 62
    15
 10
5.984000
 20
1.368840
 11
5.975640
 21
2.103200
 12
6.019640
 22
1.415920
 13
6.010840
 23
2.150280
  0
POLYLINE
  8
0
  6
CONTINUOUS
 66
     1
 40
0.011880
 41
0.011880
  0
VERTEX
  8
0
  6
CONTINUOUS
 10
5.984000
 20
1.368840
  0
VERTEX
  8
0
  6
CONTINUOUS
 10
5.975640
 20
2.103200
  0
VERTEX
  8
0
  6
CONTINUOUS
 10
6.010840
 20
2.150280
  0
VERTEX
  8
0
  6
CONTINUOUS
 10
6.019640
 20
1.415920
  0
VERTEX
  8
0
  6
CONTINUOUS
 10
5.984000
 20
1.368840
  0
SEQEND
  8
0
  0
SOLID
  8
0
 62
    15
 10
6.019640
 20
1.415920
 11
6.010840
 21
2.150280
 12
6.039440
 22
1.465200
 13
6.030640
 23
2.199560
  0
POLYLINE
  8
0
  6
CONTINUOUS
 66
     1
 40
0.011880
 41
0.011880
  0
VERTEX
  8
0
  6
CONTINUOUS
 10
6.019640
 20
1.415920
  0
VERTEX
  8
0
  6
CONTINUOUS
 10
6.010840
 20
2.150280
  0
VERTEX
  8
0
  6
CONTINUOUS
 10
6.030640
 20
2.199560
  0
VERTEX
  8
0
  6
CONTINUOUS
 10
6.039440
 20
1.465200
  0
VERTEX
  8
0
  6
CONTINUOUS
 10
6.019640
 20
1.415920
  0
SEQEND
  8
0
  0
SOLID
  8
0
 62
    15
 10
6.039440
 20
1.465200
 11
6.030640
 21
2.199560
 12
6.325880
 22
1.465200
 13
6.317520
 23
2.199560
  0
POLYLINE
  8
0
  6
CONTINUOUS
 66
     1
 40
0.011880
 41
0.011880
  0
VERTEX
  8
0
  6
CONTINUOUS
 10
6.039440
 20
1.465200
  0
VERTEX
  8
0
  6
CONTINUOUS
 10
6.030640
 20
2.199560
  0
VERTEX
  8
0
  6
CONTINUOUS
 10
6.317520
 20
2.199560
  0
VERTEX
  8
0
  6
CONTINUOUS
 10
6.325880
 20
1.465200
  0
VERTEX
  8
0
  6
CONTINUOUS
 10
6.039440
 20
1.465200
  0
SEQEND
  8
0
  0
SOLID
  8
0
 62
    15
 10
6.325880
 20
1.465200
 11
6.317520
 21
2.199560
 12
6.331600
 22
1.518880
 13
6.322800
 23
2.253240
  0
POLYLINE
  8
0
  6
CONTINUOUS
 66
     1
 40
0.011880
 41
0.011880
  0
VERTEX
  8
0
  6
CONTINUOUS
 10
6.325880
 20
1.465200
  0
VERTEX
  8
0
  6
CONTINUOUS
 10
6.317520
 20
2.199560
  0
VERTEX
  8
0
  6
CONTINUOUS
 10
6.322800
 20
2.253240
  0
VERTEX
  8
0
  6
CONTINUOUS
 10
6.331600
 20
1.518880
  0
VERTEX
  8
0
  6
CONTINUOUS
 10
6.325880
 20
1.465200
  0
SEQEND
  8
0
  0
SOLID
  8
0
 62
    15
 10
6.331600
 20
1.518880
 11
6.322800
 21
2.253240
 12
6.347000
 22
1.568600
 13
6.338640
 23
2.302960
  0
POLYLINE
  8
0
  6
CONTINUOUS
 66
     1
 40
0.011880
 41
0.011880
  0
VERTEX
  8
0
  6
CONTINUOUS
 10
6.331600
 20
1.518880
  0
VERTEX
  8
0
  6
CONTINUOUS
 10
6.322800
 20
2.253240
  0
VERTEX
  8
0
  6
CONTINUOUS
 10
6.338640
 20
2.302960
  0
VERTEX
  8
0
  6
CONTINUOUS
 10
6.347000
 20
1.568600
  0
VERTEX
  8
0
  6
CONTINUOUS
 10
6.331600
 20
1.518880
  0
SEQEND
  8
0
  0
SOLID
  8
0
 62
    15
 10
6.347000
 20
1.568600
 11
6.338640
 21
2.302960
 12
6.372080
 22
1.612600
 13
6.363720
 23
2.346960
  0
POLYLINE
  8
0
  6
CONTINUOUS
 66
     1
 40
0.011880
 41
0.011880
  0
VERTEX
  8
0
  6
CONTINUOUS
 10
6.347000
 20
1.568600
  0
VERTEX
  8
0
  6
CONTINUOUS
 10
6.338640
 20
2.302960
  0
VERTEX
  8
0
  6
CONTINUOUS
 10
6.363720
 20
2.346960
  0
VERTEX
  8
0
  6
CONTINUOUS
 10
6.372080
 20
1.612600
  0
VERTEX
  8
0
  6
CONTINUOUS
 10
6.347000
 20
1.568600
  0
SEQEND
  8
0
  0
SOLID
  8
0
 62
    15
 10
6.372080
 20
1.612600
 11
6.363720
 21
2.346960
 12
6.405080
 22
1.650440
 13
6.396720
 23
2.384800
  0
POLYLINE
  8
0
  6
CONTINUOUS
 66
     1
 40
0.011880
 41
0.011880
  0
VERTEX
  8
0
  6
CONTINUOUS
 10
6.372080
 20
1.612600
  0
VERTEX
  8
0
  6
CONTINUOUS
 10
6.363720
 20
2.346960
  0
VERTEX
  8
0
  6
CONTINUOUS
 10
6.396720
 20
2.384800
  0
VERTEX
  8
0
  6
CONTINUOUS
 10
6.405080
 20
1.650440
  0
VERTEX
  8
0
  6
CONTINUOUS
 10
6.372080
 20
1.612600
  0
SEQEND
  8
0
  0
SOLID
  8
0
 62
    15
 10
6.405080
 20
1.650440
 11
6.396720
 21
2.384800
 12
6.445120
 22
1.681240
 13
6.436760
 23
2.415600
  0
POLYLINE
  8
0
  6
CONTINUOUS
 66
     1
 40
0.011880
 41
0.011880
  0
VERTEX
  8
0
  6
CONTINUOUS
 10
6.405080
 20
1.650440
  0
VERTEX
  8
0
  6
CONTINUOUS
 10
6.396720
 20
2.384800
  0
VERTEX
  8
0
  6
CONTINUOUS
 10
6.436760
 20
2.415600
  0
VERTEX
  8
0
  6
CONTINUOUS
 10
6.445120
 20
1.681240
  0
VERTEX
  8
0
  6
CONTINUOUS
 10
6.405080
 20
1.650440
  0
SEQEND
  8
0
  0
SOLID
  8
0
 62
    15
 10
6.445120
 20
1.681240
 11
6.436760
 21
2.415600
 12
6.491320
 22
1.704120
 13
6.482520
 23
2.438480
  0
POLYLINE
  8
0
  6
CONTINUOUS
 66
     1
 40
0.011880
 41
0.011880
  0
VERTEX
  8
0
  6
CONTINUOUS
 10
6.445120
 20
1.681240
  0
VERTEX
  8
0
  6
CONTINUOUS
 10
6.436760
 20
2.415600
  0
VERTEX
  8
0
  6
CONTINUOUS
 10
6.482520
 20
2.438480
  0
VERTEX
  8
0
  6
CONTINUOUS
 10
6.491320
 20
1.704120
  0
VERTEX
  8
0
  6
CONTINUOUS
 10
6.445120
 20
1.681240
  0
SEQEND
  8
0
  0
SOLID
  8
0
 62
    15
 10
6.491320
 20
1.704120
 11
6.482520
 21
2.438480
 12
6.541920
 22
1.718640
 13
6.533560
 23
2.453000
  0
POLYLINE
  8
0
  6
CONTINUOUS
 66
     1
 40
0.011880
 41
0.011880
  0
VERTEX
  8
0
  6
CONTINUOUS
 10
6.491320
 20
1.704120
  0
VERTEX
  8
0
  6
CONTINUOUS
 10
6.482520
 20
2.438480
  0
VERTEX
  8
0
  6
CONTINUOUS
 10
6.533560
 20
2.453000
  0
VERTEX
  8
0
  6
CONTINUOUS
 10
6.541920
 20
1.718640
  0
VERTEX
  8
0
  6
CONTINUOUS
 10
6.491320
 20
1.704120
  0
SEQEND
  8
0
  0
SOLID
  8
0
 62
    15
 10
6.541920
 20
1.718640
 11
6.533560
 21
2.453000
 12
6.596480
 22
1.723480
 13
6.588120
 23
2.457840
  0
POLYLINE
  8
0
  6
CONTINUOUS
 66
     1
 40
0.011880
 41
0.011880
  0
VERTEX
  8
0
  6
CONTINUOUS
 10
6.541920
 20
1.718640
  0
VERTEX
  8
0
  6
CONTINUOUS
 10
6.533560
 20
2.453000
  0
VERTEX
  8
0
  6
CONTINUOUS
 10
6.588120
 20
2.457840
  0
VERTEX
  8
0
  6
CONTINUOUS
 10
6.596480
 20
1.723480
  0
VERTEX
  8
0
  6
CONTINUOUS
 10
6.541920
 20
1.718640
  0
SEQEND
  8
0
  0
SOLID
  8
0
 62
    15
 10
6.596480
 20
1.723480
 11
6.588120
 21
2.457840
 12
6.651040
 22
1.718640
 13
6.642680
 23
2.453000
  0
POLYLINE
  8
0
  6
CONTINUOUS
 66
     1
 40
0.011880
 41
0.011880
  0
VERTEX
  8
0
  6
CONTINUOUS
 10
6.596480
 20
1.723480
  0
VERTEX
  8
0
  6
CONTINUOUS
 10
6.588120
 20
2.457840
  0
VERTEX
  8
0
  6
CONTINUOUS
 10
6.642680
 20
2.453000
  0
VERTEX
  8
0
  6
CONTINUOUS
 10
6.651040
 20
1.718640
  0
VERTEX
  8
0
  6
CONTINUOUS
 10
6.596480
 20
1.723480
  0
SEQEND
  8
0
  0
SOLID
  8
0
 62
    15
 10
6.651040
 20
1.718640
 11
6.642680
 21
2.453000
 12
6.702080
 22
1.704120
 13
6.693720
 23
2.438480
  0
POLYLINE
  8
0
  6
CONTINUOUS
 66
     1
 40
0.011880
 41
0.011880
  0
VERTEX
  8
0
  6
CONTINUOUS
 10
6.651040
 20
1.718640
  0
VERTEX
  8
0
  6
CONTINUOUS
 10
6.642680
 20
2.453000
  0
VERTEX
  8
0
  6
CONTINUOUS
 10
6.693720
 20
2.438480
  0
VERTEX
  8
0
  6
CONTINUOUS
 10
6.702080
 20
1.704120
  0
VERTEX
  8
0
  6
CONTINUOUS
 10
6.651040
 20
1.718640
  0
SEQEND
  8
0
  0
SOLID
  8
0
 62
    15
 10
6.702080
 20
1.704120
 11
6.693720
 21
2.438480
 12
6.748280
 22
1.681240
 13
6.739480
 23
2.415600
  0
POLYLINE
  8
0
  6
CONTINUOUS
 66
     1
 40
0.011880
 41
0.011880
  0
VERTEX
  8
0
  6
CONTINUOUS
 10
6.702080
 20
1.704120
  0
VERTEX
  8
0
  6
CONTINUOUS
 10
6.693720
 20
2.438480
  0
VERTEX
  8
0
  6
CONTINUOUS
 10
6.739480
 20
2.415600
  0
VERTEX
  8
0
  6
CONTINUOUS
 10
6.748280
 20
1.681240
  0
VERTEX
  8
0
  6
CONTINUOUS
 10
6.702080
 20
1.704120
  0
SEQEND
  8
0
  0
SOLID
  8
0
 62
    15
 10
6.748280
 20
1.681240
 11
6.739480
 21
2.415600
 12
6.788760
 22
1.650440
 13
6.779960
 23
2.384800
  0
POLYLINE
  8
0
  6
CONTINUOUS
 66
     1
 40
0.011880
 41
0.011880
  0
VERTEX
  8
0
  6
CONTINUOUS
 10
6.748280
 20
1.681240
  0
VERTEX
  8
0
  6
CONTINUOUS
 10
6.739480
 20
2.415600
  0
VERTEX
  8
0
  6
CONTINUOUS
 10
6.779960
 20
2.384800
  0
VERTEX
  8
0
  6
CONTINUOUS
 10
6.788760
 20
1.650440
  0
VERTEX
  8
0
  6
CONTINUOUS
 10
6.748280
 20
1.681240
  0
SEQEND
  8
0
  0
SOLID
  8
0
 62
    15
 10
6.788760
 20
1.650440
 11
6.779960
 21
2.384800
 12
6.821760
 22
1.612600
 13
6.813400
 23
2.346960
  0
POLYLINE
  8
0
  6
CONTINUOUS
 66
     1
 40
0.011880
 41
0.011880
  0
VERTEX
  8
0
  6
CONTINUOUS
 10
6.788760
 20
1.650440
  0
VERTEX
  8
0
  6
CONTINUOUS
 10
6.779960
 20
2.384800
  0
VERTEX
  8
0
  6
CONTINUOUS
 10
6.813400
 20
2.346960
  0
VERTEX
  8
0
  6
CONTINUOUS
 10
6.821760
 20
1.612600
  0
VERTEX
  8
0
  6
CONTINUOUS
 10
6.788760
 20
1.650440
  0
SEQEND
  8
0
  0
SOLID
  8
0
 62
    15
 10
6.846840
 20
1.568600
 11
6.838480
 21
2.302960
 12
6.863120
 22
1.518880
 13
6.854320
 23
2.253240
  0
POLYLINE
  8
0
  6
CONTINUOUS
 66
     1
 40
0.011880
 41
0.011880
  0
VERTEX
  8
0
  6
CONTINUOUS
 10
6.846840
 20
1.568600
  0
VERTEX
  8
0
  6
CONTINUOUS
 10
6.838480
 20
2.302960
  0
VERTEX
  8
0
  6
CONTINUOUS
 10
6.854320
 20
2.253240
  0
VERTEX
  8
0
  6
CONTINUOUS
 10
6.863120
 20
1.518880
  0
VERTEX
  8
0
  6
CONTINUOUS
 10
6.846840
 20
1.568600
  0
SEQEND
  8
0
  0
SOLID
  8
0
 62
    15
 10
6.821760
 20
1.612600
 11
6.813400
 21
2.346960
 12
6.846840
 22
1.568600
 13
6.838480
 23
2.302960
  0
POLYLINE
  8
0
  6
CONTINUOUS
 66
     1
 40
0.011880
 41
0.011880
  0
VERTEX
  8
0
  6
CONTINUOUS
 10
6.821760
 20
1.612600
  0
VERTEX
  8
0
  6
CONTINUOUS
 10
6.813400
 20
2.346960
  0
VERTEX
  8
0
  6
CONTINUOUS
 10
6.838480
 20
2.302960
  0
VERTEX
  8
0
  6
CONTINUOUS
 10
6.846840
 20
1.568600
  0
VERTEX
  8
0
  6
CONTINUOUS
 10
6.821760
 20
1.612600
  0
SEQEND
  8
0
  0
SOLID
  8
0
 62
    15
 10
7.155280
 20
1.465200
 11
7.146920
 21
2.199560
 12
7.168920
 22
1.411520
 13
7.160120
 23
2.145880
  0
POLYLINE
  8
0
  6
CONTINUOUS
 66
     1
 40
0.011880
 41
0.011880
  0
VERTEX
  8
0
  6
CONTINUOUS
 10
7.155280
 20
1.465200
  0
VERTEX
  8
0
  6
CONTINUOUS
 10
7.146920
 20
2.199560
  0
VERTEX
  8
0
  6
CONTINUOUS
 10
7.160120
 20
2.145880
  0
VERTEX
  8
0
  6
CONTINUOUS
 10
7.168920
 20
1.411520
  0
VERTEX
  8
0
  6
CONTINUOUS
 10
7.155280
 20
1.465200
  0
SEQEND
  8
0
  0
SOLID
  8
0
 62
    15
 10
4.924480
 20
1.749000
 11
4.916120
 21
2.483360
 12
4.949120
 22
1.679480
 13
4.940320
 23
2.413840
  0
POLYLINE
  8
0
  6
CONTINUOUS
 66
     1
 40
0.011880
 41
0.011880
  0
VERTEX
  8
0
  6
CONTINUOUS
 10
4.924480
 20
1.749000
  0
VERTEX
  8
0
  6
CONTINUOUS
 10
4.916120
 20
2.483360
  0
VERTEX
  8
0
  6
CONTINUOUS
 10
4.940320
 20
2.413840
  0
VERTEX
  8
0
  6
CONTINUOUS
 10
4.949120
 20
1.679480
  0
VERTEX
  8
0
  6
CONTINUOUS
 10
4.924480
 20
1.749000
  0
SEQEND
  8
0
  0
SOLID
  8
0
 62
    15
 10
6.868400
 20
1.465200
 11
6.860040
 21
2.199560
 12
7.155280
 22
1.465200
 13
7.146920
 23
2.199560
  0
POLYLINE
  8
0
  6
CONTINUOUS
 66
     1
 40
0.011880
 41
0.011880
  0
VERTEX
  8
0
  6
CONTINUOUS
 10
6.868400
 20
1.465200
  0
VERTEX
  8
0
  6
CONTINUOUS
 10
6.860040
 20
2.199560
  0
VERTEX
  8
0
  6
CONTINUOUS
 10
7.146920
 20
2.199560
  0
VERTEX
  8
0
  6
CONTINUOUS
 10
7.155280
 20
1.465200
  0
VERTEX
  8
0
  6
CONTINUOUS
 10
6.868400
 20
1.465200
  0
SEQEND
  8
0
  0
SOLID
  8
0
 62
    15
 10
6.863120
 20
1.518880
 11
6.854320
 21
2.253240
 12
6.868400
 22
1.465200
 13
6.860040
 23
2.199560
  0
POLYLINE
  8
0
  6
CONTINUOUS
 66
     1
 40
0.011880
 41
0.011880
  0
VERTEX
  8
0
  6
CONTINUOUS
 10
6.863120
 20
1.518880
  0
VERTEX
  8
0
  6
CONTINUOUS
 10
6.854320
 20
2.253240
  0
VERTEX
  8
0
  6
CONTINUOUS
 10
6.860040
 20
2.199560
  0
VERTEX
  8
0
  6
CONTINUOUS
 10
6.868400
 20
1.465200
  0
VERTEX
  8
0
  6
CONTINUOUS
 10
6.863120
 20
1.518880
  0
SEQEND
  8
0
  0
SOLID
  8
0
 62
    15
 10
7.198840
 20
1.357840
 11
7.190480
 21
2.092200
 12
7.243280
 22
1.305920
 13
7.234480
 23
2.040280
  0
POLYLINE
  8
0
  6
CONTINUOUS
 66
     1
 40
0.011880
 41
0.011880
  0
VERTEX
  8
0
  6
CONTINUOUS
 10
7.198840
 20
1.357840
  0
VERTEX
  8
0
  6
CONTINUOUS
 10
7.190480
 20
2.092200
  0
VERTEX
  8
0
  6
CONTINUOUS
 10
7.234480
 20
2.040280
  0
VERTEX
  8
0
  6
CONTINUOUS
 10
7.243280
 20
1.305920
  0
VERTEX
  8
0
  6
CONTINUOUS
 10
7.198840
 20
1.357840
  0
SEQEND
  8
0
  0
SOLID
  8
0
 62
    15
 10
7.243280
 20
1.305920
 11
7.234480
 21
2.040280
 12
7.299600
 22
1.258400
 13
7.291240
 23
1.992760
  0
POLYLINE
  8
0
  6
CONTINUOUS
 66
     1
 40
0.011880
 41
0.011880
  0
VERTEX
  8
0
  6
CONTINUOUS
 10
7.243280
 20
1.305920
  0
VERTEX
  8
0
  6
CONTINUOUS
 10
7.234480
 20
2.040280
  0
VERTEX
  8
0
  6
CONTINUOUS
 10
7.291240
 20
1.992760
  0
VERTEX
  8
0
  6
CONTINUOUS
 10
7.299600
 20
1.258400
  0
VERTEX
  8
0
  6
CONTINUOUS
 10
7.243280
 20
1.305920
  0
SEQEND
  8
0
  0
SOLID
  8
0
 62
    15
 10
7.299600
 20
1.258400
 11
7.291240
 21
1.992760
 12
7.365600
 22
1.217480
 13
7.356800
 23
1.951840
  0
POLYLINE
  8
0
  6
CONTINUOUS
 66
     1
 40
0.011880
 41
0.011880
  0
VERTEX
  8
0
  6
CONTINUOUS
 10
7.299600
 20
1.258400
  0
VERTEX
  8
0
  6
CONTINUOUS
 10
7.291240
 20
1.992760
  0
VERTEX
  8
0
  6
CONTINUOUS
 10
7.356800
 20
1.951840
  0
VERTEX
  8
0
  6
CONTINUOUS
 10
7.365600
 20
1.217480
  0
VERTEX
  8
0
  6
CONTINUOUS
 10
7.299600
 20
1.258400
  0
SEQEND
  8
0
  0
SOLID
  8
0
 62
    15
 10
7.365600
 20
1.217480
 11
7.356800
 21
1.951840
 12
7.438640
 22
1.185360
 13
7.430280
 23
1.919720
  0
POLYLINE
  8
0
  6
CONTINUOUS
 66
     1
 40
0.011880
 41
0.011880
  0
VERTEX
  8
0
  6
CONTINUOUS
 10
7.365600
 20
1.217480
  0
VERTEX
  8
0
  6
CONTINUOUS
 10
7.356800
 20
1.951840
  0
VERTEX
  8
0
  6
CONTINUOUS
 10
7.430280
 20
1.919720
  0
VERTEX
  8
0
  6
CONTINUOUS
 10
7.438640
 20
1.185360
  0
VERTEX
  8
0
  6
CONTINUOUS
 10
7.365600
 20
1.217480
  0
SEQEND
  8
0
  0
SOLID
  8
0
 62
    15
 10
7.438640
 20
1.185360
 11
7.430280
 21
1.919720
 12
7.516960
 22
1.164680
 13
7.508600
 23
1.899040
  0
POLYLINE
  8
0
  6
CONTINUOUS
 66
     1
 40
0.011880
 41
0.011880
  0
VERTEX
  8
0
  6
CONTINUOUS
 10
7.438640
 20
1.185360
  0
VERTEX
  8
0
  6
CONTINUOUS
 10
7.430280
 20
1.919720
  0
VERTEX
  8
0
  6
CONTINUOUS
 10
7.508600
 20
1.899040
  0
VERTEX
  8
0
  6
CONTINUOUS
 10
7.516960
 20
1.164680
  0
VERTEX
  8
0
  6
CONTINUOUS
 10
7.438640
 20
1.185360
  0
SEQEND
  8
0
  0
SOLID
  8
0
 62
    15
 10
7.516960
 20
1.164680
 11
7.508600
 21
1.899040
 12
7.597920
 22
1.157200
 13
7.589560
 23
1.891560
  0
POLYLINE
  8
0
  6
CONTINUOUS
 66
     1
 40
0.011880
 41
0.011880
  0
VERTEX
  8
0
  6
CONTINUOUS
 10
7.516960
 20
1.164680
  0
VERTEX
  8
0
  6
CONTINUOUS
 10
7.508600
 20
1.899040
  0
VERTEX
  8
0
  6
CONTINUOUS
 10
7.589560
 20
1.891560
  0
VERTEX
  8
0
  6
CONTINUOUS
 10
7.597920
 20
1.157200
  0
VERTEX
  8
0
  6
CONTINUOUS
 10
7.516960
 20
1.164680
  0
SEQEND
  8
0
  0
SOLID
  8
0
 62
    15
 10
7.597920
 20
1.157200
 11
7.589560
 21
1.891560
 12
7.599240
 22
1.157200
 13
7.590880
 23
1.891560
  0
POLYLINE
  8
0
  6
CONTINUOUS
 66
     1
 40
0.011880
 41
0.011880
  0
VERTEX
  8
0
  6
CONTINUOUS
 10
7.597920
 20
1.157200
  0
VERTEX
  8
0
  6
CONTINUOUS
 10
7.589560
 20
1.891560
  0
VERTEX
  8
0
  6
CONTINUOUS
 10
7.590880
 20
1.891560
  0
VERTEX
  8
0
  6
CONTINUOUS
 10
7.599240
 20
1.157200
  0
VERTEX
  8
0
  6
CONTINUOUS
 10
7.597920
 20
1.157200
  0
SEQEND
  8
0
  0
SOLID
  8
0
 62
    15
 10
2.272600
 20
0.931920
 11
2.264240
 21
1.666280
 12
2.272600
 22
2.203520
 13
2.264240
 23
2.937880
  0
POLYLINE
  8
0
  6
CONTINUOUS
 66
     1
 40
0.011880
 41
0.011880
  0
VERTEX
  8
0
  6
CONTINUOUS
 10
2.272600
 20
0.931920
  0
VERTEX
  8
0
  6
CONTINUOUS
 10
2.264240
 20
1.666280
  0
VERTEX
  8
0
  6
CONTINUOUS
 10
2.264240
 20
2.937880
  0
VERTEX
  8
0
  6
CONTINUOUS
 10
2.272600
 20
2.203520
  0
VERTEX
  8
0
  6
CONTINUOUS
 10
2.272600
 20
0.931920
  0
SEQEND
  8
0
  0
SOLID
  8
0
 62
    15
 10
2.272600
 20
2.203520
 11
2.264240
 21
2.937880
 12
3.490080
 22
2.203520
 13
3.481280
 23
2.937880
  0
POLYLINE
  8
0
  6
CONTINUOUS
 66
     1
 40
0.011880
 41
0.011880
  0
VERTEX
  8
0
  6
CONTINUOUS
 10
2.272600
 20
2.203520
  0
VERTEX
  8
0
  6
CONTINUOUS
 10
2.264240
 20
2.937880
  0
VERTEX
  8
0
  6
CONTINUOUS
 10
3.481280
 20
2.937880
  0
VERTEX
  8
0
  6
CONTINUOUS
 10
3.490080
 20
2.203520
  0
VERTEX
  8
0
  6
CONTINUOUS
 10
2.272600
 20
2.203520
  0
SEQEND
  8
0
  0
SOLID
  8
0
 62
    15
 10
3.490080
 20
2.203520
 11
3.481280
 21
2.937880
 12
3.514720
 22
2.124760
 13
3.505920
 23
2.859120
  0
POLYLINE
  8
0
  6
CONTINUOUS
 66
     1
 40
0.011880
 41
0.011880
  0
VERTEX
  8
0
  6
CONTINUOUS
 10
3.490080
 20
2.203520
  0
VERTEX
  8
0
  6
CONTINUOUS
 10
3.481280
 20
2.937880
  0
VERTEX
  8
0
  6
CONTINUOUS
 10
3.505920
 20
2.859120
  0
VERTEX
  8
0
  6
CONTINUOUS
 10
3.514720
 20
2.124760
  0
VERTEX
  8
0
  6
CONTINUOUS
 10
3.490080
 20
2.203520
  0
SEQEND
  8
0
  0
SOLID
  8
0
 62
    15
 10
3.514720
 20
2.124760
 11
3.505920
 21
2.859120
 12
3.539360
 22
2.063160
 13
3.530560
 23
2.797520
  0
POLYLINE
  8
0
  6
CONTINUOUS
 66
     1
 40
0.011880
 41
0.011880
  0
VERTEX
  8
0
  6
CONTINUOUS
 10
3.514720
 20
2.124760
  0
VERTEX
  8
0
  6
CONTINUOUS
 10
3.505920
 20
2.859120
  0
VERTEX
  8
0
  6
CONTINUOUS
 10
3.530560
 20
2.797520
  0
VERTEX
  8
0
  6
CONTINUOUS
 10
3.539360
 20
2.063160
  0
VERTEX
  8
0
  6
CONTINUOUS
 10
3.514720
 20
2.124760
  0
SEQEND
  8
0
  0
SOLID
  8
0
 62
    15
 10
3.539360
 20
2.063160
 11
3.530560
 21
2.797520
 12
3.563560
 22
2.016080
 13
3.555200
 23
2.750440
  0
POLYLINE
  8
0
  6
CONTINUOUS
 66
     1
 40
0.011880
 41
0.011880
  0
VERTEX
  8
0
  6
CONTINUOUS
 10
3.539360
 20
2.063160
  0
VERTEX
  8
0
  6
CONTINUOUS
 10
3.530560
 20
2.797520
  0
VERTEX
  8
0
  6
CONTINUOUS
 10
3.555200
 20
2.750440
  0
VERTEX
  8
0
  6
CONTINUOUS
 10
3.563560
 20
2.016080
  0
VERTEX
  8
0
  6
CONTINUOUS
 10
3.539360
 20
2.063160
  0
SEQEND
  8
0
  0
SOLID
  8
0
 62
    15
 10
3.563560
 20
2.016080
 11
3.555200
 21
2.750440
 12
3.589080
 22
1.980000
 13
3.580280
 23
2.714360
  0
POLYLINE
  8
0
  6
CONTINUOUS
 66
     1
 40
0.011880
 41
0.011880
  0
VERTEX
  8
0
  6
CONTINUOUS
 10
3.563560
 20
2.016080
  0
VERTEX
  8
0
  6
CONTINUOUS
 10
3.555200
 20
2.750440
  0
VERTEX
  8
0
  6
CONTINUOUS
 10
3.580280
 20
2.714360
  0
VERTEX
  8
0
  6
CONTINUOUS
 10
3.589080
 20
1.980000
  0
VERTEX
  8
0
  6
CONTINUOUS
 10
3.563560
 20
2.016080
  0
SEQEND
  8
0
  0
SOLID
  8
0
 62
    15
 10
3.589080
 20
1.980000
 11
3.580280
 21
2.714360
 12
3.642320
 22
1.931600
 13
3.633520
 23
2.665960
  0
POLYLINE
  8
0
  6
CONTINUOUS
 66
     1
 40
0.011880
 41
0.011880
  0
VERTEX
  8
0
  6
CONTINUOUS
 10
3.589080
 20
1.980000
  0
VERTEX
  8
0
  6
CONTINUOUS
 10
3.580280
 20
2.714360
  0
VERTEX
  8
0
  6
CONTINUOUS
 10
3.633520
 20
2.665960
  0
VERTEX
  8
0
  6
CONTINUOUS
 10
3.642320
 20
1.931600
  0
VERTEX
  8
0
  6
CONTINUOUS
 10
3.589080
 20
1.980000
  0
SEQEND
  8
0
  0
SOLID
  8
0
 62
    15
 10
3.642320
 20
1.931600
 11
3.633520
 21
2.665960
 12
3.702160
 22
1.894200
 13
3.693360
 23
2.628560
  0
POLYLINE
  8
0
  6
CONTINUOUS
 66
     1
 40
0.011880
 41
0.011880
  0
VERTEX
  8
0
  6
CONTINUOUS
 10
3.642320
 20
1.931600
  0
VERTEX
  8
0
  6
CONTINUOUS
 10
3.633520
 20
2.665960
  0
VERTEX
  8
0
  6
CONTINUOUS
 10
3.693360
 20
2.628560
  0
VERTEX
  8
0
  6
CONTINUOUS
 10
3.702160
 20
1.894200
  0
VERTEX
  8
0
  6
CONTINUOUS
 10
3.642320
 20
1.931600
  0
SEQEND
  8
0
  0
SOLID
  8
0
 62
    15
 10
3.702160
 20
1.894200
 11
3.693360
 21
2.628560
 12
3.740880
 22
1.977360
 13
3.732520
 23
2.711720
  0
POLYLINE
  8
0
  6
CONTINUOUS
 66
     1
 40
0.011880
 41
0.011880
  0
VERTEX
  8
0
  6
CONTINUOUS
 10
3.702160
 20
1.894200
  0
VERTEX
  8
0
  6
CONTINUOUS
 10
3.693360
 20
2.628560
  0
VERTEX
  8
0
  6
CONTINUOUS
 10
3.732520
 20
2.711720
  0
VERTEX
  8
0
  6
CONTINUOUS
 10
3.740880
 20
1.977360
  0
VERTEX
  8
0
  6
CONTINUOUS
 10
3.702160
 20
1.894200
  0
SEQEND
  8
0
  0
SOLID
  8
0
 62
    15
 10
3.740880
 20
1.977360
 11
3.732520
 21
2.711720
 12
3.791040
 22
2.044240
 13
3.782680
 23
2.778600
  0
POLYLINE
  8
0
  6
CONTINUOUS
 66
     1
 40
0.011880
 41
0.011880
  0
VERTEX
  8
0
  6
CONTINUOUS
 10
3.740880
 20
1.977360
  0
VERTEX
  8
0
  6
CONTINUOUS
 10
3.732520
 20
2.711720
  0
VERTEX
  8
0
  6
CONTINUOUS
 10
3.782680
 20
2.778600
  0
VERTEX
  8
0
  6
CONTINUOUS
 10
3.791040
 20
2.044240
  0
VERTEX
  8
0
  6
CONTINUOUS
 10
3.740880
 20
1.977360
  0
SEQEND
  8
0
  0
SOLID
  8
0
 62
    15
 10
3.791040
 20
2.044240
 11
3.782680
 21
2.778600
 12
3.850880
 22
2.096600
 13
3.842520
 23
2.830960
  0
POLYLINE
  8
0
  6
CONTINUOUS
 66
     1
 40
0.011880
 41
0.011880
  0
VERTEX
  8
0
  6
CONTINUOUS
 10
3.791040
 20
2.044240
  0
VERTEX
  8
0
  6
CONTINUOUS
 10
3.782680
 20
2.778600
  0
VERTEX
  8
0
  6
CONTINUOUS
 10
3.842520
 20
2.830960
  0
VERTEX
  8
0
  6
CONTINUOUS
 10
3.850880
 20
2.096600
  0
VERTEX
  8
0
  6
CONTINUOUS
 10
3.791040
 20
2.044240
  0
SEQEND
  8
0
  0
SOLID
  8
0
 62
    15
 10
3.850880
 20
2.096600
 11
3.842520
 21
2.830960
 12
3.918200
 22
2.134440
 13
3.909400
 23
2.868800
  0
POLYLINE
  8
0
  6
CONTINUOUS
 66
     1
 40
0.011880
 41
0.011880
  0
VERTEX
  8
0
  6
CONTINUOUS
 10
3.850880
 20
2.096600
  0
VERTEX
  8
0
  6
CONTINUOUS
 10
3.842520
 20
2.830960
  0
VERTEX
  8
0
  6
CONTINUOUS
 10
3.909400
 20
2.868800
  0
VERTEX
  8
0
  6
CONTINUOUS
 10
3.918200
 20
2.134440
  0
VERTEX
  8
0
  6
CONTINUOUS
 10
3.850880
 20
2.096600
  0
SEQEND
  8
0
  0
SOLID
  8
0
 62
    15
 10
3.918200
 20
2.134440
 11
3.909400
 21
2.868800
 12
3.991240
 22
2.159080
 13
3.982440
 23
2.893440
  0
POLYLINE
  8
0
  6
CONTINUOUS
 66
     1
 40
0.011880
 41
0.011880
  0
VERTEX
  8
0
  6
CONTINUOUS
 10
3.918200
 20
2.134440
  0
VERTEX
  8
0
  6
CONTINUOUS
 10
3.909400
 20
2.868800
  0
VERTEX
  8
0
  6
CONTINUOUS
 10
3.982440
 20
2.893440
  0
VERTEX
  8
0
  6
CONTINUOUS
 10
3.991240
 20
2.159080
  0
VERTEX
  8
0
  6
CONTINUOUS
 10
3.918200
 20
2.134440
  0
SEQEND
  8
0
  0
SOLID
  8
0
 62
    15
 10
3.991240
 20
2.159080
 11
3.982440
 21
2.893440
 12
4.067800
 22
2.170520
 13
4.059440
 23
2.904880
  0
POLYLINE
  8
0
  6
CONTINUOUS
 66
     1
 40
0.011880
 41
0.011880
  0
VERTEX
  8
0
  6
CONTINUOUS
 10
3.991240
 20
2.159080
  0
VERTEX
  8
0
  6
CONTINUOUS
 10
3.982440
 20
2.893440
  0
VERTEX
  8
0
  6
CONTINUOUS
 10
4.059440
 20
2.904880
  0
VERTEX
  8
0
  6
CONTINUOUS
 10
4.067800
 20
2.170520
  0
VERTEX
  8
0
  6
CONTINUOUS
 10
3.991240
 20
2.159080
  0
SEQEND
  8
0
  0
SOLID
  8
0
 62
    15
 10
4.067800
 20
2.170520
 11
4.059440
 21
2.904880
 12
4.147000
 22
2.170520
 13
4.138200
 23
2.904880
  0
POLYLINE
  8
0
  6
CONTINUOUS
 66
     1
 40
0.011880
 41
0.011880
  0
VERTEX
  8
0
  6
CONTINUOUS
 10
4.067800
 20
2.170520
  0
VERTEX
  8
0
  6
CONTINUOUS
 10
4.059440
 20
2.904880
  0
VERTEX
  8
0
  6
CONTINUOUS
 10
4.138200
 20
2.904880
  0
VERTEX
  8
0
  6
CONTINUOUS
 10
4.147000
 20
2.170520
  0
VERTEX
  8
0
  6
CONTINUOUS
 10
4.067800
 20
2.170520
  0
SEQEND
  8
0
  0
SOLID
  8
0
 62
    15
 10
4.147000
 20
2.170520
 11
4.138200
 21
2.904880
 12
4.225760
 22
2.159080
 13
4.217400
 23
2.893440
  0
POLYLINE
  8
0
  6
CONTINUOUS
 66
     1
 40
0.011880
 41
0.011880
  0
VERTEX
  8
0
  6
CONTINUOUS
 10
4.147000
 20
2.170520
  0
VERTEX
  8
0
  6
CONTINUOUS
 10
4.138200
 20
2.904880
  0
VERTEX
  8
0
  6
CONTINUOUS
 10
4.217400
 20
2.893440
  0
VERTEX
  8
0
  6
CONTINUOUS
 10
4.225760
 20
2.159080
  0
VERTEX
  8
0
  6
CONTINUOUS
 10
4.147000
 20
2.170520
  0
SEQEND
  8
0
  0
SOLID
  8
0
 62
    15
 10
4.225760
 20
2.159080
 11
4.217400
 21
2.893440
 12
4.303640
 22
2.137080
 13
4.294840
 23
2.871440
  0
POLYLINE
  8
0
  6
CONTINUOUS
 66
     1
 40
0.011880
 41
0.011880
  0
VERTEX
  8
0
  6
CONTINUOUS
 10
4.225760
 20
2.159080
  0
VERTEX
  8
0
  6
CONTINUOUS
 10
4.217400
 20
2.893440
  0
VERTEX
  8
0
  6
CONTINUOUS
 10
4.294840
 20
2.871440
  0
VERTEX
  8
0
  6
CONTINUOUS
 10
4.303640
 20
2.137080
  0
VERTEX
  8
0
  6
CONTINUOUS
 10
4.225760
 20
2.159080
  0
SEQEND
  8
0
  0
SOLID
  8
0
 62
    15
 10
4.303640
 20
2.137080
 11
4.294840
 21
2.871440
 12
4.377560
 22
2.105840
 13
4.368760
 23
2.840200
  0
POLYLINE
  8
0
  6
CONTINUOUS
 66
     1
 40
0.011880
 41
0.011880
  0
VERTEX
  8
0
  6
CONTINUOUS
 10
4.303640
 20
2.137080
  0
VERTEX
  8
0
  6
CONTINUOUS
 10
4.294840
 20
2.871440
  0
VERTEX
  8
0
  6
CONTINUOUS
 10
4.368760
 20
2.840200
  0
VERTEX
  8
0
  6
CONTINUOUS
 10
4.377560
 20
2.105840
  0
VERTEX
  8
0
  6
CONTINUOUS
 10
4.303640
 20
2.137080
  0
SEQEND
  8
0
  0
SOLID
  8
0
 62
    15
 10
4.377560
 20
2.105840
 11
4.368760
 21
2.840200
 12
4.446200
 22
2.065360
 13
4.437840
 23
2.799720
  0
POLYLINE
  8
0
  6
CONTINUOUS
 66
     1
 40
0.011880
 41
0.011880
  0
VERTEX
  8
0
  6
CONTINUOUS
 10
4.377560
 20
2.105840
  0
VERTEX
  8
0
  6
CONTINUOUS
 10
4.368760
 20
2.840200
  0
VERTEX
  8
0
  6
CONTINUOUS
 10
4.437840
 20
2.799720
  0
VERTEX
  8
0
  6
CONTINUOUS
 10
4.446200
 20
2.065360
  0
VERTEX
  8
0
  6
CONTINUOUS
 10
4.377560
 20
2.105840
  0
SEQEND
  8
0
  0
SOLID
  8
0
 62
    15
 10
4.446200
 20
2.065360
 11
4.437840
 21
2.799720
 12
4.507800
 22
2.016520
 13
4.499440
 23
2.750880
  0
POLYLINE
  8
0
  6
CONTINUOUS
 66
     1
 40
0.011880
 41
0.011880
  0
VERTEX
  8
0
  6
CONTINUOUS
 10
4.446200
 20
2.065360
  0
VERTEX
  8
0
  6
CONTINUOUS
 10
4.437840
 20
2.799720
  0
VERTEX
  8
0
  6
CONTINUOUS
 10
4.499440
 20
2.750880
  0
VERTEX
  8
0
  6
CONTINUOUS
 10
4.507800
 20
2.016520
  0
VERTEX
  8
0
  6
CONTINUOUS
 10
4.446200
 20
2.065360
  0
SEQEND
  8
0
  0
SOLID
  8
0
 62
    15
 10
4.507800
 20
2.016520
 11
4.499440
 21
2.750880
 12
4.560600
 22
1.960640
 13
4.551800
 23
2.695000
  0
POLYLINE
  8
0
  6
CONTINUOUS
 66
     1
 40
0.011880
 41
0.011880
  0
VERTEX
  8
0
  6
CONTINUOUS
 10
4.507800
 20
2.016520
  0
VERTEX
  8
0
  6
CONTINUOUS
 10
4.499440
 20
2.750880
  0
VERTEX
  8
0
  6
CONTINUOUS
 10
4.551800
 20
2.695000
  0
VERTEX
  8
0
  6
CONTINUOUS
 10
4.560600
 20
1.960640
  0
VERTEX
  8
0
  6
CONTINUOUS
 10
4.507800
 20
2.016520
  0
SEQEND
  8
0
  0
SOLID
  8
0
 62
    15
 10
4.560600
 20
1.960640
 11
4.551800
 21
2.695000
 12
4.602400
 22
1.897720
 13
4.593600
 23
2.632080
  0
POLYLINE
  8
0
  6
CONTINUOUS
 66
     1
 40
0.011880
 41
0.011880
  0
VERTEX
  8
0
  6
CONTINUOUS
 10
4.560600
 20
1.960640
  0
VERTEX
  8
0
  6
CONTINUOUS
 10
4.551800
 20
2.695000
  0
VERTEX
  8
0
  6
CONTINUOUS
 10
4.593600
 20
2.632080
  0
VERTEX
  8
0
  6
CONTINUOUS
 10
4.602400
 20
1.897720
  0
VERTEX
  8
0
  6
CONTINUOUS
 10
4.560600
 20
1.960640
  0
SEQEND
  8
0
  0
SOLID
  8
0
 62
    15
 10
4.602400
 20
1.897720
 11
4.593600
 21
2.632080
 12
4.631440
 22
1.829520
 13
4.622640
 23
2.563880
  0
POLYLINE
  8
0
  6
CONTINUOUS
 66
     1
 40
0.011880
 41
0.011880
  0
VERTEX
  8
0
  6
CONTINUOUS
 10
4.602400
 20
1.897720
  0
VERTEX
  8
0
  6
CONTINUOUS
 10
4.593600
 20
2.632080
  0
VERTEX
  8
0
  6
CONTINUOUS
 10
4.622640
 20
2.563880
  0
VERTEX
  8
0
  6
CONTINUOUS
 10
4.631440
 20
1.829520
  0
VERTEX
  8
0
  6
CONTINUOUS
 10
4.602400
 20
1.897720
  0
SEQEND
  8
0
  0
SOLID
  8
0
 62
    15
 10
4.631440
 20
1.829520
 11
4.622640
 21
2.563880
 12
4.645960
 22
1.755600
 13
4.637600
 23
2.489960
  0
POLYLINE
  8
0
  6
CONTINUOUS
 66
     1
 40
0.011880
 41
0.011880
  0
VERTEX
  8
0
  6
CONTINUOUS
 10
4.631440
 20
1.829520
  0
VERTEX
  8
0
  6
CONTINUOUS
 10
4.622640
 20
2.563880
  0
VERTEX
  8
0
  6
CONTINUOUS
 10
4.637600
 20
2.489960
  0
VERTEX
  8
0
  6
CONTINUOUS
 10
4.645960
 20
1.755600
  0
VERTEX
  8
0
  6
CONTINUOUS
 10
4.631440
 20
1.829520
  0
SEQEND
  8
0
  0
SOLID
  8
0
 62
    15
 10
4.645960
 20
1.755600
 11
4.637600
 21
2.489960
 12
4.917880
 22
1.755600
 13
4.909520
 23
2.489960
  0
POLYLINE
  8
0
  6
CONTINUOUS
 66
     1
 40
0.011880
 41
0.011880
  0
VERTEX
  8
0
  6
CONTINUOUS
 10
4.645960
 20
1.755600
  0
VERTEX
  8
0
  6
CONTINUOUS
 10
4.637600
 20
2.489960
  0
VERTEX
  8
0
  6
CONTINUOUS
 10
4.909520
 20
2.489960
  0
VERTEX
  8
0
  6
CONTINUOUS
 10
4.917880
 20
1.755600
  0
VERTEX
  8
0
  6
CONTINUOUS
 10
4.645960
 20
1.755600
  0
SEQEND
  8
0
  0
SOLID
  8
0
 62
    15
 10
4.917880
 20
1.755600
 11
4.909520
 21
2.489960
 12
4.924480
 22
1.749000
 13
4.916120
 23
2.483360
  0
POLYLINE
  8
0
  6
CONTINUOUS
 66
     1
 40
0.011880
 41
0.011880
  0
VERTEX
  8
0
  6
CONTINUOUS
 10
4.917880
 20
1.755600
  0
VERTEX
  8
0
  6
CONTINUOUS
 10
4.909520
 20
2.489960
  0
VERTEX
  8
0
  6
CONTINUOUS
 10
4.916120
 20
2.483360
  0
VERTEX
  8
0
  6
CONTINUOUS
 10
4.924480
 20
1.749000
  0
VERTEX
  8
0
  6
CONTINUOUS
 10
4.917880
 20
1.755600
  0
SEQEND
  8
0
  0
POLYLINE
  8
0
  6
CONTINUOUS
 66
     1
 40
0.011880
 41
0.011880
  0
VERTEX
  8
0
  6
CONTINUOUS
 10
4.924480
 20
1.749000
  0
VERTEX
  8
0
  6
CONTINUOUS
 10
4.949120
 20
1.679480
  0
VERTEX
  8
0
  6
CONTINUOUS
 10
4.976400
 20
1.615240
  0
VERTEX
  8
0
  6
CONTINUOUS
 10
5.006760
 20
1.556720
  0
VERTEX
  8
0
  6
CONTINUOUS
 10
5.039760
 20
1.503480
  0
VERTEX
  8
0
  6
CONTINUOUS
 10
5.112360
 20
1.412400
  0
VERTEX
  8
0
  6
CONTINUOUS
 10
5.192880
 20
1.340240
  0
VERTEX
  8
0
  6
CONTINUOUS
 10
5.278680
 20
1.286120
  0
VERTEX
  8
0
  6
CONTINUOUS
 10
5.368000
 20
1.248280
  0
VERTEX
  8
0
  6
CONTINUOUS
 10
5.459520
 20
1.225840
  0
VERTEX
  8
0
  6
CONTINUOUS
 10
5.550600
 20
1.216600
  0
VERTEX
  8
0
  6
CONTINUOUS
 10
5.639480
 20
1.219680
  0
VERTEX
  8
0
  6
CONTINUOUS
 10
5.723960
 20
1.233320
  0
VERTEX
  8
0
  6
CONTINUOUS
 10
5.803160
 20
1.256640
  0
VERTEX
  8
0
  6
CONTINUOUS
 10
5.874000
 20
1.287880
  0
VERTEX
  8
0
  6
CONTINUOUS
 10
5.934720
 20
1.325720
  0
VERTEX
  8
0
  6
CONTINUOUS
 10
5.984000
 20
1.368840
  0
VERTEX
  8
0
  6
CONTINUOUS
 10
6.019640
 20
1.415920
  0
VERTEX
  8
0
  6
CONTINUOUS
 10
6.039440
 20
1.465200
  0
VERTEX
  8
0
  6
CONTINUOUS
 10
6.325880
 20
1.465200
  0
VERTEX
  8
0
  6
CONTINUOUS
 10
6.331600
 20
1.518880
  0
VERTEX
  8
0
  6
CONTINUOUS
 10
6.347000
 20
1.568600
  0
VERTEX
  8
0
  6
CONTINUOUS
 10
6.372080
 20
1.612600
  0
VERTEX
  8
0
  6
CONTINUOUS
 10
6.405080
 20
1.650440
  0
VERTEX
  8
0
  6
CONTINUOUS
 10
6.445120
 20
1.681240
  0
VERTEX
  8
0
  6
CONTINUOUS
 10
6.491320
 20
1.704120
  0
VERTEX
  8
0
  6
CONTINUOUS
 10
6.541920
 20
1.718640
  0
VERTEX
  8
0
  6
CONTINUOUS
 10
6.596480
 20
1.723480
  0
VERTEX
  8
0
  6
CONTINUOUS
 10
6.651040
 20
1.718640
  0
VERTEX
  8
0
  6
CONTINUOUS
 10
6.702080
 20
1.704120
  0
VERTEX
  8
0
  6
CONTINUOUS
 10
6.748280
 20
1.681240
  0
VERTEX
  8
0
  6
CONTINUOUS
 10
6.788760
 20
1.650440
  0
VERTEX
  8
0
  6
CONTINUOUS
 10
6.821760
 20
1.612600
  0
VERTEX
  8
0
  6
CONTINUOUS
 10
6.846840
 20
1.568600
  0
VERTEX
  8
0
  6
CONTINUOUS
 10
6.863120
 20
1.518880
  0
VERTEX
  8
0
  6
CONTINUOUS
 10
6.868400
 20
1.465200
  0
VERTEX
  8
0
  6
CONTINUOUS
 10
7.155280
 20
1.465200
  0
VERTEX
  8
0
  6
CONTINUOUS
 10
7.168920
 20
1.411520
  0
VERTEX
  8
0
  6
CONTINUOUS
 10
7.198840
 20
1.357840
  0
VERTEX
  8
0
  6
CONTINUOUS
 10
7.243280
 20
1.305920
  0
VERTEX
  8
0
  6
CONTINUOUS
 10
7.299600
 20
1.258400
  0
VERTEX
  8
0
  6
CONTINUOUS
 10
7.365600
 20
1.217480
  0
VERTEX
  8
0
  6
CONTINUOUS
 10
7.438640
 20
1.185360
  0
VERTEX
  8
0
  6
CONTINUOUS
 10
7.516960
 20
1.164680
  0
VERTEX
  8
0
  6
CONTINUOUS
 10
7.599240
 20
1.157200
  0
VERTEX
  8
0
  6
CONTINUOUS
 10
7.599240
 20
0.927520
  0
VERTEX
  8
0
  6
CONTINUOUS
 10
2.276560
 20
0.927520
  0
VERTEX
  8
0
  6
CONTINUOUS
 10
2.272600
 20
0.931920
  0
VERTEX
  8
0
  6
CONTINUOUS
 10
2.272600
 20
2.203520
  0
VERTEX
  8
0
  6
CONTINUOUS
 10
3.490080
 20
2.203520
  0
VERTEX
  8
0
  6
CONTINUOUS
 10
3.514720
 20
2.124760
  0
VERTEX
  8
0
  6
CONTINUOUS
 10
3.539360
 20
2.063160
  0
VERTEX
  8
0
  6
CONTINUOUS
 10
3.563560
 20
2.016080
  0
VERTEX
  8
0
  6
CONTINUOUS
 10
3.589080
 20
1.980000
  0
VERTEX
  8
0
  6
CONTINUOUS
 10
3.642320
 20
1.931600
  0
VERTEX
  8
0
  6
CONTINUOUS
 10
3.702160
 20
1.894200
  0
VERTEX
  8
0
  6
CONTINUOUS
 10
3.740880
 20
1.977360
  0
VERTEX
  8
0
  6
CONTINUOUS
 10
3.791040
 20
2.044240
  0
VERTEX
  8
0
  6
CONTINUOUS
 10
3.850880
 20
2.096600
  0
VERTEX
  8
0
  6
CONTINUOUS
 10
3.918200
 20
2.134440
  0
VERTEX
  8
0
  6
CONTINUOUS
 10
3.991240
 20
2.159080
  0
VERTEX
  8
0
  6
CONTINUOUS
 10
4.067800
 20
2.170520
  0
VERTEX
  8
0
  6
CONTINUOUS
 10
4.147000
 20
2.170520
  0
VERTEX
  8
0
  6
CONTINUOUS
 10
4.225760
 20
2.159080
  0
VERTEX
  8
0
  6
CONTINUOUS
 10
4.303640
 20
2.137080
  0
VERTEX
  8
0
  6
CONTINUOUS
 10
4.377560
 20
2.105840
  0
VERTEX
  8
0
  6
CONTINUOUS
 10
4.446200
 20
2.065360
  0
VERTEX
  8
0
  6
CONTINUOUS
 10
4.507800
 20
2.016520
  0
VERTEX
  8
0
  6
CONTINUOUS
 10
4.560600
 20
1.960640
  0
VERTEX
  8
0
  6
CONTINUOUS
 10
4.602400
 20
1.897720
  0
VERTEX
  8
0
  6
CONTINUOUS
 10
4.631440
 20
1.829520
  0
VERTEX
  8
0
  6
CONTINUOUS
 10
4.645960
 20
1.755600
  0
VERTEX
  8
0
  6
CONTINUOUS
 10
4.917880
 20
1.755600
  0
VERTEX
  8
0
  6
CONTINUOUS
 10
4.924480
 20
1.749000
  0
SEQEND
  8
0
  0
SOLID
  8
0
 62
    15
 10
2.364120
 20
2.582360
 11
2.363680
 21
3.333880
 12
2.421320
 22
2.471920
 13
2.421320
 23
3.223880
  0
POLYLINE
  8
0
  6
CONTINUOUS
 66
     1
 40
0.000000
 41
0.000000
  0
VERTEX
  8
0
  6
CONTINUOUS
 10
2.364120
 20
2.582360
  0
VERTEX
  8
0
  6
CONTINUOUS
 10
2.363680
 20
3.333880
  0
VERTEX
  8
0
  6
CONTINUOUS
 10
2.421320
 20
3.223880
  0
VERTEX
  8
0
  6
CONTINUOUS
 10
2.421320
 20
2.471920
  0
VERTEX
  8
0
  6
CONTINUOUS
 10
2.364120
 20
2.582360
  0
SEQEND
  8
0
  0
SOLID
  8
0
 62
    15
 10
1.234640
 20
2.550680
 11
1.234640
 21
3.302200
 12
1.303720
 22
2.660240
 13
1.303720
 23
3.411760
  0
POLYLINE
  8
0
  6
CONTINUOUS
 66
     1
 40
0.000000
 41
0.000000
  0
VERTEX
  8
0
  6
CONTINUOUS
 10
1.234640
 20
2.550680
  0
VERTEX
  8
0
  6
CONTINUOUS
 10
1.234640
 20
3.302200
  0
VERTEX
  8
0
  6
CONTINUOUS
 10
1.303720
 20
3.411760
  0
VERTEX
  8
0
  6
CONTINUOUS
 10
1.303720
 20
2.660240
  0
VERTEX
  8
0
  6
CONTINUOUS
 10
1.234640
 20
2.550680
  0
SEQEND
  8
0
  0
SOLID
  8
0
 62
    15
 10
1.303720
 20
2.660240
 11
1.303720
 21
3.411760
 12
1.386000
 22
2.748680
 13
1.386000
 23
3.500200
  0
POLYLINE
  8
0
  6
CONTINUOUS
 66
     1
 40
0.000000
 41
0.000000
  0
VERTEX
  8
0
  6
CONTINUOUS
 10
1.303720
 20
2.660240
  0
VERTEX
  8
0
  6
CONTINUOUS
 10
1.303720
 20
3.411760
  0
VERTEX
  8
0
  6
CONTINUOUS
 10
1.386000
 20
3.500200
  0
VERTEX
  8
0
  6
CONTINUOUS
 10
1.386000
 20
2.748680
  0
VERTEX
  8
0
  6
CONTINUOUS
 10
1.303720
 20
2.660240
  0
SEQEND
  8
0
  0
SOLID
  8
0
 62
    15
 10
1.386000
 20
2.748680
 11
1.386000
 21
3.500200
 12
1.478840
 22
2.816440
 13
1.478840
 23
3.567960
  0
POLYLINE
  8
0
  6
CONTINUOUS
 66
     1
 40
0.000000
 41
0.000000
  0
VERTEX
  8
0
  6
CONTINUOUS
 10
1.386000
 20
2.748680
  0
VERTEX
  8
0
  6
CONTINUOUS
 10
1.386000
 20
3.500200
  0
VERTEX
  8
0
  6
CONTINUOUS
 10
1.478840
 20
3.567960
  0
VERTEX
  8
0
  6
CONTINUOUS
 10
1.478840
 20
2.816440
  0
VERTEX
  8
0
  6
CONTINUOUS
 10
1.386000
 20
2.748680
  0
SEQEND
  8
0
  0
SOLID
  8
0
 62
    15
 10
1.478840
 20
2.816440
 11
1.478840
 21
3.567960
 12
1.579160
 22
2.863960
 13
1.579160
 23
3.615480
  0
POLYLINE
  8
0
  6
CONTINUOUS
 66
     1
 40
0.000000
 41
0.000000
  0
VERTEX
  8
0
  6
CONTINUOUS
 10
1.478840
 20
2.816440
  0
VERTEX
  8
0
  6
CONTINUOUS
 10
1.478840
 20
3.567960
  0
VERTEX
  8
0
  6
CONTINUOUS
 10
1.579160
 20
3.615480
  0
VERTEX
  8
0
  6
CONTINUOUS
 10
1.579160
 20
2.863960
  0
VERTEX
  8
0
  6
CONTINUOUS
 10
1.478840
 20
2.816440
  0
SEQEND
  8
0
  0
SOLID
  8
0
 62
    15
 10
1.579160
 20
2.863960
 11
1.579160
 21
3.615480
 12
1.685200
 22
2.891680
 13
1.685200
 23
3.643640
  0
POLYLINE
  8
0
  6
CONTINUOUS
 66
     1
 40
0.000000
 41
0.000000
  0
VERTEX
  8
0
  6
CONTINUOUS
 10
1.579160
 20
2.863960
  0
VERTEX
  8
0
  6
CONTINUOUS
 10
1.579160
 20
3.615480
  0
VERTEX
  8
0
  6
CONTINUOUS
 10
1.685200
 20
3.643640
  0
VERTEX
  8
0
  6
CONTINUOUS
 10
1.685200
 20
2.891680
  0
VERTEX
  8
0
  6
CONTINUOUS
 10
1.579160
 20
2.863960
  0
SEQEND
  8
0
  0
SOLID
  8
0
 62
    15
 10
1.685200
 20
2.891680
 11
1.685200
 21
3.643640
 12
1.793880
 22
2.900920
 13
1.793880
 23
3.652440
  0
POLYLINE
  8
0
  6
CONTINUOUS
 66
     1
 40
0.000000
 41
0.000000
  0
VERTEX
  8
0
  6
CONTINUOUS
 10
1.685200
 20
2.891680
  0
VERTEX
  8
0
  6
CONTINUOUS
 10
1.685200
 20
3.643640
  0
VERTEX
  8
0
  6
CONTINUOUS
 10
1.793880
 20
3.652440
  0
VERTEX
  8
0
  6
CONTINUOUS
 10
1.793880
 20
2.900920
  0
VERTEX
  8
0
  6
CONTINUOUS
 10
1.685200
 20
2.891680
  0
SEQEND
  8
0
  0
SOLID
  8
0
 62
    15
 10
1.793880
 20
2.900920
 11
1.793880
 21
3.652440
 12
1.903000
 22
2.891240
 13
1.903000
 23
3.642760
  0
POLYLINE
  8
0
  6
CONTINUOUS
 66
     1
 40
0.000000
 41
0.000000
  0
VERTEX
  8
0
  6
CONTINUOUS
 10
1.793880
 20
2.900920
  0
VERTEX
  8
0
  6
CONTINUOUS
 10
1.793880
 20
3.652440
  0
VERTEX
  8
0
  6
CONTINUOUS
 10
1.903000
 20
3.642760
  0
VERTEX
  8
0
  6
CONTINUOUS
 10
1.903000
 20
2.891240
  0
VERTEX
  8
0
  6
CONTINUOUS
 10
1.793880
 20
2.900920
  0
SEQEND
  8
0
  0
SOLID
  8
0
 62
    15
 10
1.903000
 20
2.891240
 11
1.903000
 21
3.642760
 12
2.009920
 22
2.863520
 13
2.009920
 23
3.615040
  0
POLYLINE
  8
0
  6
CONTINUOUS
 66
     1
 40
0.000000
 41
0.000000
  0
VERTEX
  8
0
  6
CONTINUOUS
 10
1.903000
 20
2.891240
  0
VERTEX
  8
0
  6
CONTINUOUS
 10
1.903000
 20
3.642760
  0
VERTEX
  8
0
  6
CONTINUOUS
 10
2.009920
 20
3.615040
  0
VERTEX
  8
0
  6
CONTINUOUS
 10
2.009920
 20
2.863520
  0
VERTEX
  8
0
  6
CONTINUOUS
 10
1.903000
 20
2.891240
  0
SEQEND
  8
0
  0
SOLID
  8
0
 62
    15
 10
2.009920
 20
2.863520
 11
2.009920
 21
3.615040
 12
2.112000
 22
2.818200
 13
2.112000
 23
3.569720
  0
POLYLINE
  8
0
  6
CONTINUOUS
 66
     1
 40
0.000000
 41
0.000000
  0
VERTEX
  8
0
  6
CONTINUOUS
 10
2.009920
 20
2.863520
  0
VERTEX
  8
0
  6
CONTINUOUS
 10
2.009920
 20
3.615040
  0
VERTEX
  8
0
  6
CONTINUOUS
 10
2.112000
 20
3.569720
  0
VERTEX
  8
0
  6
CONTINUOUS
 10
2.112000
 20
2.818200
  0
VERTEX
  8
0
  6
CONTINUOUS
 10
2.009920
 20
2.863520
  0
SEQEND
  8
0
  0
SOLID
  8
0
 62
    15
 10
2.112000
 20
2.818200
 11
2.112000
 21
3.569720
 12
2.206600
 22
2.755720
 13
2.206600
 23
3.507680
  0
POLYLINE
  8
0
  6
CONTINUOUS
 66
     1
 40
0.000000
 41
0.000000
  0
VERTEX
  8
0
  6
CONTINUOUS
 10
2.112000
 20
2.818200
  0
VERTEX
  8
0
  6
CONTINUOUS
 10
2.112000
 20
3.569720
  0
VERTEX
  8
0
  6
CONTINUOUS
 10
2.206600
 20
3.507680
  0
VERTEX
  8
0
  6
CONTINUOUS
 10
2.206600
 20
2.755720
  0
VERTEX
  8
0
  6
CONTINUOUS
 10
2.112000
 20
2.818200
  0
SEQEND
  8
0
  0
SOLID
  8
0
 62
    15
 10
2.206600
 20
2.755720
 11
2.206600
 21
3.507680
 12
2.291520
 22
2.676960
 13
2.291520
 23
3.428920
  0
POLYLINE
  8
0
  6
CONTINUOUS
 66
     1
 40
0.000000
 41
0.000000
  0
VERTEX
  8
0
  6
CONTINUOUS
 10
2.206600
 20
2.755720
  0
VERTEX
  8
0
  6
CONTINUOUS
 10
2.206600
 20
3.507680
  0
VERTEX
  8
0
  6
CONTINUOUS
 10
2.291520
 20
3.428920
  0
VERTEX
  8
0
  6
CONTINUOUS
 10
2.291520
 20
2.676960
  0
VERTEX
  8
0
  6
CONTINUOUS
 10
2.206600
 20
2.755720
  0
SEQEND
  8
0
  0
SOLID
  8
0
 62
    15
 10
2.291520
 20
2.676960
 11
2.291520
 21
3.428920
 12
2.364120
 22
2.582360
 13
2.363680
 23
3.333880
  0
POLYLINE
  8
0
  6
CONTINUOUS
 66
     1
 40
0.000000
 41
0.000000
  0
VERTEX
  8
0
  6
CONTINUOUS
 10
2.291520
 20
2.676960
  0
VERTEX
  8
0
  6
CONTINUOUS
 10
2.291520
 20
3.428920
  0
VERTEX
  8
0
  6
CONTINUOUS
 10
2.363680
 20
3.333880
  0
VERTEX
  8
0
  6
CONTINUOUS
 10
2.364120
 20
2.582360
  0
VERTEX
  8
0
  6
CONTINUOUS
 10
2.291520
 20
2.676960
  0
SEQEND
  8
0
  0
SOLID
  8
0
 62
    15
 10
1.054680
 20
2.319680
 11
1.054680
 21
3.071640
 12
1.073160
 22
2.416480
 13
1.073160
 23
3.168440
  0
POLYLINE
  8
0
  6
CONTINUOUS
 66
     1
 40
0.000000
 41
0.000000
  0
VERTEX
  8
0
  6
CONTINUOUS
 10
1.054680
 20
2.319680
  0
VERTEX
  8
0
  6
CONTINUOUS
 10
1.054680
 20
3.071640
  0
VERTEX
  8
0
  6
CONTINUOUS
 10
1.073160
 20
3.168440
  0
VERTEX
  8
0
  6
CONTINUOUS
 10
1.073160
 20
2.416480
  0
VERTEX
  8
0
  6
CONTINUOUS
 10
1.054680
 20
2.319680
  0
SEQEND
  8
0
  0
SOLID
  8
0
 62
    15
 10
2.421320
 20
2.471920
 11
2.421320
 21
3.223880
 12
2.461360
 22
2.346960
 13
2.461360
 23
3.098480
  0
POLYLINE
  8
0
  6
CONTINUOUS
 66
     1
 40
0.000000
 41
0.000000
  0
VERTEX
  8
0
  6
CONTINUOUS
 10
2.421320
 20
2.471920
  0
VERTEX
  8
0
  6
CONTINUOUS
 10
2.421320
 20
3.223880
  0
VERTEX
  8
0
  6
CONTINUOUS
 10
2.461360
 20
3.098480
  0
VERTEX
  8
0
  6
CONTINUOUS
 10
2.461360
 20
2.346960
  0
VERTEX
  8
0
  6
CONTINUOUS
 10
2.421320
 20
2.471920
  0
SEQEND
  8
0
  0
SOLID
  8
0
 62
    15
 10
2.461360
 20
2.346960
 11
2.461360
 21
3.098480
 12
2.481160
 22
2.207480
 13
2.481160
 23
2.959000
  0
POLYLINE
  8
0
  6
CONTINUOUS
 66
     1
 40
0.000000
 41
0.000000
  0
VERTEX
  8
0
  6
CONTINUOUS
 10
2.461360
 20
2.346960
  0
VERTEX
  8
0
  6
CONTINUOUS
 10
2.461360
 20
3.098480
  0
VERTEX
  8
0
  6
CONTINUOUS
 10
2.481160
 20
2.959000
  0
VERTEX
  8
0
  6
CONTINUOUS
 10
2.481160
 20
2.207480
  0
VERTEX
  8
0
  6
CONTINUOUS
 10
2.461360
 20
2.346960
  0
SEQEND
  8
0
  0
SOLID
  8
0
 62
    15
 10
2.274360
 20
0.924880
 11
2.274360
 21
1.676400
 12
2.275680
 22
0.926200
 13
2.275680
 23
1.677720
  0
POLYLINE
  8
0
  6
CONTINUOUS
 66
     1
 40
0.000000
 41
0.000000
  0
VERTEX
  8
0
  6
CONTINUOUS
 10
2.274360
 20
0.924880
  0
VERTEX
  8
0
  6
CONTINUOUS
 10
2.274360
 20
1.676400
  0
VERTEX
  8
0
  6
CONTINUOUS
 10
2.275680
 20
1.677720
  0
VERTEX
  8
0
  6
CONTINUOUS
 10
2.275680
 20
0.926200
  0
VERTEX
  8
0
  6
CONTINUOUS
 10
2.274360
 20
0.924880
  0
SEQEND
  8
0
  0
SOLID
  8
0
 62
    15
 10
0.847880
 20
0.926200
 11
0.847880
 21
1.677720
 12
0.847880
 22
2.126080
 13
0.847880
 23
2.877600
  0
POLYLINE
  8
0
  6
CONTINUOUS
 66
     1
 40
0.000000
 41
0.000000
  0
VERTEX
  8
0
  6
CONTINUOUS
 10
0.847880
 20
0.926200
  0
VERTEX
  8
0
  6
CONTINUOUS
 10
0.847880
 20
1.677720
  0
VERTEX
  8
0
  6
CONTINUOUS
 10
0.847880
 20
2.877600
  0
VERTEX
  8
0
  6
CONTINUOUS
 10
0.847880
 20
2.126080
  0
VERTEX
  8
0
  6
CONTINUOUS
 10
0.847880
 20
0.926200
  0
SEQEND
  8
0
  0
SOLID
  8
0
 62
    15
 10
0.847880
 20
2.126080
 11
0.847880
 21
2.877600
 12
0.849200
 22
2.124760
 13
0.849200
 23
2.876280
  0
POLYLINE
  8
0
  6
CONTINUOUS
 66
     1
 40
0.000000
 41
0.000000
  0
VERTEX
  8
0
  6
CONTINUOUS
 10
0.847880
 20
2.126080
  0
VERTEX
  8
0
  6
CONTINUOUS
 10
0.847880
 20
2.877600
  0
VERTEX
  8
0
  6
CONTINUOUS
 10
0.849200
 20
2.876280
  0
VERTEX
  8
0
  6
CONTINUOUS
 10
0.849200
 20
2.124760
  0
VERTEX
  8
0
  6
CONTINUOUS
 10
0.847880
 20
2.126080
  0
SEQEND
  8
0
  0
SOLID
  8
0
 62
    15
 10
0.849200
 20
2.124760
 11
0.849200
 21
2.876280
 12
0.896720
 22
2.141920
 13
0.896720
 23
2.893880
  0
POLYLINE
  8
0
  6
CONTINUOUS
 66
     1
 40
0.000000
 41
0.000000
  0
VERTEX
  8
0
  6
CONTINUOUS
 10
0.849200
 20
2.124760
  0
VERTEX
  8
0
  6
CONTINUOUS
 10
0.849200
 20
2.876280
  0
VERTEX
  8
0
  6
CONTINUOUS
 10
0.896720
 20
2.893880
  0
VERTEX
  8
0
  6
CONTINUOUS
 10
0.896720
 20
2.141920
  0
VERTEX
  8
0
  6
CONTINUOUS
 10
0.849200
 20
2.124760
  0
SEQEND
  8
0
  0
SOLID
  8
0
 62
    15
 10
0.896720
 20
2.141920
 11
0.896720
 21
2.893880
 12
0.939840
 22
2.166560
 13
0.939400
 23
2.918520
  0
POLYLINE
  8
0
  6
CONTINUOUS
 66
     1
 40
0.000000
 41
0.000000
  0
VERTEX
  8
0
  6
CONTINUOUS
 10
0.896720
 20
2.141920
  0
VERTEX
  8
0
  6
CONTINUOUS
 10
0.896720
 20
2.893880
  0
VERTEX
  8
0
  6
CONTINUOUS
 10
0.939400
 20
2.918520
  0
VERTEX
  8
0
  6
CONTINUOUS
 10
0.939840
 20
2.166560
  0
VERTEX
  8
0
  6
CONTINUOUS
 10
0.896720
 20
2.141920
  0
SEQEND
  8
0
  0
SOLID
  8
0
 62
    15
 10
0.939840
 20
2.166560
 11
0.939400
 21
2.918520
 12
1.008920
 22
2.234320
 13
1.008920
 23
2.985840
  0
POLYLINE
  8
0
  6
CONTINUOUS
 66
     1
 40
0.000000
 41
0.000000
  0
VERTEX
  8
0
  6
CONTINUOUS
 10
0.939840
 20
2.166560
  0
VERTEX
  8
0
  6
CONTINUOUS
 10
0.939400
 20
2.918520
  0
VERTEX
  8
0
  6
CONTINUOUS
 10
1.008920
 20
2.985840
  0
VERTEX
  8
0
  6
CONTINUOUS
 10
1.008920
 20
2.234320
  0
VERTEX
  8
0
  6
CONTINUOUS
 10
0.939840
 20
2.166560
  0
SEQEND
  8
0
  0
SOLID
  8
0
 62
    15
 10
1.008920
 20
2.234320
 11
1.008920
 21
2.985840
 12
1.054680
 22
2.319680
 13
1.054680
 23
3.071640
  0
POLYLINE
  8
0
  6
CONTINUOUS
 66
     1
 40
0.000000
 41
0.000000
  0
VERTEX
  8
0
  6
CONTINUOUS
 10
1.008920
 20
2.234320
  0
VERTEX
  8
0
  6
CONTINUOUS
 10
1.008920
 20
2.985840
  0
VERTEX
  8
0
  6
CONTINUOUS
 10
1.054680
 20
3.071640
  0
VERTEX
  8
0
  6
CONTINUOUS
 10
1.054680
 20
2.319680
  0
VERTEX
  8
0
  6
CONTINUOUS
 10
1.008920
 20
2.234320
  0
SEQEND
  8
0
  0
SOLID
  8
0
 62
    15
 10
1.073160
 20
2.416480
 11
1.073160
 21
3.168440
 12
1.073160
 22
2.417800
 13
1.073160
 23
3.169760
  0
POLYLINE
  8
0
  6
CONTINUOUS
 66
     1
 40
0.000000
 41
0.000000
  0
VERTEX
  8
0
  6
CONTINUOUS
 10
1.073160
 20
2.416480
  0
VERTEX
  8
0
  6
CONTINUOUS
 10
1.073160
 20
3.168440
  0
VERTEX
  8
0
  6
CONTINUOUS
 10
1.073160
 20
3.169760
  0
VERTEX
  8
0
  6
CONTINUOUS
 10
1.073160
 20
2.417800
  0
VERTEX
  8
0
  6
CONTINUOUS
 10
1.073160
 20
2.416480
  0
SEQEND
  8
0
  0
SOLID
  8
0
 62
    15
 10
1.073160
 20
2.417800
 11
1.073160
 21
3.169760
 12
1.180960
 22
2.416480
 13
1.180960
 23
3.168440
  0
POLYLINE
  8
0
  6
CONTINUOUS
 66
     1
 40
0.000000
 41
0.000000
  0
VERTEX
  8
0
  6
CONTINUOUS
 10
1.073160
 20
2.417800
  0
VERTEX
  8
0
  6
CONTINUOUS
 10
1.073160
 20
3.169760
  0
VERTEX
  8
0
  6
CONTINUOUS
 10
1.180960
 20
3.168440
  0
VERTEX
  8
0
  6
CONTINUOUS
 10
1.180960
 20
2.416480
  0
VERTEX
  8
0
  6
CONTINUOUS
 10
1.073160
 20
2.417800
  0
SEQEND
  8
0
  0
SOLID
  8
0
 62
    15
 10
1.180960
 20
2.416480
 11
1.180960
 21
3.168440
 12
1.180960
 22
2.419560
 13
1.180960
 23
3.171080
  0
POLYLINE
  8
0
  6
CONTINUOUS
 66
     1
 40
0.000000
 41
0.000000
  0
VERTEX
  8
0
  6
CONTINUOUS
 10
1.180960
 20
2.416480
  0
VERTEX
  8
0
  6
CONTINUOUS
 10
1.180960
 20
3.168440
  0
VERTEX
  8
0
  6
CONTINUOUS
 10
1.180960
 20
3.171080
  0
VERTEX
  8
0
  6
CONTINUOUS
 10
1.180960
 20
2.419560
  0
VERTEX
  8
0
  6
CONTINUOUS
 10
1.180960
 20
2.416480
  0
SEQEND
  8
0
  0
SOLID
  8
0
 62
    15
 10
1.180960
 20
2.419560
 11
1.180960
 21
3.171080
 12
1.234640
 22
2.550680
 13
1.234640
 23
3.302200
  0
POLYLINE
  8
0
  6
CONTINUOUS
 66
     1
 40
0.000000
 41
0.000000
  0
VERTEX
  8
0
  6
CONTINUOUS
 10
1.180960
 20
2.419560
  0
VERTEX
  8
0
  6
CONTINUOUS
 10
1.180960
 20
3.171080
  0
VERTEX
  8
0
  6
CONTINUOUS
 10
1.234640
 20
3.302200
  0
VERTEX
  8
0
  6
CONTINUOUS
 10
1.234640
 20
2.550680
  0
VERTEX
  8
0
  6
CONTINUOUS
 10
1.180960
 20
2.419560
  0
SEQEND
  8
0
  0
POLYLINE
  8
0
  6
CONTINUOUS
 66
     1
 40
0.000000
 41
0.000000
  0
VERTEX
  8
0
  6
CONTINUOUS
 10
1.180960
 20
2.419560
  0
VERTEX
  8
0
  6
CONTINUOUS
 10
1.234640
 20
2.550680
  0
VERTEX
  8
0
  6
CONTINUOUS
 10
1.303720
 20
2.660240
  0
VERTEX
  8
0
  6
CONTINUOUS
 10
1.386000
 20
2.748680
  0
VERTEX
  8
0
  6
CONTINUOUS
 10
1.478840
 20
2.816440
  0
VERTEX
  8
0
  6
CONTINUOUS
 10
1.579160
 20
2.863960
  0
VERTEX
  8
0
  6
CONTINUOUS
 10
1.685200
 20
2.891680
  0
VERTEX
  8
0
  6
CONTINUOUS
 10
1.793880
 20
2.900920
  0
VERTEX
  8
0
  6
CONTINUOUS
 10
1.903000
 20
2.891240
  0
VERTEX
  8
0
  6
CONTINUOUS
 10
2.009920
 20
2.863520
  0
VERTEX
  8
0
  6
CONTINUOUS
 10
2.112000
 20
2.818200
  0
VERTEX
  8
0
  6
CONTINUOUS
 10
2.206600
 20
2.755720
  0
VERTEX
  8
0
  6
CONTINUOUS
 10
2.291520
 20
2.676960
  0
VERTEX
  8
0
  6
CONTINUOUS
 10
2.364120
 20
2.582360
  0
VERTEX
  8
0
  6
CONTINUOUS
 10
2.421320
 20
2.471920
  0
VERTEX
  8
0
  6
CONTINUOUS
 10
2.461360
 20
2.346960
  0
VERTEX
  8
0
  6
CONTINUOUS
 10
2.481160
 20
2.207480
  0
VERTEX
  8
0
  6
CONTINUOUS
 10
2.479840
 20
2.207480
  0
VERTEX
  8
0
  6
CONTINUOUS
 10
2.274360
 20
2.206160
  0
VERTEX
  8
0
  6
CONTINUOUS
 10
2.274360
 20
0.924880
  0
VERTEX
  8
0
  6
CONTINUOUS
 10
2.275680
 20
0.926200
  0
VERTEX
  8
0
  6
CONTINUOUS
 10
0.847880
 20
0.926200
  0
VERTEX
  8
0
  6
CONTINUOUS
 10
0.847880
 20
2.126080
  0
VERTEX
  8
0
  6
CONTINUOUS
 10
0.849200
 20
2.124760
  0
VERTEX
  8
0
  6
CONTINUOUS
 10
0.896720
 20
2.141920
  0
VERTEX
  8
0
  6
CONTINUOUS
 10
0.939840
 20
2.166560
  0
VERTEX
  8
0
  6
CONTINUOUS
 10
1.008920
 20
2.234320
  0
VERTEX
  8
0
  6
CONTINUOUS
 10
1.054680
 20
2.319680
  0
VERTEX
  8
0
  6
CONTINUOUS
 10
1.073160
 20
2.416480
  0
VERTEX
  8
0
  6
CONTINUOUS
 10
1.073160
 20
2.417800
  0
VERTEX
  8
0
  6
CONTINUOUS
 10
1.180960
 20
2.416480
  0
VERTEX
  8
0
  6
CONTINUOUS
 10
1.180960
 20
2.419560
  0
SEQEND
  8
0
  0
TEXT
  8
0
 10
0.971520
 20
1.064800
 40
0.138089
  1
285
 41
1.000000
  7
SN0
 71
     0
 72
     5
 11
1.248230
 21
1.064800
  0
TEXT
  8
0
 10
2.426160
 20
1.064800
 40
0.138089
  1
284
 41
1.000000
  7
SN0
 71
     0
 72
     5
 11
2.702870
 21
1.064800
  0
ENDSEC
  0
EOF
