  0
SECTION
  2
HEADER
  9
$ACADVER
  1
AC1006
  9
$EXTMIN
 10
0.787600
 20
0.425480
  9
$EXTMAX
 10
8.012400
 20
6.618480
  9
$LTSCALE
 40
0.044000
  9
$PDMODE
 70
    35
  9
$PDSIZE
 40
0.035200
  0
ENDSEC
  0
SECTION
  2
TABLES
  0
TABLE
  2
LTYPE
 70
     9
  0
LTYPE
  2
CONTINUOUS
 70
    64
  3
Solid line
 72
    65
 73
     0
 40
0.000000
  0
LTYPE
  2
DASHED
 70
    64
  3
__ __ __ __ __ __ __ __ __ __ __ __ __ __ __
 72
    65
 73
     2
 40
0.000330
 49
0.000220
 49
-0.000110
  0
LTYPE
  2
HIDDEN
 70
    64
  3
 _ _ _ _ _ _ _ _ _ _ _ _ _ _ _ _ _ _ _ _ _ _
 72
    65
 73
     2
 40
0.000165
 49
0.000110
 49
-0.000055
  0
LTYPE
  2
CENTER
 70
    64
  3
____ _ ____ _ ____ _ ____ _ ____ _ ____ _ ____
 72
    65
 73
     4
 40
0.000880
 49
0.000550
 49
-0.000110
 49
0.000110
 49
-0.000110
  0
LTYPE
  2
PHANTOM
 70
    64
  3
_____ _ _ _____ _ _ _____ _ _ _____ _ _ ____
 72
    65
 73
     6
 40
0.001100
 49
0.000550
 49
-0.000110
 49
0.000110
 49
-0.000110
 49
0.000110
 49
-0.000110
  0
LTYPE
  2
DOT
 70
    64
  3
...............................................
 72
    65
 73
     2
 40
0.000110
 49
0.000000
 49
-0.000110
  0
LTYPE
  2
DASHDOT
 70
    64
  3
__ . __ . __ . __ . __ . __ . __ . __ . __ . __
 72
    65
 73
     4
 40
0.000440
 49
0.000220
 49
-0.000110
 49
0.000000
 49
-0.000110
  0
LTYPE
  2
BORDER
 70
    64
  3
__ __ . __ __ . __ __ . __ __ . __ __ . __ __
 72
    65
 73
     6
 40
0.000770
 49
0.000220
 49
-0.000110
 49
0.000220
 49
-0.000110
 49
0.000000
 49
-0.000110
  0
LTYPE
  2
DIVIDE
 70
    64
  3
__ . . __ . . __ . . __ . . __ . . __ . . __
 72
    65
 73
     6
 40
0.000550
 49
0.000220
 49
-0.000110
 49
0.000000
 49
-0.000110
 49
0.000000
 49
-0.000110
  0
LTYPE
  2
DOTDOT
 70
    64
  3
 . .  . .  . .  . .  . .  . . 
 72
    65
 73
     5
 40
0.000242
 49
-0.000110
 49
0.000000
 49
-0.000110
 49
0.000000
 49
-0.000110
  0
ENDTAB
  0
TABLE
  2
STYLE
 70
     2
  0
STYLE
 70
     0
  2
SN0
 40
0.000000
 41
0.000440
 50
0.000000
 71
     0
 42
0.000000
  3
ROMAND
  0
STYLE
 70
    68
  2
SV0
 40
0.000000
 41
0.000440
 50
0.000000
 71
     0
 42
0.000000
  3
ROMAND
  0
ENDTAB
  0
TABLE
  2
LAYER
 70
     3
  0
LAYER
  2
FOREGROUND
 70
    64
 62
     7
  6
CONTINUOUS
  0
LAYER
  2
BACKGROUND
 70
    65
 62
    -7
  6
CONTINUOUS
  0
LAYER
  2
0
 70
    64
 62
     7
  6
CONTINUOUS
  0
ENDTAB
  0
ENDSEC
  0
SECTION
  2
ENTITIES
  0
POLYLINE
  8
FOREGROUND
  6
CONTINUOUS
 66
     1
 40
0.000000
 41
0.000000
  0
VERTEX
  8
FOREGROUND
  6
CONTINUOUS
 10
0.000000
 20
7.043960
  0
VERTEX
  8
FOREGROUND
  6
CONTINUOUS
 10
8.499920
 20
7.043960
  0
VERTEX
  8
FOREGROUND
  6
CONTINUOUS
 10
8.499920
 20
-3.956040
  0
VERTEX
  8
FOREGROUND
  6
CONTINUOUS
 10
0.000000
 20
-3.956040
  0
VERTEX
  8
FOREGROUND
  6
CONTINUOUS
 10
0.000000
 20
7.043960
  0
SEQEND
  8
0
  0
POLYLINE
  8
FOREGROUND
  6
CONTINUOUS
 66
     1
 40
0.000000
 41
0.000000
  0
VERTEX
  8
FOREGROUND
  6
CONTINUOUS
 10
0.000000
 20
7.043960
  0
VERTEX
  8
FOREGROUND
  6
CONTINUOUS
 10
8.499920
 20
7.043960
  0
VERTEX
  8
FOREGROUND
  6
CONTINUOUS
 10
8.499920
 20
-3.956040
  0
VERTEX
  8
FOREGROUND
  6
CONTINUOUS
 10
0.000000
 20
-3.956040
  0
VERTEX
  8
FOREGROUND
  6
CONTINUOUS
 10
0.000000
 20
7.043960
  0
SEQEND
  8
0
  0
POLYLINE
  8
0
  6
CONTINUOUS
 66
     1
 40
0.011880
 41
0.011880
  0
VERTEX
  8
0
  6
CONTINUOUS
 10
4.986080
 20
4.992680
  0
VERTEX
  8
0
  6
CONTINUOUS
 10
4.713720
 20
4.992680
  0
VERTEX
  8
0
  6
CONTINUOUS
 10
4.708440
 20
5.030080
  0
VERTEX
  8
0
  6
CONTINUOUS
 10
4.699200
 20
5.066160
  0
VERTEX
  8
0
  6
CONTINUOUS
 10
4.686440
 20
5.101360
  0
VERTEX
  8
0
  6
CONTINUOUS
 10
4.660920
 20
5.151080
  0
VERTEX
  8
0
  6
CONTINUOUS
 10
4.628360
 20
5.197720
  0
VERTEX
  8
0
  6
CONTINUOUS
 10
4.589640
 20
5.240400
  0
VERTEX
  8
0
  6
CONTINUOUS
 10
4.546080
 20
5.278680
  0
VERTEX
  8
0
  6
CONTINUOUS
 10
4.497680
 20
5.313000
  0
VERTEX
  8
0
  6
CONTINUOUS
 10
4.445320
 20
5.342480
  0
VERTEX
  8
0
  6
CONTINUOUS
 10
4.409240
 20
5.359640
  0
VERTEX
  8
0
  6
CONTINUOUS
 10
4.352480
 20
5.380320
  0
VERTEX
  8
0
  6
CONTINUOUS
 10
4.313760
 20
5.391320
  0
VERTEX
  8
0
  6
CONTINUOUS
 10
4.254360
 20
5.403200
  0
VERTEX
  8
0
  6
CONTINUOUS
 10
4.194960
 20
5.408480
  0
VERTEX
  8
0
  6
CONTINUOUS
 10
4.155360
 20
5.408480
  0
VERTEX
  8
0
  6
CONTINUOUS
 10
4.116640
 20
5.405840
  0
VERTEX
  8
0
  6
CONTINUOUS
 10
4.077920
 20
5.400120
  0
VERTEX
  8
0
  6
CONTINUOUS
 10
4.022040
 20
5.385160
  0
VERTEX
  8
0
  6
CONTINUOUS
 10
3.985960
 20
5.371520
  0
VERTEX
  8
0
  6
CONTINUOUS
 10
3.934920
 20
5.344240
  0
VERTEX
  8
0
  6
CONTINUOUS
 10
3.903240
 20
5.321800
  0
VERTEX
  8
0
  6
CONTINUOUS
 10
3.873320
 20
5.295840
  0
VERTEX
  8
0
  6
CONTINUOUS
 10
3.845600
 20
5.265920
  0
VERTEX
  8
0
  6
CONTINUOUS
 10
3.820520
 20
5.232480
  0
VERTEX
  8
0
  6
CONTINUOUS
 10
3.798080
 20
5.195080
  0
VERTEX
  8
0
  6
CONTINUOUS
 10
3.778720
 20
5.153720
  0
VERTEX
  8
0
  6
CONTINUOUS
 10
3.769920
 20
5.131280
  0
VERTEX
  8
0
  6
CONTINUOUS
 10
3.710080
 20
5.168240
  0
VERTEX
  8
0
  6
CONTINUOUS
 10
3.682800
 20
5.189800
  0
VERTEX
  8
0
  6
CONTINUOUS
 10
3.656840
 20
5.217080
  0
VERTEX
  8
0
  6
CONTINUOUS
 10
3.631760
 20
5.252720
  0
VERTEX
  8
0
  6
CONTINUOUS
 10
3.607120
 20
5.300240
  0
VERTEX
  8
0
  6
CONTINUOUS
 10
3.582480
 20
5.361840
  0
VERTEX
  8
0
  6
CONTINUOUS
 10
3.557840
 20
5.440600
  0
VERTEX
  8
0
  6
CONTINUOUS
 10
2.340800
 20
5.440600
  0
VERTEX
  8
0
  6
CONTINUOUS
 10
2.340800
 20
4.168560
  0
VERTEX
  8
0
  6
CONTINUOUS
 10
2.344760
 20
4.164600
  0
VERTEX
  8
0
  6
CONTINUOUS
 10
7.667440
 20
4.164600
  0
VERTEX
  8
0
  6
CONTINUOUS
 10
7.667440
 20
4.393840
  0
VERTEX
  8
0
  6
CONTINUOUS
 10
7.625640
 20
4.395600
  0
VERTEX
  8
0
  6
CONTINUOUS
 10
7.585160
 20
4.401320
  0
VERTEX
  8
0
  6
CONTINUOUS
 10
7.545560
 20
4.410120
  0
VERTEX
  8
0
  6
CONTINUOUS
 10
7.487920
 20
4.429480
  0
VERTEX
  8
0
  6
CONTINUOUS
 10
7.451400
 20
4.445320
  0
VERTEX
  8
0
  6
CONTINUOUS
 10
7.399480
 20
4.473920
  0
VERTEX
  8
0
  6
CONTINUOUS
 10
7.352840
 20
4.506920
  0
VERTEX
  8
0
  6
CONTINUOUS
 10
7.311480
 20
4.543000
  0
VERTEX
  8
0
  6
CONTINUOUS
 10
7.276720
 20
4.581280
  0
VERTEX
  8
0
  6
CONTINUOUS
 10
7.250320
 20
4.621320
  0
VERTEX
  8
0
  6
CONTINUOUS
 10
7.237120
 20
4.648600
  0
VERTEX
  8
0
  6
CONTINUOUS
 10
7.227880
 20
4.675440
  0
VERTEX
  8
0
  6
CONTINUOUS
 10
7.223480
 20
4.701840
  0
VERTEX
  8
0
  6
CONTINUOUS
 10
6.936600
 20
4.701840
  0
VERTEX
  8
0
  6
CONTINUOUS
 10
6.935280
 20
4.729560
  0
VERTEX
  8
0
  6
CONTINUOUS
 10
6.927800
 20
4.768720
  0
VERTEX
  8
0
  6
CONTINUOUS
 10
6.919880
 20
4.793360
  0
VERTEX
  8
0
  6
CONTINUOUS
 10
6.909760
 20
4.817120
  0
VERTEX
  8
0
  6
CONTINUOUS
 10
6.889960
 20
4.849240
  0
VERTEX
  8
0
  6
CONTINUOUS
 10
6.874120
 20
4.869040
  0
VERTEX
  8
0
  6
CONTINUOUS
 10
6.856520
 20
4.887080
  0
VERTEX
  8
0
  6
CONTINUOUS
 10
6.837160
 20
4.903800
  0
VERTEX
  8
0
  6
CONTINUOUS
 10
6.816480
 20
4.918320
  0
VERTEX
  8
0
  6
CONTINUOUS
 10
6.782160
 20
4.936360
  0
VERTEX
  8
0
  6
CONTINUOUS
 10
6.745200
 20
4.949560
  0
VERTEX
  8
0
  6
CONTINUOUS
 10
6.706040
 20
4.957920
  0
VERTEX
  8
0
  6
CONTINUOUS
 10
6.664680
 20
4.960560
  0
VERTEX
  8
0
  6
CONTINUOUS
 10
6.623320
 20
4.957920
  0
VERTEX
  8
0
  6
CONTINUOUS
 10
6.584160
 20
4.949560
  0
VERTEX
  8
0
  6
CONTINUOUS
 10
6.547200
 20
4.936360
  0
VERTEX
  8
0
  6
CONTINUOUS
 10
6.513320
 20
4.918320
  0
VERTEX
  8
0
  6
CONTINUOUS
 10
6.492640
 20
4.903800
  0
VERTEX
  8
0
  6
CONTINUOUS
 10
6.473280
 20
4.887080
  0
VERTEX
  8
0
  6
CONTINUOUS
 10
6.447760
 20
4.859360
  0
VERTEX
  8
0
  6
CONTINUOUS
 10
6.426640
 20
4.828120
  0
VERTEX
  8
0
  6
CONTINUOUS
 10
6.410360
 20
4.793360
  0
VERTEX
  8
0
  6
CONTINUOUS
 10
6.399360
 20
4.755960
  0
VERTEX
  8
0
  6
CONTINUOUS
 10
6.395400
 20
4.729560
  0
VERTEX
  8
0
  6
CONTINUOUS
 10
6.394080
 20
4.701840
  0
VERTEX
  8
0
  6
CONTINUOUS
 10
6.107200
 20
4.701840
  0
VERTEX
  8
0
  6
CONTINUOUS
 10
6.094000
 20
4.664880
  0
VERTEX
  8
0
  6
CONTINUOUS
 10
6.071560
 20
4.628800
  0
VERTEX
  8
0
  6
CONTINUOUS
 10
6.052200
 20
4.605920
  0
VERTEX
  8
0
  6
CONTINUOUS
 10
6.016560
 20
4.572920
  0
VERTEX
  8
0
  6
CONTINUOUS
 10
5.973880
 20
4.543000
  0
VERTEX
  8
0
  6
CONTINUOUS
 10
5.925040
 20
4.516160
  0
VERTEX
  8
0
  6
CONTINUOUS
 10
5.870920
 20
4.493720
  0
VERTEX
  8
0
  6
CONTINUOUS
 10
5.812400
 20
4.475240
  0
VERTEX
  8
0
  6
CONTINUOUS
 10
5.750360
 20
4.462040
  0
VERTEX
  8
0
  6
CONTINUOUS
 10
5.707240
 20
4.456320
  0
VERTEX
  8
0
  6
CONTINUOUS
 10
5.663240
 20
4.453680
  0
VERTEX
  8
0
  6
CONTINUOUS
 10
5.618360
 20
4.453240
  0
VERTEX
  8
0
  6
CONTINUOUS
 10
5.573040
 20
4.456320
  0
VERTEX
  8
0
  6
CONTINUOUS
 10
5.527280
 20
4.462480
  0
VERTEX
  8
0
  6
CONTINUOUS
 10
5.481520
 20
4.472160
  0
VERTEX
  8
0
  6
CONTINUOUS
 10
5.436200
 20
4.485360
  0
VERTEX
  8
0
  6
CONTINUOUS
 10
5.390880
 20
4.502080
  0
VERTEX
  8
0
  6
CONTINUOUS
 10
5.346440
 20
4.523200
  0
VERTEX
  8
0
  6
CONTINUOUS
 10
5.302880
 20
4.547840
  0
VERTEX
  8
0
  6
CONTINUOUS
 10
5.260640
 20
4.577320
  0
VERTEX
  8
0
  6
CONTINUOUS
 10
5.219720
 20
4.610760
  0
VERTEX
  8
0
  6
CONTINUOUS
 10
5.161640
 20
4.670160
  0
VERTEX
  8
0
  6
CONTINUOUS
 10
5.125120
 20
4.715920
  0
VERTEX
  8
0
  6
CONTINUOUS
 10
5.090800
 20
4.766520
  0
VERTEX
  8
0
  6
CONTINUOUS
 10
5.059120
 20
4.822400
  0
VERTEX
  8
0
  6
CONTINUOUS
 10
5.030520
 20
4.883560
  0
VERTEX
  8
0
  6
CONTINUOUS
 10
5.016880
 20
4.916120
  0
VERTEX
  8
0
  6
CONTINUOUS
 10
4.992680
 20
4.986080
  0
VERTEX
  8
0
  6
CONTINUOUS
 10
4.986080
 20
4.992680
  0
SEQEND
  8
0
  0
POLYLINE
  8
0
  6
CONTINUOUS
 66
     1
 40
0.011880
 41
0.011880
  0
VERTEX
  8
0
  6
CONTINUOUS
 10
1.122880
 20
5.708560
  0
VERTEX
  8
0
  6
CONTINUOUS
 10
1.015080
 20
5.709880
  0
VERTEX
  8
0
  6
CONTINUOUS
 10
1.013320
 20
5.683920
  0
VERTEX
  8
0
  6
CONTINUOUS
 10
1.004080
 20
5.635080
  0
VERTEX
  8
0
  6
CONTINUOUS
 10
0.987800
 20
5.588880
  0
VERTEX
  8
0
  6
CONTINUOUS
 10
0.964920
 20
5.546200
  0
VERTEX
  8
0
  6
CONTINUOUS
 10
0.951280
 20
5.526400
  0
VERTEX
  8
0
  6
CONTINUOUS
 10
0.935880
 20
5.507480
  0
VERTEX
  8
0
  6
CONTINUOUS
 10
0.919160
 20
5.489880
  0
VERTEX
  8
0
  6
CONTINUOUS
 10
0.901120
 20
5.473600
  0
VERTEX
  8
0
  6
CONTINUOUS
 10
0.881760
 20
5.459080
  0
VERTEX
  8
0
  6
CONTINUOUS
 10
0.860640
 20
5.445880
  0
VERTEX
  8
0
  6
CONTINUOUS
 10
0.838640
 20
5.434440
  0
VERTEX
  8
0
  6
CONTINUOUS
 10
0.815760
 20
5.424760
  0
VERTEX
  8
0
  6
CONTINUOUS
 10
0.791120
 20
5.416840
  0
VERTEX
  8
0
  6
CONTINUOUS
 10
0.789800
 20
5.418160
  0
VERTEX
  8
0
  6
CONTINUOUS
 10
0.789800
 20
4.217840
  0
VERTEX
  8
0
  6
CONTINUOUS
 10
0.788480
 20
4.217840
  0
VERTEX
  8
0
  6
CONTINUOUS
 10
2.217600
 20
4.217840
  0
VERTEX
  8
0
  6
CONTINUOUS
 10
2.216280
 20
4.216960
  0
VERTEX
  8
0
  6
CONTINUOUS
 10
2.216280
 20
5.498240
  0
VERTEX
  8
0
  6
CONTINUOUS
 10
2.423080
 20
5.499560
  0
VERTEX
  8
0
  6
CONTINUOUS
 10
2.416040
 20
5.571280
  0
VERTEX
  8
0
  6
CONTINUOUS
 10
2.403280
 20
5.639040
  0
VERTEX
  8
0
  6
CONTINUOUS
 10
2.385680
 20
5.703720
  0
VERTEX
  8
0
  6
CONTINUOUS
 10
2.363240
 20
5.764440
  0
VERTEX
  8
0
  6
CONTINUOUS
 10
2.336840
 20
5.821200
  0
VERTEX
  8
0
  6
CONTINUOUS
 10
2.306040
 20
5.874440
  0
VERTEX
  8
0
  6
CONTINUOUS
 10
2.271720
 20
5.923720
  0
VERTEX
  8
0
  6
CONTINUOUS
 10
2.233880
 20
5.969040
  0
VERTEX
  8
0
  6
CONTINUOUS
 10
2.192520
 20
6.010400
  0
VERTEX
  8
0
  6
CONTINUOUS
 10
2.148960
 20
6.047800
  0
VERTEX
  8
0
  6
CONTINUOUS
 10
2.102760
 20
6.081240
  0
VERTEX
  8
0
  6
CONTINUOUS
 10
2.054360
 20
6.110280
  0
VERTEX
  8
0
  6
CONTINUOUS
 10
2.003760
 20
6.134920
  0
VERTEX
  8
0
  6
CONTINUOUS
 10
1.952280
 20
6.155600
  0
VERTEX
  8
0
  6
CONTINUOUS
 10
1.899040
 20
6.171440
  0
VERTEX
  8
0
  6
CONTINUOUS
 10
1.872200
 20
6.178040
  0
VERTEX
  8
0
  6
CONTINUOUS
 10
1.818080
 20
6.187280
  0
VERTEX
  8
0
  6
CONTINUOUS
 10
1.763520
 20
6.192120
  0
VERTEX
  8
0
  6
CONTINUOUS
 10
1.708960
 20
6.192120
  0
VERTEX
  8
0
  6
CONTINUOUS
 10
1.681680
 20
6.190800
  0
VERTEX
  8
0
  6
CONTINUOUS
 10
1.627120
 20
6.183760
  0
VERTEX
  8
0
  6
CONTINUOUS
 10
1.573880
 20
6.172320
  0
VERTEX
  8
0
  6
CONTINUOUS
 10
1.521520
 20
6.156040
  0
VERTEX
  8
0
  6
CONTINUOUS
 10
1.470040
 20
6.134480
  0
VERTEX
  8
0
  6
CONTINUOUS
 10
1.420760
 20
6.108080
  0
VERTEX
  8
0
  6
CONTINUOUS
 10
1.373240
 20
6.076840
  0
VERTEX
  8
0
  6
CONTINUOUS
 10
1.327920
 20
6.040760
  0
VERTEX
  8
0
  6
CONTINUOUS
 10
1.285240
 20
5.998960
  0
VERTEX
  8
0
  6
CONTINUOUS
 10
1.245640
 20
5.952320
  0
VERTEX
  8
0
  6
CONTINUOUS
 10
1.209560
 20
5.900400
  0
VERTEX
  8
0
  6
CONTINUOUS
 10
1.176560
 20
5.842760
  0
VERTEX
  8
0
  6
CONTINUOUS
 10
1.147520
 20
5.779840
  0
VERTEX
  8
0
  6
CONTINUOUS
 10
1.122880
 20
5.711640
  0
VERTEX
  8
0
  6
CONTINUOUS
 10
1.122880
 20
5.708560
  0
SEQEND
  8
0
  0
TEXT
  8
0
 10
3.544200
 20
0.660440
 40
0.138089
  1
BA  285 1-15/16" x 1-5/8"
 41
1.000000
  7
SN0
 71
     0
 72
     5
 11
5.411450
 21
0.660440
  0
TEXT
  8
0
 10
3.544200
 20
0.468600
 40
0.138089
  1
BA  284 1-1/4 x 5-5/16"
 41
1.000000
  7
SN0
 71
     0
 72
     5
 11
5.260451
 21
0.468600
  0
SOLID
  8
0
 62
    15
 10
7.263520
 20
1.411520
 11
7.254720
 21
2.145880
 12
7.293440
 22
1.357840
 13
7.285080
 23
2.092200
  0
POLYLINE
  8
0
  6
CONTINUOUS
 66
     1
 40
0.011880
 41
0.011880
  0
VERTEX
  8
0
  6
CONTINUOUS
 10
7.263520
 20
1.411520
  0
VERTEX
  8
0
  6
CONTINUOUS
 10
7.254720
 20
2.145880
  0
VERTEX
  8
0
  6
CONTINUOUS
 10
7.285080
 20
2.092200
  0
VERTEX
  8
0
  6
CONTINUOUS
 10
7.293440
 20
1.357840
  0
VERTEX
  8
0
  6
CONTINUOUS
 10
7.263520
 20
1.411520
  0
SEQEND
  8
0
  0
SOLID
  8
0
 62
    15
 10
5.043720
 20
1.679040
 11
5.034920
 21
2.413400
 12
5.071000
 22
1.614800
 13
5.062640
 23
2.349160
  0
POLYLINE
  8
0
  6
CONTINUOUS
 66
     1
 40
0.011880
 41
0.011880
  0
VERTEX
  8
0
  6
CONTINUOUS
 10
5.043720
 20
1.679040
  0
VERTEX
  8
0
  6
CONTINUOUS
 10
5.034920
 20
2.413400
  0
VERTEX
  8
0
  6
CONTINUOUS
 10
5.062640
 20
2.349160
  0
VERTEX
  8
0
  6
CONTINUOUS
 10
5.071000
 20
1.614800
  0
VERTEX
  8
0
  6
CONTINUOUS
 10
5.043720
 20
1.679040
  0
SEQEND
  8
0
  0
SOLID
  8
0
 62
    15
 10
5.071000
 20
1.614800
 11
5.062640
 21
2.349160
 12
5.101360
 22
1.556280
 13
5.093000
 23
2.290640
  0
POLYLINE
  8
0
  6
CONTINUOUS
 66
     1
 40
0.011880
 41
0.011880
  0
VERTEX
  8
0
  6
CONTINUOUS
 10
5.071000
 20
1.614800
  0
VERTEX
  8
0
  6
CONTINUOUS
 10
5.062640
 20
2.349160
  0
VERTEX
  8
0
  6
CONTINUOUS
 10
5.093000
 20
2.290640
  0
VERTEX
  8
0
  6
CONTINUOUS
 10
5.101360
 20
1.556280
  0
VERTEX
  8
0
  6
CONTINUOUS
 10
5.071000
 20
1.614800
  0
SEQEND
  8
0
  0
SOLID
  8
0
 62
    15
 10
5.101360
 20
1.556280
 11
5.093000
 21
2.290640
 12
5.134360
 22
1.503040
 13
5.125560
 23
2.237400
  0
POLYLINE
  8
0
  6
CONTINUOUS
 66
     1
 40
0.011880
 41
0.011880
  0
VERTEX
  8
0
  6
CONTINUOUS
 10
5.101360
 20
1.556280
  0
VERTEX
  8
0
  6
CONTINUOUS
 10
5.093000
 20
2.290640
  0
VERTEX
  8
0
  6
CONTINUOUS
 10
5.125560
 20
2.237400
  0
VERTEX
  8
0
  6
CONTINUOUS
 10
5.134360
 20
1.503040
  0
VERTEX
  8
0
  6
CONTINUOUS
 10
5.101360
 20
1.556280
  0
SEQEND
  8
0
  0
SOLID
  8
0
 62
    15
 10
5.134360
 20
1.503040
 11
5.125560
 21
2.237400
 12
5.206960
 22
1.411960
 13
5.198600
 23
2.146320
  0
POLYLINE
  8
0
  6
CONTINUOUS
 66
     1
 40
0.011880
 41
0.011880
  0
VERTEX
  8
0
  6
CONTINUOUS
 10
5.134360
 20
1.503040
  0
VERTEX
  8
0
  6
CONTINUOUS
 10
5.125560
 20
2.237400
  0
VERTEX
  8
0
  6
CONTINUOUS
 10
5.198600
 20
2.146320
  0
VERTEX
  8
0
  6
CONTINUOUS
 10
5.206960
 20
1.411960
  0
VERTEX
  8
0
  6
CONTINUOUS
 10
5.134360
 20
1.503040
  0
SEQEND
  8
0
  0
SOLID
  8
0
 62
    15
 10
5.206960
 20
1.411960
 11
5.198600
 21
2.146320
 12
5.287480
 22
1.340240
 13
5.278680
 23
2.074600
  0
POLYLINE
  8
0
  6
CONTINUOUS
 66
     1
 40
0.011880
 41
0.011880
  0
VERTEX
  8
0
  6
CONTINUOUS
 10
5.206960
 20
1.411960
  0
VERTEX
  8
0
  6
CONTINUOUS
 10
5.198600
 20
2.146320
  0
VERTEX
  8
0
  6
CONTINUOUS
 10
5.278680
 20
2.074600
  0
VERTEX
  8
0
  6
CONTINUOUS
 10
5.287480
 20
1.340240
  0
VERTEX
  8
0
  6
CONTINUOUS
 10
5.206960
 20
1.411960
  0
SEQEND
  8
0
  0
SOLID
  8
0
 62
    15
 10
5.287480
 20
1.340240
 11
5.278680
 21
2.074600
 12
5.373280
 22
1.285680
 13
5.364480
 23
2.020040
  0
POLYLINE
  8
0
  6
CONTINUOUS
 66
     1
 40
0.011880
 41
0.011880
  0
VERTEX
  8
0
  6
CONTINUOUS
 10
5.287480
 20
1.340240
  0
VERTEX
  8
0
  6
CONTINUOUS
 10
5.278680
 20
2.074600
  0
VERTEX
  8
0
  6
CONTINUOUS
 10
5.364480
 20
2.020040
  0
VERTEX
  8
0
  6
CONTINUOUS
 10
5.373280
 20
1.285680
  0
VERTEX
  8
0
  6
CONTINUOUS
 10
5.287480
 20
1.340240
  0
SEQEND
  8
0
  0
SOLID
  8
0
 62
    15
 10
5.373280
 20
1.285680
 11
5.364480
 21
2.020040
 12
5.462600
 22
1.248280
 13
5.454240
 23
1.982640
  0
POLYLINE
  8
0
  6
CONTINUOUS
 66
     1
 40
0.011880
 41
0.011880
  0
VERTEX
  8
0
  6
CONTINUOUS
 10
5.373280
 20
1.285680
  0
VERTEX
  8
0
  6
CONTINUOUS
 10
5.364480
 20
2.020040
  0
VERTEX
  8
0
  6
CONTINUOUS
 10
5.454240
 20
1.982640
  0
VERTEX
  8
0
  6
CONTINUOUS
 10
5.462600
 20
1.248280
  0
VERTEX
  8
0
  6
CONTINUOUS
 10
5.373280
 20
1.285680
  0
SEQEND
  8
0
  0
SOLID
  8
0
 62
    15
 10
5.462600
 20
1.248280
 11
5.454240
 21
1.982640
 12
5.554120
 22
1.225400
 13
5.545320
 23
1.959760
  0
POLYLINE
  8
0
  6
CONTINUOUS
 66
     1
 40
0.011880
 41
0.011880
  0
VERTEX
  8
0
  6
CONTINUOUS
 10
5.462600
 20
1.248280
  0
VERTEX
  8
0
  6
CONTINUOUS
 10
5.454240
 20
1.982640
  0
VERTEX
  8
0
  6
CONTINUOUS
 10
5.545320
 20
1.959760
  0
VERTEX
  8
0
  6
CONTINUOUS
 10
5.554120
 20
1.225400
  0
VERTEX
  8
0
  6
CONTINUOUS
 10
5.462600
 20
1.248280
  0
SEQEND
  8
0
  0
SOLID
  8
0
 62
    15
 10
5.554120
 20
1.225400
 11
5.545320
 21
1.959760
 12
5.645200
 22
1.216160
 13
5.636400
 23
1.950520
  0
POLYLINE
  8
0
  6
CONTINUOUS
 66
     1
 40
0.011880
 41
0.011880
  0
VERTEX
  8
0
  6
CONTINUOUS
 10
5.554120
 20
1.225400
  0
VERTEX
  8
0
  6
CONTINUOUS
 10
5.545320
 20
1.959760
  0
VERTEX
  8
0
  6
CONTINUOUS
 10
5.636400
 20
1.950520
  0
VERTEX
  8
0
  6
CONTINUOUS
 10
5.645200
 20
1.216160
  0
VERTEX
  8
0
  6
CONTINUOUS
 10
5.554120
 20
1.225400
  0
SEQEND
  8
0
  0
SOLID
  8
0
 62
    15
 10
5.645200
 20
1.216160
 11
5.636400
 21
1.950520
 12
5.734080
 22
1.219240
 13
5.725280
 23
1.953600
  0
POLYLINE
  8
0
  6
CONTINUOUS
 66
     1
 40
0.011880
 41
0.011880
  0
VERTEX
  8
0
  6
CONTINUOUS
 10
5.645200
 20
1.216160
  0
VERTEX
  8
0
  6
CONTINUOUS
 10
5.636400
 20
1.950520
  0
VERTEX
  8
0
  6
CONTINUOUS
 10
5.725280
 20
1.953600
  0
VERTEX
  8
0
  6
CONTINUOUS
 10
5.734080
 20
1.219240
  0
VERTEX
  8
0
  6
CONTINUOUS
 10
5.645200
 20
1.216160
  0
SEQEND
  8
0
  0
SOLID
  8
0
 62
    15
 10
5.734080
 20
1.219240
 11
5.725280
 21
1.953600
 12
5.818560
 22
1.233320
 13
5.810200
 23
1.967680
  0
POLYLINE
  8
0
  6
CONTINUOUS
 66
     1
 40
0.011880
 41
0.011880
  0
VERTEX
  8
0
  6
CONTINUOUS
 10
5.734080
 20
1.219240
  0
VERTEX
  8
0
  6
CONTINUOUS
 10
5.725280
 20
1.953600
  0
VERTEX
  8
0
  6
CONTINUOUS
 10
5.810200
 20
1.967680
  0
VERTEX
  8
0
  6
CONTINUOUS
 10
5.818560
 20
1.233320
  0
VERTEX
  8
0
  6
CONTINUOUS
 10
5.734080
 20
1.219240
  0
SEQEND
  8
0
  0
SOLID
  8
0
 62
    15
 10
5.818560
 20
1.233320
 11
5.810200
 21
1.967680
 12
5.897760
 22
1.256640
 13
5.888960
 23
1.991000
  0
POLYLINE
  8
0
  6
CONTINUOUS
 66
     1
 40
0.011880
 41
0.011880
  0
VERTEX
  8
0
  6
CONTINUOUS
 10
5.818560
 20
1.233320
  0
VERTEX
  8
0
  6
CONTINUOUS
 10
5.810200
 20
1.967680
  0
VERTEX
  8
0
  6
CONTINUOUS
 10
5.888960
 20
1.991000
  0
VERTEX
  8
0
  6
CONTINUOUS
 10
5.897760
 20
1.256640
  0
VERTEX
  8
0
  6
CONTINUOUS
 10
5.818560
 20
1.233320
  0
SEQEND
  8
0
  0
SOLID
  8
0
 62
    15
 10
5.897760
 20
1.256640
 11
5.888960
 21
1.991000
 12
5.968600
 22
1.287880
 13
5.959800
 23
2.022240
  0
POLYLINE
  8
0
  6
CONTINUOUS
 66
     1
 40
0.011880
 41
0.011880
  0
VERTEX
  8
0
  6
CONTINUOUS
 10
5.897760
 20
1.256640
  0
VERTEX
  8
0
  6
CONTINUOUS
 10
5.888960
 20
1.991000
  0
VERTEX
  8
0
  6
CONTINUOUS
 10
5.959800
 20
2.022240
  0
VERTEX
  8
0
  6
CONTINUOUS
 10
5.968600
 20
1.287880
  0
VERTEX
  8
0
  6
CONTINUOUS
 10
5.897760
 20
1.256640
  0
SEQEND
  8
0
  0
SOLID
  8
0
 62
    15
 10
5.968600
 20
1.287880
 11
5.959800
 21
2.022240
 12
6.029320
 22
1.325720
 13
6.020960
 23
2.060080
  0
POLYLINE
  8
0
  6
CONTINUOUS
 66
     1
 40
0.011880
 41
0.011880
  0
VERTEX
  8
0
  6
CONTINUOUS
 10
5.968600
 20
1.287880
  0
VERTEX
  8
0
  6
CONTINUOUS
 10
5.959800
 20
2.022240
  0
VERTEX
  8
0
  6
CONTINUOUS
 10
6.020960
 20
2.060080
  0
VERTEX
  8
0
  6
CONTINUOUS
 10
6.029320
 20
1.325720
  0
VERTEX
  8
0
  6
CONTINUOUS
 10
5.968600
 20
1.287880
  0
SEQEND
  8
0
  0
SOLID
  8
0
 62
    15
 10
6.029320
 20
1.325720
 11
6.020960
 21
2.060080
 12
6.078600
 22
1.368400
 13
6.070240
 23
2.102760
  0
POLYLINE
  8
0
  6
CONTINUOUS
 66
     1
 40
0.011880
 41
0.011880
  0
VERTEX
  8
0
  6
CONTINUOUS
 10
6.029320
 20
1.325720
  0
VERTEX
  8
0
  6
CONTINUOUS
 10
6.020960
 20
2.060080
  0
VERTEX
  8
0
  6
CONTINUOUS
 10
6.070240
 20
2.102760
  0
VERTEX
  8
0
  6
CONTINUOUS
 10
6.078600
 20
1.368400
  0
VERTEX
  8
0
  6
CONTINUOUS
 10
6.029320
 20
1.325720
  0
SEQEND
  8
0
  0
SOLID
  8
0
 62
    15
 10
6.078600
 20
1.368400
 11
6.070240
 21
2.102760
 12
6.114240
 22
1.415480
 13
6.105440
 23
2.149840
  0
POLYLINE
  8
0
  6
CONTINUOUS
 66
     1
 40
0.011880
 41
0.011880
  0
VERTEX
  8
0
  6
CONTINUOUS
 10
6.078600
 20
1.368400
  0
VERTEX
  8
0
  6
CONTINUOUS
 10
6.070240
 20
2.102760
  0
VERTEX
  8
0
  6
CONTINUOUS
 10
6.105440
 20
2.149840
  0
VERTEX
  8
0
  6
CONTINUOUS
 10
6.114240
 20
1.415480
  0
VERTEX
  8
0
  6
CONTINUOUS
 10
6.078600
 20
1.368400
  0
SEQEND
  8
0
  0
SOLID
  8
0
 62
    15
 10
6.114240
 20
1.415480
 11
6.105440
 21
2.149840
 12
6.133600
 22
1.464760
 13
6.125240
 23
2.199120
  0
POLYLINE
  8
0
  6
CONTINUOUS
 66
     1
 40
0.011880
 41
0.011880
  0
VERTEX
  8
0
  6
CONTINUOUS
 10
6.114240
 20
1.415480
  0
VERTEX
  8
0
  6
CONTINUOUS
 10
6.105440
 20
2.149840
  0
VERTEX
  8
0
  6
CONTINUOUS
 10
6.125240
 20
2.199120
  0
VERTEX
  8
0
  6
CONTINUOUS
 10
6.133600
 20
1.464760
  0
VERTEX
  8
0
  6
CONTINUOUS
 10
6.114240
 20
1.415480
  0
SEQEND
  8
0
  0
SOLID
  8
0
 62
    15
 10
6.133600
 20
1.464760
 11
6.125240
 21
2.199120
 12
6.420480
 22
1.464760
 13
6.412120
 23
2.199120
  0
POLYLINE
  8
0
  6
CONTINUOUS
 66
     1
 40
0.011880
 41
0.011880
  0
VERTEX
  8
0
  6
CONTINUOUS
 10
6.133600
 20
1.464760
  0
VERTEX
  8
0
  6
CONTINUOUS
 10
6.125240
 20
2.199120
  0
VERTEX
  8
0
  6
CONTINUOUS
 10
6.412120
 20
2.199120
  0
VERTEX
  8
0
  6
CONTINUOUS
 10
6.420480
 20
1.464760
  0
VERTEX
  8
0
  6
CONTINUOUS
 10
6.133600
 20
1.464760
  0
SEQEND
  8
0
  0
SOLID
  8
0
 62
    15
 10
6.420480
 20
1.464760
 11
6.412120
 21
2.199120
 12
6.426200
 22
1.518880
 13
6.417400
 23
2.253240
  0
POLYLINE
  8
0
  6
CONTINUOUS
 66
     1
 40
0.011880
 41
0.011880
  0
VERTEX
  8
0
  6
CONTINUOUS
 10
6.420480
 20
1.464760
  0
VERTEX
  8
0
  6
CONTINUOUS
 10
6.412120
 20
2.199120
  0
VERTEX
  8
0
  6
CONTINUOUS
 10
6.417400
 20
2.253240
  0
VERTEX
  8
0
  6
CONTINUOUS
 10
6.426200
 20
1.518880
  0
VERTEX
  8
0
  6
CONTINUOUS
 10
6.420480
 20
1.464760
  0
SEQEND
  8
0
  0
SOLID
  8
0
 62
    15
 10
6.426200
 20
1.518880
 11
6.417400
 21
2.253240
 12
6.441600
 22
1.568160
 13
6.433240
 23
2.302520
  0
POLYLINE
  8
0
  6
CONTINUOUS
 66
     1
 40
0.011880
 41
0.011880
  0
VERTEX
  8
0
  6
CONTINUOUS
 10
6.426200
 20
1.518880
  0
VERTEX
  8
0
  6
CONTINUOUS
 10
6.417400
 20
2.253240
  0
VERTEX
  8
0
  6
CONTINUOUS
 10
6.433240
 20
2.302520
  0
VERTEX
  8
0
  6
CONTINUOUS
 10
6.441600
 20
1.568160
  0
VERTEX
  8
0
  6
CONTINUOUS
 10
6.426200
 20
1.518880
  0
SEQEND
  8
0
  0
SOLID
  8
0
 62
    15
 10
6.441600
 20
1.568160
 11
6.433240
 21
2.302520
 12
6.466680
 22
1.612160
 13
6.458320
 23
2.346520
  0
POLYLINE
  8
0
  6
CONTINUOUS
 66
     1
 40
0.011880
 41
0.011880
  0
VERTEX
  8
0
  6
CONTINUOUS
 10
6.441600
 20
1.568160
  0
VERTEX
  8
0
  6
CONTINUOUS
 10
6.433240
 20
2.302520
  0
VERTEX
  8
0
  6
CONTINUOUS
 10
6.458320
 20
2.346520
  0
VERTEX
  8
0
  6
CONTINUOUS
 10
6.466680
 20
1.612160
  0
VERTEX
  8
0
  6
CONTINUOUS
 10
6.441600
 20
1.568160
  0
SEQEND
  8
0
  0
SOLID
  8
0
 62
    15
 10
6.466680
 20
1.612160
 11
6.458320
 21
2.346520
 12
6.499680
 22
1.650000
 13
6.491320
 23
2.384360
  0
POLYLINE
  8
0
  6
CONTINUOUS
 66
     1
 40
0.011880
 41
0.011880
  0
VERTEX
  8
0
  6
CONTINUOUS
 10
6.466680
 20
1.612160
  0
VERTEX
  8
0
  6
CONTINUOUS
 10
6.458320
 20
2.346520
  0
VERTEX
  8
0
  6
CONTINUOUS
 10
6.491320
 20
2.384360
  0
VERTEX
  8
0
  6
CONTINUOUS
 10
6.499680
 20
1.650000
  0
VERTEX
  8
0
  6
CONTINUOUS
 10
6.466680
 20
1.612160
  0
SEQEND
  8
0
  0
SOLID
  8
0
 62
    15
 10
6.499680
 20
1.650000
 11
6.491320
 21
2.384360
 12
6.539720
 22
1.680800
 13
6.531360
 23
2.415160
  0
POLYLINE
  8
0
  6
CONTINUOUS
 66
     1
 40
0.011880
 41
0.011880
  0
VERTEX
  8
0
  6
CONTINUOUS
 10
6.499680
 20
1.650000
  0
VERTEX
  8
0
  6
CONTINUOUS
 10
6.491320
 20
2.384360
  0
VERTEX
  8
0
  6
CONTINUOUS
 10
6.531360
 20
2.415160
  0
VERTEX
  8
0
  6
CONTINUOUS
 10
6.539720
 20
1.680800
  0
VERTEX
  8
0
  6
CONTINUOUS
 10
6.499680
 20
1.650000
  0
SEQEND
  8
0
  0
SOLID
  8
0
 62
    15
 10
6.539720
 20
1.680800
 11
6.531360
 21
2.415160
 12
6.585920
 22
1.704120
 13
6.577120
 23
2.438480
  0
POLYLINE
  8
0
  6
CONTINUOUS
 66
     1
 40
0.011880
 41
0.011880
  0
VERTEX
  8
0
  6
CONTINUOUS
 10
6.539720
 20
1.680800
  0
VERTEX
  8
0
  6
CONTINUOUS
 10
6.531360
 20
2.415160
  0
VERTEX
  8
0
  6
CONTINUOUS
 10
6.577120
 20
2.438480
  0
VERTEX
  8
0
  6
CONTINUOUS
 10
6.585920
 20
1.704120
  0
VERTEX
  8
0
  6
CONTINUOUS
 10
6.539720
 20
1.680800
  0
SEQEND
  8
0
  0
SOLID
  8
0
 62
    15
 10
6.585920
 20
1.704120
 11
6.577120
 21
2.438480
 12
6.636520
 22
1.718640
 13
6.628160
 23
2.453000
  0
POLYLINE
  8
0
  6
CONTINUOUS
 66
     1
 40
0.011880
 41
0.011880
  0
VERTEX
  8
0
  6
CONTINUOUS
 10
6.585920
 20
1.704120
  0
VERTEX
  8
0
  6
CONTINUOUS
 10
6.577120
 20
2.438480
  0
VERTEX
  8
0
  6
CONTINUOUS
 10
6.628160
 20
2.453000
  0
VERTEX
  8
0
  6
CONTINUOUS
 10
6.636520
 20
1.718640
  0
VERTEX
  8
0
  6
CONTINUOUS
 10
6.585920
 20
1.704120
  0
SEQEND
  8
0
  0
SOLID
  8
0
 62
    15
 10
6.636520
 20
1.718640
 11
6.628160
 21
2.453000
 12
6.691080
 22
1.723480
 13
6.682720
 23
2.457840
  0
POLYLINE
  8
0
  6
CONTINUOUS
 66
     1
 40
0.011880
 41
0.011880
  0
VERTEX
  8
0
  6
CONTINUOUS
 10
6.636520
 20
1.718640
  0
VERTEX
  8
0
  6
CONTINUOUS
 10
6.628160
 20
2.453000
  0
VERTEX
  8
0
  6
CONTINUOUS
 10
6.682720
 20
2.457840
  0
VERTEX
  8
0
  6
CONTINUOUS
 10
6.691080
 20
1.723480
  0
VERTEX
  8
0
  6
CONTINUOUS
 10
6.636520
 20
1.718640
  0
SEQEND
  8
0
  0
SOLID
  8
0
 62
    15
 10
6.691080
 20
1.723480
 11
6.682720
 21
2.457840
 12
6.745640
 22
1.718640
 13
6.737280
 23
2.453000
  0
POLYLINE
  8
0
  6
CONTINUOUS
 66
     1
 40
0.011880
 41
0.011880
  0
VERTEX
  8
0
  6
CONTINUOUS
 10
6.691080
 20
1.723480
  0
VERTEX
  8
0
  6
CONTINUOUS
 10
6.682720
 20
2.457840
  0
VERTEX
  8
0
  6
CONTINUOUS
 10
6.737280
 20
2.453000
  0
VERTEX
  8
0
  6
CONTINUOUS
 10
6.745640
 20
1.718640
  0
VERTEX
  8
0
  6
CONTINUOUS
 10
6.691080
 20
1.723480
  0
SEQEND
  8
0
  0
SOLID
  8
0
 62
    15
 10
6.745640
 20
1.718640
 11
6.737280
 21
2.453000
 12
6.796680
 22
1.704120
 13
6.787880
 23
2.438480
  0
POLYLINE
  8
0
  6
CONTINUOUS
 66
     1
 40
0.011880
 41
0.011880
  0
VERTEX
  8
0
  6
CONTINUOUS
 10
6.745640
 20
1.718640
  0
VERTEX
  8
0
  6
CONTINUOUS
 10
6.737280
 20
2.453000
  0
VERTEX
  8
0
  6
CONTINUOUS
 10
6.787880
 20
2.438480
  0
VERTEX
  8
0
  6
CONTINUOUS
 10
6.796680
 20
1.704120
  0
VERTEX
  8
0
  6
CONTINUOUS
 10
6.745640
 20
1.718640
  0
SEQEND
  8
0
  0
SOLID
  8
0
 62
    15
 10
6.796680
 20
1.704120
 11
6.787880
 21
2.438480
 12
6.842880
 22
1.680800
 13
6.834080
 23
2.415160
  0
POLYLINE
  8
0
  6
CONTINUOUS
 66
     1
 40
0.011880
 41
0.011880
  0
VERTEX
  8
0
  6
CONTINUOUS
 10
6.796680
 20
1.704120
  0
VERTEX
  8
0
  6
CONTINUOUS
 10
6.787880
 20
2.438480
  0
VERTEX
  8
0
  6
CONTINUOUS
 10
6.834080
 20
2.415160
  0
VERTEX
  8
0
  6
CONTINUOUS
 10
6.842880
 20
1.680800
  0
VERTEX
  8
0
  6
CONTINUOUS
 10
6.796680
 20
1.704120
  0
SEQEND
  8
0
  0
SOLID
  8
0
 62
    15
 10
6.842880
 20
1.680800
 11
6.834080
 21
2.415160
 12
6.883360
 22
1.650000
 13
6.874560
 23
2.384360
  0
POLYLINE
  8
0
  6
CONTINUOUS
 66
     1
 40
0.011880
 41
0.011880
  0
VERTEX
  8
0
  6
CONTINUOUS
 10
6.842880
 20
1.680800
  0
VERTEX
  8
0
  6
CONTINUOUS
 10
6.834080
 20
2.415160
  0
VERTEX
  8
0
  6
CONTINUOUS
 10
6.874560
 20
2.384360
  0
VERTEX
  8
0
  6
CONTINUOUS
 10
6.883360
 20
1.650000
  0
VERTEX
  8
0
  6
CONTINUOUS
 10
6.842880
 20
1.680800
  0
SEQEND
  8
0
  0
SOLID
  8
0
 62
    15
 10
6.883360
 20
1.650000
 11
6.874560
 21
2.384360
 12
6.916360
 22
1.612160
 13
6.908000
 23
2.346520
  0
POLYLINE
  8
0
  6
CONTINUOUS
 66
     1
 40
0.011880
 41
0.011880
  0
VERTEX
  8
0
  6
CONTINUOUS
 10
6.883360
 20
1.650000
  0
VERTEX
  8
0
  6
CONTINUOUS
 10
6.874560
 20
2.384360
  0
VERTEX
  8
0
  6
CONTINUOUS
 10
6.908000
 20
2.346520
  0
VERTEX
  8
0
  6
CONTINUOUS
 10
6.916360
 20
1.612160
  0
VERTEX
  8
0
  6
CONTINUOUS
 10
6.883360
 20
1.650000
  0
SEQEND
  8
0
  0
SOLID
  8
0
 62
    15
 10
6.941440
 20
1.568160
 11
6.933080
 21
2.302520
 12
6.957720
 22
1.518880
 13
6.948920
 23
2.253240
  0
POLYLINE
  8
0
  6
CONTINUOUS
 66
     1
 40
0.011880
 41
0.011880
  0
VERTEX
  8
0
  6
CONTINUOUS
 10
6.941440
 20
1.568160
  0
VERTEX
  8
0
  6
CONTINUOUS
 10
6.933080
 20
2.302520
  0
VERTEX
  8
0
  6
CONTINUOUS
 10
6.948920
 20
2.253240
  0
VERTEX
  8
0
  6
CONTINUOUS
 10
6.957720
 20
1.518880
  0
VERTEX
  8
0
  6
CONTINUOUS
 10
6.941440
 20
1.568160
  0
SEQEND
  8
0
  0
SOLID
  8
0
 62
    15
 10
6.916360
 20
1.612160
 11
6.908000
 21
2.346520
 12
6.941440
 22
1.568160
 13
6.933080
 23
2.302520
  0
POLYLINE
  8
0
  6
CONTINUOUS
 66
     1
 40
0.011880
 41
0.011880
  0
VERTEX
  8
0
  6
CONTINUOUS
 10
6.916360
 20
1.612160
  0
VERTEX
  8
0
  6
CONTINUOUS
 10
6.908000
 20
2.346520
  0
VERTEX
  8
0
  6
CONTINUOUS
 10
6.933080
 20
2.302520
  0
VERTEX
  8
0
  6
CONTINUOUS
 10
6.941440
 20
1.568160
  0
VERTEX
  8
0
  6
CONTINUOUS
 10
6.916360
 20
1.612160
  0
SEQEND
  8
0
  0
SOLID
  8
0
 62
    15
 10
7.249880
 20
1.464760
 11
7.241080
 21
2.199120
 12
7.263520
 22
1.411520
 13
7.254720
 23
2.145880
  0
POLYLINE
  8
0
  6
CONTINUOUS
 66
     1
 40
0.011880
 41
0.011880
  0
VERTEX
  8
0
  6
CONTINUOUS
 10
7.249880
 20
1.464760
  0
VERTEX
  8
0
  6
CONTINUOUS
 10
7.241080
 20
2.199120
  0
VERTEX
  8
0
  6
CONTINUOUS
 10
7.254720
 20
2.145880
  0
VERTEX
  8
0
  6
CONTINUOUS
 10
7.263520
 20
1.411520
  0
VERTEX
  8
0
  6
CONTINUOUS
 10
7.249880
 20
1.464760
  0
SEQEND
  8
0
  0
SOLID
  8
0
 62
    15
 10
5.019080
 20
1.748560
 11
5.010720
 21
2.482920
 12
5.043720
 22
1.679040
 13
5.034920
 23
2.413400
  0
POLYLINE
  8
0
  6
CONTINUOUS
 66
     1
 40
0.011880
 41
0.011880
  0
VERTEX
  8
0
  6
CONTINUOUS
 10
5.019080
 20
1.748560
  0
VERTEX
  8
0
  6
CONTINUOUS
 10
5.010720
 20
2.482920
  0
VERTEX
  8
0
  6
CONTINUOUS
 10
5.034920
 20
2.413400
  0
VERTEX
  8
0
  6
CONTINUOUS
 10
5.043720
 20
1.679040
  0
VERTEX
  8
0
  6
CONTINUOUS
 10
5.019080
 20
1.748560
  0
SEQEND
  8
0
  0
SOLID
  8
0
 62
    15
 10
6.963000
 20
1.464760
 11
6.954640
 21
2.199120
 12
7.249880
 22
1.464760
 13
7.241080
 23
2.199120
  0
POLYLINE
  8
0
  6
CONTINUOUS
 66
     1
 40
0.011880
 41
0.011880
  0
VERTEX
  8
0
  6
CONTINUOUS
 10
6.963000
 20
1.464760
  0
VERTEX
  8
0
  6
CONTINUOUS
 10
6.954640
 20
2.199120
  0
VERTEX
  8
0
  6
CONTINUOUS
 10
7.241080
 20
2.199120
  0
VERTEX
  8
0
  6
CONTINUOUS
 10
7.249880
 20
1.464760
  0
VERTEX
  8
0
  6
CONTINUOUS
 10
6.963000
 20
1.464760
  0
SEQEND
  8
0
  0
SOLID
  8
0
 62
    15
 10
6.957720
 20
1.518880
 11
6.948920
 21
2.253240
 12
6.963000
 22
1.464760
 13
6.954640
 23
2.199120
  0
POLYLINE
  8
0
  6
CONTINUOUS
 66
     1
 40
0.011880
 41
0.011880
  0
VERTEX
  8
0
  6
CONTINUOUS
 10
6.957720
 20
1.518880
  0
VERTEX
  8
0
  6
CONTINUOUS
 10
6.948920
 20
2.253240
  0
VERTEX
  8
0
  6
CONTINUOUS
 10
6.954640
 20
2.199120
  0
VERTEX
  8
0
  6
CONTINUOUS
 10
6.963000
 20
1.464760
  0
VERTEX
  8
0
  6
CONTINUOUS
 10
6.957720
 20
1.518880
  0
SEQEND
  8
0
  0
SOLID
  8
0
 62
    15
 10
7.293440
 20
1.357840
 11
7.285080
 21
2.092200
 12
7.337880
 22
1.305920
 13
7.329080
 23
2.040280
  0
POLYLINE
  8
0
  6
CONTINUOUS
 66
     1
 40
0.011880
 41
0.011880
  0
VERTEX
  8
0
  6
CONTINUOUS
 10
7.293440
 20
1.357840
  0
VERTEX
  8
0
  6
CONTINUOUS
 10
7.285080
 20
2.092200
  0
VERTEX
  8
0
  6
CONTINUOUS
 10
7.329080
 20
2.040280
  0
VERTEX
  8
0
  6
CONTINUOUS
 10
7.337880
 20
1.305920
  0
VERTEX
  8
0
  6
CONTINUOUS
 10
7.293440
 20
1.357840
  0
SEQEND
  8
0
  0
SOLID
  8
0
 62
    15
 10
7.337880
 20
1.305920
 11
7.329080
 21
2.040280
 12
7.394200
 22
1.258400
 13
7.385400
 23
1.992760
  0
POLYLINE
  8
0
  6
CONTINUOUS
 66
     1
 40
0.011880
 41
0.011880
  0
VERTEX
  8
0
  6
CONTINUOUS
 10
7.337880
 20
1.305920
  0
VERTEX
  8
0
  6
CONTINUOUS
 10
7.329080
 20
2.040280
  0
VERTEX
  8
0
  6
CONTINUOUS
 10
7.385400
 20
1.992760
  0
VERTEX
  8
0
  6
CONTINUOUS
 10
7.394200
 20
1.258400
  0
VERTEX
  8
0
  6
CONTINUOUS
 10
7.337880
 20
1.305920
  0
SEQEND
  8
0
  0
SOLID
  8
0
 62
    15
 10
7.394200
 20
1.258400
 11
7.385400
 21
1.992760
 12
7.460200
 22
1.217480
 13
7.451400
 23
1.951840
  0
POLYLINE
  8
0
  6
CONTINUOUS
 66
     1
 40
0.011880
 41
0.011880
  0
VERTEX
  8
0
  6
CONTINUOUS
 10
7.394200
 20
1.258400
  0
VERTEX
  8
0
  6
CONTINUOUS
 10
7.385400
 20
1.992760
  0
VERTEX
  8
0
  6
CONTINUOUS
 10
7.451400
 20
1.951840
  0
VERTEX
  8
0
  6
CONTINUOUS
 10
7.460200
 20
1.217480
  0
VERTEX
  8
0
  6
CONTINUOUS
 10
7.394200
 20
1.258400
  0
SEQEND
  8
0
  0
SOLID
  8
0
 62
    15
 10
7.460200
 20
1.217480
 11
7.451400
 21
1.951840
 12
7.533240
 22
1.185360
 13
7.524880
 23
1.919720
  0
POLYLINE
  8
0
  6
CONTINUOUS
 66
     1
 40
0.011880
 41
0.011880
  0
VERTEX
  8
0
  6
CONTINUOUS
 10
7.460200
 20
1.217480
  0
VERTEX
  8
0
  6
CONTINUOUS
 10
7.451400
 20
1.951840
  0
VERTEX
  8
0
  6
CONTINUOUS
 10
7.524880
 20
1.919720
  0
VERTEX
  8
0
  6
CONTINUOUS
 10
7.533240
 20
1.185360
  0
VERTEX
  8
0
  6
CONTINUOUS
 10
7.460200
 20
1.217480
  0
SEQEND
  8
0
  0
SOLID
  8
0
 62
    15
 10
7.533240
 20
1.185360
 11
7.524880
 21
1.919720
 12
7.611560
 22
1.164240
 13
7.603200
 23
1.898600
  0
POLYLINE
  8
0
  6
CONTINUOUS
 66
     1
 40
0.011880
 41
0.011880
  0
VERTEX
  8
0
  6
CONTINUOUS
 10
7.533240
 20
1.185360
  0
VERTEX
  8
0
  6
CONTINUOUS
 10
7.524880
 20
1.919720
  0
VERTEX
  8
0
  6
CONTINUOUS
 10
7.603200
 20
1.898600
  0
VERTEX
  8
0
  6
CONTINUOUS
 10
7.611560
 20
1.164240
  0
VERTEX
  8
0
  6
CONTINUOUS
 10
7.533240
 20
1.185360
  0
SEQEND
  8
0
  0
SOLID
  8
0
 62
    15
 10
7.611560
 20
1.164240
 11
7.603200
 21
1.898600
 12
7.692520
 22
1.156760
 13
7.683720
 23
1.891120
  0
POLYLINE
  8
0
  6
CONTINUOUS
 66
     1
 40
0.011880
 41
0.011880
  0
VERTEX
  8
0
  6
CONTINUOUS
 10
7.611560
 20
1.164240
  0
VERTEX
  8
0
  6
CONTINUOUS
 10
7.603200
 20
1.898600
  0
VERTEX
  8
0
  6
CONTINUOUS
 10
7.683720
 20
1.891120
  0
VERTEX
  8
0
  6
CONTINUOUS
 10
7.692520
 20
1.156760
  0
VERTEX
  8
0
  6
CONTINUOUS
 10
7.611560
 20
1.164240
  0
SEQEND
  8
0
  0
SOLID
  8
0
 62
    15
 10
7.692520
 20
1.156760
 11
7.683720
 21
1.891120
 12
7.693840
 22
1.156760
 13
7.685480
 23
1.891120
  0
POLYLINE
  8
0
  6
CONTINUOUS
 66
     1
 40
0.011880
 41
0.011880
  0
VERTEX
  8
0
  6
CONTINUOUS
 10
7.692520
 20
1.156760
  0
VERTEX
  8
0
  6
CONTINUOUS
 10
7.683720
 20
1.891120
  0
VERTEX
  8
0
  6
CONTINUOUS
 10
7.685480
 20
1.891120
  0
VERTEX
  8
0
  6
CONTINUOUS
 10
7.693840
 20
1.156760
  0
VERTEX
  8
0
  6
CONTINUOUS
 10
7.692520
 20
1.156760
  0
SEQEND
  8
0
  0
SOLID
  8
0
 62
    15
 10
2.367200
 20
0.931480
 11
2.358840
 21
1.665840
 12
2.367200
 22
2.203520
 13
2.358840
 23
2.937880
  0
POLYLINE
  8
0
  6
CONTINUOUS
 66
     1
 40
0.011880
 41
0.011880
  0
VERTEX
  8
0
  6
CONTINUOUS
 10
2.367200
 20
0.931480
  0
VERTEX
  8
0
  6
CONTINUOUS
 10
2.358840
 20
1.665840
  0
VERTEX
  8
0
  6
CONTINUOUS
 10
2.358840
 20
2.937880
  0
VERTEX
  8
0
  6
CONTINUOUS
 10
2.367200
 20
2.203520
  0
VERTEX
  8
0
  6
CONTINUOUS
 10
2.367200
 20
0.931480
  0
SEQEND
  8
0
  0
SOLID
  8
0
 62
    15
 10
2.367200
 20
2.203520
 11
2.358840
 21
2.937880
 12
3.584680
 22
2.203520
 13
3.575880
 23
2.937880
  0
POLYLINE
  8
0
  6
CONTINUOUS
 66
     1
 40
0.011880
 41
0.011880
  0
VERTEX
  8
0
  6
CONTINUOUS
 10
2.367200
 20
2.203520
  0
VERTEX
  8
0
  6
CONTINUOUS
 10
2.358840
 20
2.937880
  0
VERTEX
  8
0
  6
CONTINUOUS
 10
3.575880
 20
2.937880
  0
VERTEX
  8
0
  6
CONTINUOUS
 10
3.584680
 20
2.203520
  0
VERTEX
  8
0
  6
CONTINUOUS
 10
2.367200
 20
2.203520
  0
SEQEND
  8
0
  0
SOLID
  8
0
 62
    15
 10
3.584680
 20
2.203520
 11
3.575880
 21
2.937880
 12
3.609320
 22
2.124320
 13
3.600520
 23
2.858680
  0
POLYLINE
  8
0
  6
CONTINUOUS
 66
     1
 40
0.011880
 41
0.011880
  0
VERTEX
  8
0
  6
CONTINUOUS
 10
3.584680
 20
2.203520
  0
VERTEX
  8
0
  6
CONTINUOUS
 10
3.575880
 20
2.937880
  0
VERTEX
  8
0
  6
CONTINUOUS
 10
3.600520
 20
2.858680
  0
VERTEX
  8
0
  6
CONTINUOUS
 10
3.609320
 20
2.124320
  0
VERTEX
  8
0
  6
CONTINUOUS
 10
3.584680
 20
2.203520
  0
SEQEND
  8
0
  0
SOLID
  8
0
 62
    15
 10
3.609320
 20
2.124320
 11
3.600520
 21
2.858680
 12
3.633960
 22
2.062720
 13
3.625160
 23
2.797080
  0
POLYLINE
  8
0
  6
CONTINUOUS
 66
     1
 40
0.011880
 41
0.011880
  0
VERTEX
  8
0
  6
CONTINUOUS
 10
3.609320
 20
2.124320
  0
VERTEX
  8
0
  6
CONTINUOUS
 10
3.600520
 20
2.858680
  0
VERTEX
  8
0
  6
CONTINUOUS
 10
3.625160
 20
2.797080
  0
VERTEX
  8
0
  6
CONTINUOUS
 10
3.633960
 20
2.062720
  0
VERTEX
  8
0
  6
CONTINUOUS
 10
3.609320
 20
2.124320
  0
SEQEND
  8
0
  0
SOLID
  8
0
 62
    15
 10
3.633960
 20
2.062720
 11
3.625160
 21
2.797080
 12
3.658160
 22
2.015640
 13
3.649800
 23
2.750000
  0
POLYLINE
  8
0
  6
CONTINUOUS
 66
     1
 40
0.011880
 41
0.011880
  0
VERTEX
  8
0
  6
CONTINUOUS
 10
3.633960
 20
2.062720
  0
VERTEX
  8
0
  6
CONTINUOUS
 10
3.625160
 20
2.797080
  0
VERTEX
  8
0
  6
CONTINUOUS
 10
3.649800
 20
2.750000
  0
VERTEX
  8
0
  6
CONTINUOUS
 10
3.658160
 20
2.015640
  0
VERTEX
  8
0
  6
CONTINUOUS
 10
3.633960
 20
2.062720
  0
SEQEND
  8
0
  0
SOLID
  8
0
 62
    15
 10
3.658160
 20
2.015640
 11
3.649800
 21
2.750000
 12
3.683680
 22
1.980000
 13
3.674880
 23
2.714360
  0
POLYLINE
  8
0
  6
CONTINUOUS
 66
     1
 40
0.011880
 41
0.011880
  0
VERTEX
  8
0
  6
CONTINUOUS
 10
3.658160
 20
2.015640
  0
VERTEX
  8
0
  6
CONTINUOUS
 10
3.649800
 20
2.750000
  0
VERTEX
  8
0
  6
CONTINUOUS
 10
3.674880
 20
2.714360
  0
VERTEX
  8
0
  6
CONTINUOUS
 10
3.683680
 20
1.980000
  0
VERTEX
  8
0
  6
CONTINUOUS
 10
3.658160
 20
2.015640
  0
SEQEND
  8
0
  0
SOLID
  8
0
 62
    15
 10
3.683680
 20
1.980000
 11
3.674880
 21
2.714360
 12
3.736920
 22
1.931160
 13
3.728120
 23
2.665520
  0
POLYLINE
  8
0
  6
CONTINUOUS
 66
     1
 40
0.011880
 41
0.011880
  0
VERTEX
  8
0
  6
CONTINUOUS
 10
3.683680
 20
1.980000
  0
VERTEX
  8
0
  6
CONTINUOUS
 10
3.674880
 20
2.714360
  0
VERTEX
  8
0
  6
CONTINUOUS
 10
3.728120
 20
2.665520
  0
VERTEX
  8
0
  6
CONTINUOUS
 10
3.736920
 20
1.931160
  0
VERTEX
  8
0
  6
CONTINUOUS
 10
3.683680
 20
1.980000
  0
SEQEND
  8
0
  0
SOLID
  8
0
 62
    15
 10
3.736920
 20
1.931160
 11
3.728120
 21
2.665520
 12
3.796320
 22
1.894200
 13
3.787960
 23
2.628560
  0
POLYLINE
  8
0
  6
CONTINUOUS
 66
     1
 40
0.011880
 41
0.011880
  0
VERTEX
  8
0
  6
CONTINUOUS
 10
3.736920
 20
1.931160
  0
VERTEX
  8
0
  6
CONTINUOUS
 10
3.728120
 20
2.665520
  0
VERTEX
  8
0
  6
CONTINUOUS
 10
3.787960
 20
2.628560
  0
VERTEX
  8
0
  6
CONTINUOUS
 10
3.796320
 20
1.894200
  0
VERTEX
  8
0
  6
CONTINUOUS
 10
3.736920
 20
1.931160
  0
SEQEND
  8
0
  0
SOLID
  8
0
 62
    15
 10
3.796320
 20
1.894200
 11
3.787960
 21
2.628560
 12
3.835480
 22
1.976920
 13
3.827120
 23
2.711280
  0
POLYLINE
  8
0
  6
CONTINUOUS
 66
     1
 40
0.011880
 41
0.011880
  0
VERTEX
  8
0
  6
CONTINUOUS
 10
3.796320
 20
1.894200
  0
VERTEX
  8
0
  6
CONTINUOUS
 10
3.787960
 20
2.628560
  0
VERTEX
  8
0
  6
CONTINUOUS
 10
3.827120
 20
2.711280
  0
VERTEX
  8
0
  6
CONTINUOUS
 10
3.835480
 20
1.976920
  0
VERTEX
  8
0
  6
CONTINUOUS
 10
3.796320
 20
1.894200
  0
SEQEND
  8
0
  0
SOLID
  8
0
 62
    15
 10
3.835480
 20
1.976920
 11
3.827120
 21
2.711280
 12
3.885640
 22
2.044240
 13
3.877280
 23
2.778600
  0
POLYLINE
  8
0
  6
CONTINUOUS
 66
     1
 40
0.011880
 41
0.011880
  0
VERTEX
  8
0
  6
CONTINUOUS
 10
3.835480
 20
1.976920
  0
VERTEX
  8
0
  6
CONTINUOUS
 10
3.827120
 20
2.711280
  0
VERTEX
  8
0
  6
CONTINUOUS
 10
3.877280
 20
2.778600
  0
VERTEX
  8
0
  6
CONTINUOUS
 10
3.885640
 20
2.044240
  0
VERTEX
  8
0
  6
CONTINUOUS
 10
3.835480
 20
1.976920
  0
SEQEND
  8
0
  0
SOLID
  8
0
 62
    15
 10
3.885640
 20
2.044240
 11
3.877280
 21
2.778600
 12
3.945480
 22
2.096160
 13
3.936680
 23
2.830520
  0
POLYLINE
  8
0
  6
CONTINUOUS
 66
     1
 40
0.011880
 41
0.011880
  0
VERTEX
  8
0
  6
CONTINUOUS
 10
3.885640
 20
2.044240
  0
VERTEX
  8
0
  6
CONTINUOUS
 10
3.877280
 20
2.778600
  0
VERTEX
  8
0
  6
CONTINUOUS
 10
3.936680
 20
2.830520
  0
VERTEX
  8
0
  6
CONTINUOUS
 10
3.945480
 20
2.096160
  0
VERTEX
  8
0
  6
CONTINUOUS
 10
3.885640
 20
2.044240
  0
SEQEND
  8
0
  0
SOLID
  8
0
 62
    15
 10
3.945480
 20
2.096160
 11
3.936680
 21
2.830520
 12
4.012800
 22
2.134000
 13
4.004000
 23
2.868360
  0
POLYLINE
  8
0
  6
CONTINUOUS
 66
     1
 40
0.011880
 41
0.011880
  0
VERTEX
  8
0
  6
CONTINUOUS
 10
3.945480
 20
2.096160
  0
VERTEX
  8
0
  6
CONTINUOUS
 10
3.936680
 20
2.830520
  0
VERTEX
  8
0
  6
CONTINUOUS
 10
4.004000
 20
2.868360
  0
VERTEX
  8
0
  6
CONTINUOUS
 10
4.012800
 20
2.134000
  0
VERTEX
  8
0
  6
CONTINUOUS
 10
3.945480
 20
2.096160
  0
SEQEND
  8
0
  0
SOLID
  8
0
 62
    15
 10
4.012800
 20
2.134000
 11
4.004000
 21
2.868360
 12
4.085840
 22
2.158640
 13
4.077040
 23
2.893000
  0
POLYLINE
  8
0
  6
CONTINUOUS
 66
     1
 40
0.011880
 41
0.011880
  0
VERTEX
  8
0
  6
CONTINUOUS
 10
4.012800
 20
2.134000
  0
VERTEX
  8
0
  6
CONTINUOUS
 10
4.004000
 20
2.868360
  0
VERTEX
  8
0
  6
CONTINUOUS
 10
4.077040
 20
2.893000
  0
VERTEX
  8
0
  6
CONTINUOUS
 10
4.085840
 20
2.158640
  0
VERTEX
  8
0
  6
CONTINUOUS
 10
4.012800
 20
2.134000
  0
SEQEND
  8
0
  0
SOLID
  8
0
 62
    15
 10
4.085840
 20
2.158640
 11
4.077040
 21
2.893000
 12
4.162400
 22
2.170520
 13
4.154040
 23
2.904880
  0
POLYLINE
  8
0
  6
CONTINUOUS
 66
     1
 40
0.011880
 41
0.011880
  0
VERTEX
  8
0
  6
CONTINUOUS
 10
4.085840
 20
2.158640
  0
VERTEX
  8
0
  6
CONTINUOUS
 10
4.077040
 20
2.893000
  0
VERTEX
  8
0
  6
CONTINUOUS
 10
4.154040
 20
2.904880
  0
VERTEX
  8
0
  6
CONTINUOUS
 10
4.162400
 20
2.170520
  0
VERTEX
  8
0
  6
CONTINUOUS
 10
4.085840
 20
2.158640
  0
SEQEND
  8
0
  0
SOLID
  8
0
 62
    15
 10
4.162400
 20
2.170520
 11
4.154040
 21
2.904880
 12
4.241160
 22
2.170080
 13
4.232800
 23
2.904440
  0
POLYLINE
  8
0
  6
CONTINUOUS
 66
     1
 40
0.011880
 41
0.011880
  0
VERTEX
  8
0
  6
CONTINUOUS
 10
4.162400
 20
2.170520
  0
VERTEX
  8
0
  6
CONTINUOUS
 10
4.154040
 20
2.904880
  0
VERTEX
  8
0
  6
CONTINUOUS
 10
4.232800
 20
2.904440
  0
VERTEX
  8
0
  6
CONTINUOUS
 10
4.241160
 20
2.170080
  0
VERTEX
  8
0
  6
CONTINUOUS
 10
4.162400
 20
2.170520
  0
SEQEND
  8
0
  0
SOLID
  8
0
 62
    15
 10
4.241160
 20
2.170080
 11
4.232800
 21
2.904440
 12
4.320360
 22
2.158640
 13
4.312000
 23
2.893000
  0
POLYLINE
  8
0
  6
CONTINUOUS
 66
     1
 40
0.011880
 41
0.011880
  0
VERTEX
  8
0
  6
CONTINUOUS
 10
4.241160
 20
2.170080
  0
VERTEX
  8
0
  6
CONTINUOUS
 10
4.232800
 20
2.904440
  0
VERTEX
  8
0
  6
CONTINUOUS
 10
4.312000
 20
2.893000
  0
VERTEX
  8
0
  6
CONTINUOUS
 10
4.320360
 20
2.158640
  0
VERTEX
  8
0
  6
CONTINUOUS
 10
4.241160
 20
2.170080
  0
SEQEND
  8
0
  0
SOLID
  8
0
 62
    15
 10
4.320360
 20
2.158640
 11
4.312000
 21
2.893000
 12
4.398240
 22
2.137080
 13
4.389440
 23
2.871440
  0
POLYLINE
  8
0
  6
CONTINUOUS
 66
     1
 40
0.011880
 41
0.011880
  0
VERTEX
  8
0
  6
CONTINUOUS
 10
4.320360
 20
2.158640
  0
VERTEX
  8
0
  6
CONTINUOUS
 10
4.312000
 20
2.893000
  0
VERTEX
  8
0
  6
CONTINUOUS
 10
4.389440
 20
2.871440
  0
VERTEX
  8
0
  6
CONTINUOUS
 10
4.398240
 20
2.137080
  0
VERTEX
  8
0
  6
CONTINUOUS
 10
4.320360
 20
2.158640
  0
SEQEND
  8
0
  0
SOLID
  8
0
 62
    15
 10
4.398240
 20
2.137080
 11
4.389440
 21
2.871440
 12
4.472160
 22
2.105400
 13
4.463360
 23
2.839760
  0
POLYLINE
  8
0
  6
CONTINUOUS
 66
     1
 40
0.011880
 41
0.011880
  0
VERTEX
  8
0
  6
CONTINUOUS
 10
4.398240
 20
2.137080
  0
VERTEX
  8
0
  6
CONTINUOUS
 10
4.389440
 20
2.871440
  0
VERTEX
  8
0
  6
CONTINUOUS
 10
4.463360
 20
2.839760
  0
VERTEX
  8
0
  6
CONTINUOUS
 10
4.472160
 20
2.105400
  0
VERTEX
  8
0
  6
CONTINUOUS
 10
4.398240
 20
2.137080
  0
SEQEND
  8
0
  0
SOLID
  8
0
 62
    15
 10
4.472160
 20
2.105400
 11
4.463360
 21
2.839760
 12
4.540800
 22
2.064920
 13
4.532440
 23
2.799280
  0
POLYLINE
  8
0
  6
CONTINUOUS
 66
     1
 40
0.011880
 41
0.011880
  0
VERTEX
  8
0
  6
CONTINUOUS
 10
4.472160
 20
2.105400
  0
VERTEX
  8
0
  6
CONTINUOUS
 10
4.463360
 20
2.839760
  0
VERTEX
  8
0
  6
CONTINUOUS
 10
4.532440
 20
2.799280
  0
VERTEX
  8
0
  6
CONTINUOUS
 10
4.540800
 20
2.064920
  0
VERTEX
  8
0
  6
CONTINUOUS
 10
4.472160
 20
2.105400
  0
SEQEND
  8
0
  0
SOLID
  8
0
 62
    15
 10
4.540800
 20
2.064920
 11
4.532440
 21
2.799280
 12
4.602400
 22
2.016520
 13
4.594040
 23
2.750880
  0
POLYLINE
  8
0
  6
CONTINUOUS
 66
     1
 40
0.011880
 41
0.011880
  0
VERTEX
  8
0
  6
CONTINUOUS
 10
4.540800
 20
2.064920
  0
VERTEX
  8
0
  6
CONTINUOUS
 10
4.532440
 20
2.799280
  0
VERTEX
  8
0
  6
CONTINUOUS
 10
4.594040
 20
2.750880
  0
VERTEX
  8
0
  6
CONTINUOUS
 10
4.602400
 20
2.016520
  0
VERTEX
  8
0
  6
CONTINUOUS
 10
4.540800
 20
2.064920
  0
SEQEND
  8
0
  0
SOLID
  8
0
 62
    15
 10
4.602400
 20
2.016520
 11
4.594040
 21
2.750880
 12
4.655200
 22
1.960200
 13
4.646400
 23
2.694560
  0
POLYLINE
  8
0
  6
CONTINUOUS
 66
     1
 40
0.011880
 41
0.011880
  0
VERTEX
  8
0
  6
CONTINUOUS
 10
4.602400
 20
2.016520
  0
VERTEX
  8
0
  6
CONTINUOUS
 10
4.594040
 20
2.750880
  0
VERTEX
  8
0
  6
CONTINUOUS
 10
4.646400
 20
2.694560
  0
VERTEX
  8
0
  6
CONTINUOUS
 10
4.655200
 20
1.960200
  0
VERTEX
  8
0
  6
CONTINUOUS
 10
4.602400
 20
2.016520
  0
SEQEND
  8
0
  0
SOLID
  8
0
 62
    15
 10
4.655200
 20
1.960200
 11
4.646400
 21
2.694560
 12
4.696560
 22
1.897720
 13
4.688200
 23
2.632080
  0
POLYLINE
  8
0
  6
CONTINUOUS
 66
     1
 40
0.011880
 41
0.011880
  0
VERTEX
  8
0
  6
CONTINUOUS
 10
4.655200
 20
1.960200
  0
VERTEX
  8
0
  6
CONTINUOUS
 10
4.646400
 20
2.694560
  0
VERTEX
  8
0
  6
CONTINUOUS
 10
4.688200
 20
2.632080
  0
VERTEX
  8
0
  6
CONTINUOUS
 10
4.696560
 20
1.897720
  0
VERTEX
  8
0
  6
CONTINUOUS
 10
4.655200
 20
1.960200
  0
SEQEND
  8
0
  0
SOLID
  8
0
 62
    15
 10
4.696560
 20
1.897720
 11
4.688200
 21
2.632080
 12
4.726040
 22
1.829080
 13
4.717240
 23
2.563440
  0
POLYLINE
  8
0
  6
CONTINUOUS
 66
     1
 40
0.011880
 41
0.011880
  0
VERTEX
  8
0
  6
CONTINUOUS
 10
4.696560
 20
1.897720
  0
VERTEX
  8
0
  6
CONTINUOUS
 10
4.688200
 20
2.632080
  0
VERTEX
  8
0
  6
CONTINUOUS
 10
4.717240
 20
2.563440
  0
VERTEX
  8
0
  6
CONTINUOUS
 10
4.726040
 20
1.829080
  0
VERTEX
  8
0
  6
CONTINUOUS
 10
4.696560
 20
1.897720
  0
SEQEND
  8
0
  0
SOLID
  8
0
 62
    15
 10
4.726040
 20
1.829080
 11
4.717240
 21
2.563440
 12
4.740560
 22
1.755600
 13
4.731760
 23
2.489960
  0
POLYLINE
  8
0
  6
CONTINUOUS
 66
     1
 40
0.011880
 41
0.011880
  0
VERTEX
  8
0
  6
CONTINUOUS
 10
4.726040
 20
1.829080
  0
VERTEX
  8
0
  6
CONTINUOUS
 10
4.717240
 20
2.563440
  0
VERTEX
  8
0
  6
CONTINUOUS
 10
4.731760
 20
2.489960
  0
VERTEX
  8
0
  6
CONTINUOUS
 10
4.740560
 20
1.755600
  0
VERTEX
  8
0
  6
CONTINUOUS
 10
4.726040
 20
1.829080
  0
SEQEND
  8
0
  0
SOLID
  8
0
 62
    15
 10
4.740560
 20
1.755600
 11
4.731760
 21
2.489960
 12
5.012480
 22
1.755600
 13
5.004120
 23
2.489960
  0
POLYLINE
  8
0
  6
CONTINUOUS
 66
     1
 40
0.011880
 41
0.011880
  0
VERTEX
  8
0
  6
CONTINUOUS
 10
4.740560
 20
1.755600
  0
VERTEX
  8
0
  6
CONTINUOUS
 10
4.731760
 20
2.489960
  0
VERTEX
  8
0
  6
CONTINUOUS
 10
5.004120
 20
2.489960
  0
VERTEX
  8
0
  6
CONTINUOUS
 10
5.012480
 20
1.755600
  0
VERTEX
  8
0
  6
CONTINUOUS
 10
4.740560
 20
1.755600
  0
SEQEND
  8
0
  0
SOLID
  8
0
 62
    15
 10
5.012480
 20
1.755600
 11
5.004120
 21
2.489960
 12
5.019080
 22
1.748560
 13
5.010720
 23
2.482920
  0
POLYLINE
  8
0
  6
CONTINUOUS
 66
     1
 40
0.011880
 41
0.011880
  0
VERTEX
  8
0
  6
CONTINUOUS
 10
5.012480
 20
1.755600
  0
VERTEX
  8
0
  6
CONTINUOUS
 10
5.004120
 20
2.489960
  0
VERTEX
  8
0
  6
CONTINUOUS
 10
5.010720
 20
2.482920
  0
VERTEX
  8
0
  6
CONTINUOUS
 10
5.019080
 20
1.748560
  0
VERTEX
  8
0
  6
CONTINUOUS
 10
5.012480
 20
1.755600
  0
SEQEND
  8
0
  0
POLYLINE
  8
0
  6
CONTINUOUS
 66
     1
 40
0.011880
 41
0.011880
  0
VERTEX
  8
0
  6
CONTINUOUS
 10
5.019080
 20
1.748560
  0
VERTEX
  8
0
  6
CONTINUOUS
 10
5.043720
 20
1.679040
  0
VERTEX
  8
0
  6
CONTINUOUS
 10
5.071000
 20
1.614800
  0
VERTEX
  8
0
  6
CONTINUOUS
 10
5.101360
 20
1.556280
  0
VERTEX
  8
0
  6
CONTINUOUS
 10
5.134360
 20
1.503040
  0
VERTEX
  8
0
  6
CONTINUOUS
 10
5.206960
 20
1.411960
  0
VERTEX
  8
0
  6
CONTINUOUS
 10
5.287480
 20
1.340240
  0
VERTEX
  8
0
  6
CONTINUOUS
 10
5.373280
 20
1.285680
  0
VERTEX
  8
0
  6
CONTINUOUS
 10
5.462600
 20
1.248280
  0
VERTEX
  8
0
  6
CONTINUOUS
 10
5.554120
 20
1.225400
  0
VERTEX
  8
0
  6
CONTINUOUS
 10
5.645200
 20
1.216160
  0
VERTEX
  8
0
  6
CONTINUOUS
 10
5.734080
 20
1.219240
  0
VERTEX
  8
0
  6
CONTINUOUS
 10
5.818560
 20
1.233320
  0
VERTEX
  8
0
  6
CONTINUOUS
 10
5.897760
 20
1.256640
  0
VERTEX
  8
0
  6
CONTINUOUS
 10
5.968600
 20
1.287880
  0
VERTEX
  8
0
  6
CONTINUOUS
 10
6.029320
 20
1.325720
  0
VERTEX
  8
0
  6
CONTINUOUS
 10
6.078600
 20
1.368400
  0
VERTEX
  8
0
  6
CONTINUOUS
 10
6.114240
 20
1.415480
  0
VERTEX
  8
0
  6
CONTINUOUS
 10
6.133600
 20
1.464760
  0
VERTEX
  8
0
  6
CONTINUOUS
 10
6.420480
 20
1.464760
  0
VERTEX
  8
0
  6
CONTINUOUS
 10
6.426200
 20
1.518880
  0
VERTEX
  8
0
  6
CONTINUOUS
 10
6.441600
 20
1.568160
  0
VERTEX
  8
0
  6
CONTINUOUS
 10
6.466680
 20
1.612160
  0
VERTEX
  8
0
  6
CONTINUOUS
 10
6.499680
 20
1.650000
  0
VERTEX
  8
0
  6
CONTINUOUS
 10
6.539720
 20
1.680800
  0
VERTEX
  8
0
  6
CONTINUOUS
 10
6.585920
 20
1.704120
  0
VERTEX
  8
0
  6
CONTINUOUS
 10
6.636520
 20
1.718640
  0
VERTEX
  8
0
  6
CONTINUOUS
 10
6.691080
 20
1.723480
  0
VERTEX
  8
0
  6
CONTINUOUS
 10
6.745640
 20
1.718640
  0
VERTEX
  8
0
  6
CONTINUOUS
 10
6.796680
 20
1.704120
  0
VERTEX
  8
0
  6
CONTINUOUS
 10
6.842880
 20
1.680800
  0
VERTEX
  8
0
  6
CONTINUOUS
 10
6.883360
 20
1.650000
  0
VERTEX
  8
0
  6
CONTINUOUS
 10
6.916360
 20
1.612160
  0
VERTEX
  8
0
  6
CONTINUOUS
 10
6.941440
 20
1.568160
  0
VERTEX
  8
0
  6
CONTINUOUS
 10
6.957720
 20
1.518880
  0
VERTEX
  8
0
  6
CONTINUOUS
 10
6.963000
 20
1.464760
  0
VERTEX
  8
0
  6
CONTINUOUS
 10
7.249880
 20
1.464760
  0
VERTEX
  8
0
  6
CONTINUOUS
 10
7.263520
 20
1.411520
  0
VERTEX
  8
0
  6
CONTINUOUS
 10
7.293440
 20
1.357840
  0
VERTEX
  8
0
  6
CONTINUOUS
 10
7.337880
 20
1.305920
  0
VERTEX
  8
0
  6
CONTINUOUS
 10
7.394200
 20
1.258400
  0
VERTEX
  8
0
  6
CONTINUOUS
 10
7.460200
 20
1.217480
  0
VERTEX
  8
0
  6
CONTINUOUS
 10
7.533240
 20
1.185360
  0
VERTEX
  8
0
  6
CONTINUOUS
 10
7.611560
 20
1.164240
  0
VERTEX
  8
0
  6
CONTINUOUS
 10
7.693840
 20
1.156760
  0
VERTEX
  8
0
  6
CONTINUOUS
 10
7.693840
 20
0.927520
  0
VERTEX
  8
0
  6
CONTINUOUS
 10
2.371160
 20
0.927520
  0
VERTEX
  8
0
  6
CONTINUOUS
 10
2.367200
 20
0.931480
  0
VERTEX
  8
0
  6
CONTINUOUS
 10
2.367200
 20
2.203520
  0
VERTEX
  8
0
  6
CONTINUOUS
 10
3.584680
 20
2.203520
  0
VERTEX
  8
0
  6
CONTINUOUS
 10
3.609320
 20
2.124320
  0
VERTEX
  8
0
  6
CONTINUOUS
 10
3.633960
 20
2.062720
  0
VERTEX
  8
0
  6
CONTINUOUS
 10
3.658160
 20
2.015640
  0
VERTEX
  8
0
  6
CONTINUOUS
 10
3.683680
 20
1.980000
  0
VERTEX
  8
0
  6
CONTINUOUS
 10
3.736920
 20
1.931160
  0
VERTEX
  8
0
  6
CONTINUOUS
 10
3.796320
 20
1.894200
  0
VERTEX
  8
0
  6
CONTINUOUS
 10
3.835480
 20
1.976920
  0
VERTEX
  8
0
  6
CONTINUOUS
 10
3.885640
 20
2.044240
  0
VERTEX
  8
0
  6
CONTINUOUS
 10
3.945480
 20
2.096160
  0
VERTEX
  8
0
  6
CONTINUOUS
 10
4.012800
 20
2.134000
  0
VERTEX
  8
0
  6
CONTINUOUS
 10
4.085840
 20
2.158640
  0
VERTEX
  8
0
  6
CONTINUOUS
 10
4.162400
 20
2.170520
  0
VERTEX
  8
0
  6
CONTINUOUS
 10
4.241160
 20
2.170080
  0
VERTEX
  8
0
  6
CONTINUOUS
 10
4.320360
 20
2.158640
  0
VERTEX
  8
0
  6
CONTINUOUS
 10
4.398240
 20
2.137080
  0
VERTEX
  8
0
  6
CONTINUOUS
 10
4.472160
 20
2.105400
  0
VERTEX
  8
0
  6
CONTINUOUS
 10
4.540800
 20
2.064920
  0
VERTEX
  8
0
  6
CONTINUOUS
 10
4.602400
 20
2.016520
  0
VERTEX
  8
0
  6
CONTINUOUS
 10
4.655200
 20
1.960200
  0
VERTEX
  8
0
  6
CONTINUOUS
 10
4.696560
 20
1.897720
  0
VERTEX
  8
0
  6
CONTINUOUS
 10
4.726040
 20
1.829080
  0
VERTEX
  8
0
  6
CONTINUOUS
 10
4.740560
 20
1.755600
  0
VERTEX
  8
0
  6
CONTINUOUS
 10
5.012480
 20
1.755600
  0
VERTEX
  8
0
  6
CONTINUOUS
 10
5.019080
 20
1.748560
  0
SEQEND
  8
0
  0
SOLID
  8
0
 62
    15
 10
2.458720
 20
2.581920
 11
2.458280
 21
3.333880
 12
2.515920
 22
2.471920
 13
2.515920
 23
3.223440
  0
POLYLINE
  8
0
  6
CONTINUOUS
 66
     1
 40
0.000000
 41
0.000000
  0
VERTEX
  8
0
  6
CONTINUOUS
 10
2.458720
 20
2.581920
  0
VERTEX
  8
0
  6
CONTINUOUS
 10
2.458280
 20
3.333880
  0
VERTEX
  8
0
  6
CONTINUOUS
 10
2.515920
 20
3.223440
  0
VERTEX
  8
0
  6
CONTINUOUS
 10
2.515920
 20
2.471920
  0
VERTEX
  8
0
  6
CONTINUOUS
 10
2.458720
 20
2.581920
  0
SEQEND
  8
0
  0
SOLID
  8
0
 62
    15
 10
1.329240
 20
2.550240
 11
1.329240
 21
3.302200
 12
1.398320
 22
2.659800
 13
1.398320
 23
3.411760
  0
POLYLINE
  8
0
  6
CONTINUOUS
 66
     1
 40
0.000000
 41
0.000000
  0
VERTEX
  8
0
  6
CONTINUOUS
 10
1.329240
 20
2.550240
  0
VERTEX
  8
0
  6
CONTINUOUS
 10
1.329240
 20
3.302200
  0
VERTEX
  8
0
  6
CONTINUOUS
 10
1.398320
 20
3.411760
  0
VERTEX
  8
0
  6
CONTINUOUS
 10
1.398320
 20
2.659800
  0
VERTEX
  8
0
  6
CONTINUOUS
 10
1.329240
 20
2.550240
  0
SEQEND
  8
0
  0
SOLID
  8
0
 62
    15
 10
1.398320
 20
2.659800
 11
1.398320
 21
3.411760
 12
1.480600
 22
2.748240
 13
1.480600
 23
3.499760
  0
POLYLINE
  8
0
  6
CONTINUOUS
 66
     1
 40
0.000000
 41
0.000000
  0
VERTEX
  8
0
  6
CONTINUOUS
 10
1.398320
 20
2.659800
  0
VERTEX
  8
0
  6
CONTINUOUS
 10
1.398320
 20
3.411760
  0
VERTEX
  8
0
  6
CONTINUOUS
 10
1.480600
 20
3.499760
  0
VERTEX
  8
0
  6
CONTINUOUS
 10
1.480600
 20
2.748240
  0
VERTEX
  8
0
  6
CONTINUOUS
 10
1.398320
 20
2.659800
  0
SEQEND
  8
0
  0
SOLID
  8
0
 62
    15
 10
1.480600
 20
2.748240
 11
1.480600
 21
3.499760
 12
1.573440
 22
2.816000
 13
1.573000
 23
3.567520
  0
POLYLINE
  8
0
  6
CONTINUOUS
 66
     1
 40
0.000000
 41
0.000000
  0
VERTEX
  8
0
  6
CONTINUOUS
 10
1.480600
 20
2.748240
  0
VERTEX
  8
0
  6
CONTINUOUS
 10
1.480600
 20
3.499760
  0
VERTEX
  8
0
  6
CONTINUOUS
 10
1.573000
 20
3.567520
  0
VERTEX
  8
0
  6
CONTINUOUS
 10
1.573440
 20
2.816000
  0
VERTEX
  8
0
  6
CONTINUOUS
 10
1.480600
 20
2.748240
  0
SEQEND
  8
0
  0
SOLID
  8
0
 62
    15
 10
1.573440
 20
2.816000
 11
1.573000
 21
3.567520
 12
1.673760
 22
2.863520
 13
1.673760
 23
3.615040
  0
POLYLINE
  8
0
  6
CONTINUOUS
 66
     1
 40
0.000000
 41
0.000000
  0
VERTEX
  8
0
  6
CONTINUOUS
 10
1.573440
 20
2.816000
  0
VERTEX
  8
0
  6
CONTINUOUS
 10
1.573000
 20
3.567520
  0
VERTEX
  8
0
  6
CONTINUOUS
 10
1.673760
 20
3.615040
  0
VERTEX
  8
0
  6
CONTINUOUS
 10
1.673760
 20
2.863520
  0
VERTEX
  8
0
  6
CONTINUOUS
 10
1.573440
 20
2.816000
  0
SEQEND
  8
0
  0
SOLID
  8
0
 62
    15
 10
1.673760
 20
2.863520
 11
1.673760
 21
3.615040
 12
1.779800
 22
2.891680
 13
1.779800
 23
3.643200
  0
POLYLINE
  8
0
  6
CONTINUOUS
 66
     1
 40
0.000000
 41
0.000000
  0
VERTEX
  8
0
  6
CONTINUOUS
 10
1.673760
 20
2.863520
  0
VERTEX
  8
0
  6
CONTINUOUS
 10
1.673760
 20
3.615040
  0
VERTEX
  8
0
  6
CONTINUOUS
 10
1.779800
 20
3.643200
  0
VERTEX
  8
0
  6
CONTINUOUS
 10
1.779800
 20
2.891680
  0
VERTEX
  8
0
  6
CONTINUOUS
 10
1.673760
 20
2.863520
  0
SEQEND
  8
0
  0
SOLID
  8
0
 62
    15
 10
1.779800
 20
2.891680
 11
1.779800
 21
3.643200
 12
1.888480
 22
2.900480
 13
1.888480
 23
3.652000
  0
POLYLINE
  8
0
  6
CONTINUOUS
 66
     1
 40
0.000000
 41
0.000000
  0
VERTEX
  8
0
  6
CONTINUOUS
 10
1.779800
 20
2.891680
  0
VERTEX
  8
0
  6
CONTINUOUS
 10
1.779800
 20
3.643200
  0
VERTEX
  8
0
  6
CONTINUOUS
 10
1.888480
 20
3.652000
  0
VERTEX
  8
0
  6
CONTINUOUS
 10
1.888480
 20
2.900480
  0
VERTEX
  8
0
  6
CONTINUOUS
 10
1.779800
 20
2.891680
  0
SEQEND
  8
0
  0
SOLID
  8
0
 62
    15
 10
1.888480
 20
2.900480
 11
1.888480
 21
3.652000
 12
1.997600
 22
2.890800
 13
1.997600
 23
3.642320
  0
POLYLINE
  8
0
  6
CONTINUOUS
 66
     1
 40
0.000000
 41
0.000000
  0
VERTEX
  8
0
  6
CONTINUOUS
 10
1.888480
 20
2.900480
  0
VERTEX
  8
0
  6
CONTINUOUS
 10
1.888480
 20
3.652000
  0
VERTEX
  8
0
  6
CONTINUOUS
 10
1.997600
 20
3.642320
  0
VERTEX
  8
0
  6
CONTINUOUS
 10
1.997600
 20
2.890800
  0
VERTEX
  8
0
  6
CONTINUOUS
 10
1.888480
 20
2.900480
  0
SEQEND
  8
0
  0
SOLID
  8
0
 62
    15
 10
1.997600
 20
2.890800
 11
1.997600
 21
3.642320
 12
2.104520
 22
2.863080
 13
2.104520
 23
3.614600
  0
POLYLINE
  8
0
  6
CONTINUOUS
 66
     1
 40
0.000000
 41
0.000000
  0
VERTEX
  8
0
  6
CONTINUOUS
 10
1.997600
 20
2.890800
  0
VERTEX
  8
0
  6
CONTINUOUS
 10
1.997600
 20
3.642320
  0
VERTEX
  8
0
  6
CONTINUOUS
 10
2.104520
 20
3.614600
  0
VERTEX
  8
0
  6
CONTINUOUS
 10
2.104520
 20
2.863080
  0
VERTEX
  8
0
  6
CONTINUOUS
 10
1.997600
 20
2.890800
  0
SEQEND
  8
0
  0
SOLID
  8
0
 62
    15
 10
2.104520
 20
2.863080
 11
2.104520
 21
3.614600
 12
2.206600
 22
2.817760
 13
2.206600
 23
3.569720
  0
POLYLINE
  8
0
  6
CONTINUOUS
 66
     1
 40
0.000000
 41
0.000000
  0
VERTEX
  8
0
  6
CONTINUOUS
 10
2.104520
 20
2.863080
  0
VERTEX
  8
0
  6
CONTINUOUS
 10
2.104520
 20
3.614600
  0
VERTEX
  8
0
  6
CONTINUOUS
 10
2.206600
 20
3.569720
  0
VERTEX
  8
0
  6
CONTINUOUS
 10
2.206600
 20
2.817760
  0
VERTEX
  8
0
  6
CONTINUOUS
 10
2.104520
 20
2.863080
  0
SEQEND
  8
0
  0
SOLID
  8
0
 62
    15
 10
2.206600
 20
2.817760
 11
2.206600
 21
3.569720
 12
2.301200
 22
2.755720
 13
2.301200
 23
3.507240
  0
POLYLINE
  8
0
  6
CONTINUOUS
 66
     1
 40
0.000000
 41
0.000000
  0
VERTEX
  8
0
  6
CONTINUOUS
 10
2.206600
 20
2.817760
  0
VERTEX
  8
0
  6
CONTINUOUS
 10
2.206600
 20
3.569720
  0
VERTEX
  8
0
  6
CONTINUOUS
 10
2.301200
 20
3.507240
  0
VERTEX
  8
0
  6
CONTINUOUS
 10
2.301200
 20
2.755720
  0
VERTEX
  8
0
  6
CONTINUOUS
 10
2.206600
 20
2.817760
  0
SEQEND
  8
0
  0
SOLID
  8
0
 62
    15
 10
2.301200
 20
2.755720
 11
2.301200
 21
3.507240
 12
2.386120
 22
2.676960
 13
2.386120
 23
3.428480
  0
POLYLINE
  8
0
  6
CONTINUOUS
 66
     1
 40
0.000000
 41
0.000000
  0
VERTEX
  8
0
  6
CONTINUOUS
 10
2.301200
 20
2.755720
  0
VERTEX
  8
0
  6
CONTINUOUS
 10
2.301200
 20
3.507240
  0
VERTEX
  8
0
  6
CONTINUOUS
 10
2.386120
 20
3.428480
  0
VERTEX
  8
0
  6
CONTINUOUS
 10
2.386120
 20
2.676960
  0
VERTEX
  8
0
  6
CONTINUOUS
 10
2.301200
 20
2.755720
  0
SEQEND
  8
0
  0
SOLID
  8
0
 62
    15
 10
2.386120
 20
2.676960
 11
2.386120
 21
3.428480
 12
2.458720
 22
2.581920
 13
2.458280
 23
3.333880
  0
POLYLINE
  8
0
  6
CONTINUOUS
 66
     1
 40
0.000000
 41
0.000000
  0
VERTEX
  8
0
  6
CONTINUOUS
 10
2.386120
 20
2.676960
  0
VERTEX
  8
0
  6
CONTINUOUS
 10
2.386120
 20
3.428480
  0
VERTEX
  8
0
  6
CONTINUOUS
 10
2.458280
 20
3.333880
  0
VERTEX
  8
0
  6
CONTINUOUS
 10
2.458720
 20
2.581920
  0
VERTEX
  8
0
  6
CONTINUOUS
 10
2.386120
 20
2.676960
  0
SEQEND
  8
0
  0
SOLID
  8
0
 62
    15
 10
1.149280
 20
2.319680
 11
1.148840
 21
3.071200
 12
1.167760
 22
2.416480
 13
1.167760
 23
3.168000
  0
POLYLINE
  8
0
  6
CONTINUOUS
 66
     1
 40
0.000000
 41
0.000000
  0
VERTEX
  8
0
  6
CONTINUOUS
 10
1.149280
 20
2.319680
  0
VERTEX
  8
0
  6
CONTINUOUS
 10
1.148840
 20
3.071200
  0
VERTEX
  8
0
  6
CONTINUOUS
 10
1.167760
 20
3.168000
  0
VERTEX
  8
0
  6
CONTINUOUS
 10
1.167760
 20
2.416480
  0
VERTEX
  8
0
  6
CONTINUOUS
 10
1.149280
 20
2.319680
  0
SEQEND
  8
0
  0
SOLID
  8
0
 62
    15
 10
2.515920
 20
2.471920
 11
2.515920
 21
3.223440
 12
2.555960
 22
2.346520
 13
2.555960
 23
3.098480
  0
POLYLINE
  8
0
  6
CONTINUOUS
 66
     1
 40
0.000000
 41
0.000000
  0
VERTEX
  8
0
  6
CONTINUOUS
 10
2.515920
 20
2.471920
  0
VERTEX
  8
0
  6
CONTINUOUS
 10
2.515920
 20
3.223440
  0
VERTEX
  8
0
  6
CONTINUOUS
 10
2.555960
 20
3.098480
  0
VERTEX
  8
0
  6
CONTINUOUS
 10
2.555960
 20
2.346520
  0
VERTEX
  8
0
  6
CONTINUOUS
 10
2.515920
 20
2.471920
  0
SEQEND
  8
0
  0
SOLID
  8
0
 62
    15
 10
2.555960
 20
2.346520
 11
2.555960
 21
3.098480
 12
2.575760
 22
2.207040
 13
2.575760
 23
2.958560
  0
POLYLINE
  8
0
  6
CONTINUOUS
 66
     1
 40
0.000000
 41
0.000000
  0
VERTEX
  8
0
  6
CONTINUOUS
 10
2.555960
 20
2.346520
  0
VERTEX
  8
0
  6
CONTINUOUS
 10
2.555960
 20
3.098480
  0
VERTEX
  8
0
  6
CONTINUOUS
 10
2.575760
 20
2.958560
  0
VERTEX
  8
0
  6
CONTINUOUS
 10
2.575760
 20
2.207040
  0
VERTEX
  8
0
  6
CONTINUOUS
 10
2.555960
 20
2.346520
  0
SEQEND
  8
0
  0
SOLID
  8
0
 62
    15
 10
2.368960
 20
0.924440
 11
2.368960
 21
1.675960
 12
2.370280
 22
0.925760
 13
2.370280
 23
1.677280
  0
POLYLINE
  8
0
  6
CONTINUOUS
 66
     1
 40
0.000000
 41
0.000000
  0
VERTEX
  8
0
  6
CONTINUOUS
 10
2.368960
 20
0.924440
  0
VERTEX
  8
0
  6
CONTINUOUS
 10
2.368960
 20
1.675960
  0
VERTEX
  8
0
  6
CONTINUOUS
 10
2.370280
 20
1.677280
  0
VERTEX
  8
0
  6
CONTINUOUS
 10
2.370280
 20
0.925760
  0
VERTEX
  8
0
  6
CONTINUOUS
 10
2.368960
 20
0.924440
  0
SEQEND
  8
0
  0
SOLID
  8
0
 62
    15
 10
0.942480
 20
0.925760
 11
0.942040
 21
1.677280
 12
0.942480
 22
2.125640
 13
0.942040
 23
2.877600
  0
POLYLINE
  8
0
  6
CONTINUOUS
 66
     1
 40
0.000000
 41
0.000000
  0
VERTEX
  8
0
  6
CONTINUOUS
 10
0.942480
 20
0.925760
  0
VERTEX
  8
0
  6
CONTINUOUS
 10
0.942040
 20
1.677280
  0
VERTEX
  8
0
  6
CONTINUOUS
 10
0.942040
 20
2.877600
  0
VERTEX
  8
0
  6
CONTINUOUS
 10
0.942480
 20
2.125640
  0
VERTEX
  8
0
  6
CONTINUOUS
 10
0.942480
 20
0.925760
  0
SEQEND
  8
0
  0
SOLID
  8
0
 62
    15
 10
0.942480
 20
2.125640
 11
0.942040
 21
2.877600
 12
0.943800
 22
2.124320
 13
0.943800
 23
2.876280
  0
POLYLINE
  8
0
  6
CONTINUOUS
 66
     1
 40
0.000000
 41
0.000000
  0
VERTEX
  8
0
  6
CONTINUOUS
 10
0.942480
 20
2.125640
  0
VERTEX
  8
0
  6
CONTINUOUS
 10
0.942040
 20
2.877600
  0
VERTEX
  8
0
  6
CONTINUOUS
 10
0.943800
 20
2.876280
  0
VERTEX
  8
0
  6
CONTINUOUS
 10
0.943800
 20
2.124320
  0
VERTEX
  8
0
  6
CONTINUOUS
 10
0.942480
 20
2.125640
  0
SEQEND
  8
0
  0
SOLID
  8
0
 62
    15
 10
0.943800
 20
2.124320
 11
0.943800
 21
2.876280
 12
0.991320
 22
2.141920
 13
0.991320
 23
2.893440
  0
POLYLINE
  8
0
  6
CONTINUOUS
 66
     1
 40
0.000000
 41
0.000000
  0
VERTEX
  8
0
  6
CONTINUOUS
 10
0.943800
 20
2.124320
  0
VERTEX
  8
0
  6
CONTINUOUS
 10
0.943800
 20
2.876280
  0
VERTEX
  8
0
  6
CONTINUOUS
 10
0.991320
 20
2.893440
  0
VERTEX
  8
0
  6
CONTINUOUS
 10
0.991320
 20
2.141920
  0
VERTEX
  8
0
  6
CONTINUOUS
 10
0.943800
 20
2.124320
  0
SEQEND
  8
0
  0
SOLID
  8
0
 62
    15
 10
0.991320
 20
2.141920
 11
0.991320
 21
2.893440
 12
1.034000
 22
2.166560
 13
1.034000
 23
2.918080
  0
POLYLINE
  8
0
  6
CONTINUOUS
 66
     1
 40
0.000000
 41
0.000000
  0
VERTEX
  8
0
  6
CONTINUOUS
 10
0.991320
 20
2.141920
  0
VERTEX
  8
0
  6
CONTINUOUS
 10
0.991320
 20
2.893440
  0
VERTEX
  8
0
  6
CONTINUOUS
 10
1.034000
 20
2.918080
  0
VERTEX
  8
0
  6
CONTINUOUS
 10
1.034000
 20
2.166560
  0
VERTEX
  8
0
  6
CONTINUOUS
 10
0.991320
 20
2.141920
  0
SEQEND
  8
0
  0
SOLID
  8
0
 62
    15
 10
1.034000
 20
2.166560
 11
1.034000
 21
2.918080
 12
1.103520
 22
2.233880
 13
1.103520
 23
2.985400
  0
POLYLINE
  8
0
  6
CONTINUOUS
 66
     1
 40
0.000000
 41
0.000000
  0
VERTEX
  8
0
  6
CONTINUOUS
 10
1.034000
 20
2.166560
  0
VERTEX
  8
0
  6
CONTINUOUS
 10
1.034000
 20
2.918080
  0
VERTEX
  8
0
  6
CONTINUOUS
 10
1.103520
 20
2.985400
  0
VERTEX
  8
0
  6
CONTINUOUS
 10
1.103520
 20
2.233880
  0
VERTEX
  8
0
  6
CONTINUOUS
 10
1.034000
 20
2.166560
  0
SEQEND
  8
0
  0
SOLID
  8
0
 62
    15
 10
1.103520
 20
2.233880
 11
1.103520
 21
2.985400
 12
1.149280
 22
2.319680
 13
1.148840
 23
3.071200
  0
POLYLINE
  8
0
  6
CONTINUOUS
 66
     1
 40
0.000000
 41
0.000000
  0
VERTEX
  8
0
  6
CONTINUOUS
 10
1.103520
 20
2.233880
  0
VERTEX
  8
0
  6
CONTINUOUS
 10
1.103520
 20
2.985400
  0
VERTEX
  8
0
  6
CONTINUOUS
 10
1.148840
 20
3.071200
  0
VERTEX
  8
0
  6
CONTINUOUS
 10
1.149280
 20
2.319680
  0
VERTEX
  8
0
  6
CONTINUOUS
 10
1.103520
 20
2.233880
  0
SEQEND
  8
0
  0
SOLID
  8
0
 62
    15
 10
1.167760
 20
2.416480
 11
1.167760
 21
3.168000
 12
1.167760
 22
2.417800
 13
1.167760
 23
3.169320
  0
POLYLINE
  8
0
  6
CONTINUOUS
 66
     1
 40
0.000000
 41
0.000000
  0
VERTEX
  8
0
  6
CONTINUOUS
 10
1.167760
 20
2.416480
  0
VERTEX
  8
0
  6
CONTINUOUS
 10
1.167760
 20
3.168000
  0
VERTEX
  8
0
  6
CONTINUOUS
 10
1.167760
 20
3.169320
  0
VERTEX
  8
0
  6
CONTINUOUS
 10
1.167760
 20
2.417800
  0
VERTEX
  8
0
  6
CONTINUOUS
 10
1.167760
 20
2.416480
  0
SEQEND
  8
0
  0
SOLID
  8
0
 62
    15
 10
1.167760
 20
2.417800
 11
1.167760
 21
3.169320
 12
1.275560
 22
2.416480
 13
1.275560
 23
3.168000
  0
POLYLINE
  8
0
  6
CONTINUOUS
 66
     1
 40
0.000000
 41
0.000000
  0
VERTEX
  8
0
  6
CONTINUOUS
 10
1.167760
 20
2.417800
  0
VERTEX
  8
0
  6
CONTINUOUS
 10
1.167760
 20
3.169320
  0
VERTEX
  8
0
  6
CONTINUOUS
 10
1.275560
 20
3.168000
  0
VERTEX
  8
0
  6
CONTINUOUS
 10
1.275560
 20
2.416480
  0
VERTEX
  8
0
  6
CONTINUOUS
 10
1.167760
 20
2.417800
  0
SEQEND
  8
0
  0
SOLID
  8
0
 62
    15
 10
1.275560
 20
2.416480
 11
1.275560
 21
3.168000
 12
1.275560
 22
2.419120
 13
1.275560
 23
3.171080
  0
POLYLINE
  8
0
  6
CONTINUOUS
 66
     1
 40
0.000000
 41
0.000000
  0
VERTEX
  8
0
  6
CONTINUOUS
 10
1.275560
 20
2.416480
  0
VERTEX
  8
0
  6
CONTINUOUS
 10
1.275560
 20
3.168000
  0
VERTEX
  8
0
  6
CONTINUOUS
 10
1.275560
 20
3.171080
  0
VERTEX
  8
0
  6
CONTINUOUS
 10
1.275560
 20
2.419120
  0
VERTEX
  8
0
  6
CONTINUOUS
 10
1.275560
 20
2.416480
  0
SEQEND
  8
0
  0
SOLID
  8
0
 62
    15
 10
1.275560
 20
2.419120
 11
1.275560
 21
3.171080
 12
1.329240
 22
2.550240
 13
1.329240
 23
3.302200
  0
POLYLINE
  8
0
  6
CONTINUOUS
 66
     1
 40
0.000000
 41
0.000000
  0
VERTEX
  8
0
  6
CONTINUOUS
 10
1.275560
 20
2.419120
  0
VERTEX
  8
0
  6
CONTINUOUS
 10
1.275560
 20
3.171080
  0
VERTEX
  8
0
  6
CONTINUOUS
 10
1.329240
 20
3.302200
  0
VERTEX
  8
0
  6
CONTINUOUS
 10
1.329240
 20
2.550240
  0
VERTEX
  8
0
  6
CONTINUOUS
 10
1.275560
 20
2.419120
  0
SEQEND
  8
0
  0
POLYLINE
  8
0
  6
CONTINUOUS
 66
     1
 40
0.000000
 41
0.000000
  0
VERTEX
  8
0
  6
CONTINUOUS
 10
1.275560
 20
2.419120
  0
VERTEX
  8
0
  6
CONTINUOUS
 10
1.329240
 20
2.550240
  0
VERTEX
  8
0
  6
CONTINUOUS
 10
1.398320
 20
2.659800
  0
VERTEX
  8
0
  6
CONTINUOUS
 10
1.480600
 20
2.748240
  0
VERTEX
  8
0
  6
CONTINUOUS
 10
1.573440
 20
2.816000
  0
VERTEX
  8
0
  6
CONTINUOUS
 10
1.673760
 20
2.863520
  0
VERTEX
  8
0
  6
CONTINUOUS
 10
1.779800
 20
2.891680
  0
VERTEX
  8
0
  6
CONTINUOUS
 10
1.888480
 20
2.900480
  0
VERTEX
  8
0
  6
CONTINUOUS
 10
1.997600
 20
2.890800
  0
VERTEX
  8
0
  6
CONTINUOUS
 10
2.104520
 20
2.863080
  0
VERTEX
  8
0
  6
CONTINUOUS
 10
2.206600
 20
2.817760
  0
VERTEX
  8
0
  6
CONTINUOUS
 10
2.301200
 20
2.755720
  0
VERTEX
  8
0
  6
CONTINUOUS
 10
2.386120
 20
2.676960
  0
VERTEX
  8
0
  6
CONTINUOUS
 10
2.458720
 20
2.581920
  0
VERTEX
  8
0
  6
CONTINUOUS
 10
2.515920
 20
2.471920
  0
VERTEX
  8
0
  6
CONTINUOUS
 10
2.555960
 20
2.346520
  0
VERTEX
  8
0
  6
CONTINUOUS
 10
2.575760
 20
2.207040
  0
VERTEX
  8
0
  6
CONTINUOUS
 10
2.574440
 20
2.207040
  0
VERTEX
  8
0
  6
CONTINUOUS
 10
2.368960
 20
2.205720
  0
VERTEX
  8
0
  6
CONTINUOUS
 10
2.368960
 20
0.924440
  0
VERTEX
  8
0
  6
CONTINUOUS
 10
2.370280
 20
0.925760
  0
VERTEX
  8
0
  6
CONTINUOUS
 10
0.942480
 20
0.925760
  0
VERTEX
  8
0
  6
CONTINUOUS
 10
0.942480
 20
2.125640
  0
VERTEX
  8
0
  6
CONTINUOUS
 10
0.943800
 20
2.124320
  0
VERTEX
  8
0
  6
CONTINUOUS
 10
0.991320
 20
2.141920
  0
VERTEX
  8
0
  6
CONTINUOUS
 10
1.034000
 20
2.166560
  0
VERTEX
  8
0
  6
CONTINUOUS
 10
1.103520
 20
2.233880
  0
VERTEX
  8
0
  6
CONTINUOUS
 10
1.149280
 20
2.319680
  0
VERTEX
  8
0
  6
CONTINUOUS
 10
1.167760
 20
2.416480
  0
VERTEX
  8
0
  6
CONTINUOUS
 10
1.167760
 20
2.417800
  0
VERTEX
  8
0
  6
CONTINUOUS
 10
1.275560
 20
2.416480
  0
VERTEX
  8
0
  6
CONTINUOUS
 10
1.275560
 20
2.419120
  0
SEQEND
  8
0
  0
TEXT
  8
0
 10
1.066120
 20
1.064360
 40
0.138089
  1
285
 41
1.000000
  7
SN0
 71
     0
 72
     5
 11
1.342830
 21
1.064360
  0
TEXT
  8
0
 10
2.520760
 20
1.064800
 40
0.138089
  1
284
 41
1.000000
  7
SN0
 71
     0
 72
     5
 11
2.797470
 21
1.064800
  0
TEXT
  8
0
 10
7.662600
 20
6.466680
 40
0.138089
  1
case
 41
1.000000
  7
SN0
 71
     0
 72
     5
 11
8.013364
 21
6.466680
  0
TEXT
  8
0
 10
7.699560
 20
6.275280
 40
0.138089
  1
284
 41
1.000000
  7
SN0
 71
     0
 72
     5
 11
7.976270
 21
6.275280
  0
TEXT
  8
0
 10
7.699560
 20
6.083440
 40
0.138089
  1
285
 41
1.000000
  7
SN0
 71
     0
 72
     5
 11
7.976270
 21
6.083440
  0
ENDSEC
  0
EOF
