  0
SECTION
  2
HEADER
  9
$ACADVER
  1
AC1006
  9
$EXTMIN
 10
3.044800
 20
4.068680
  9
$EXTMAX
 10
5.455120
 20
6.930880
  9
$LTSCALE
 40
0.044000
  9
$PDMODE
 70
    35
  9
$PDSIZE
 40
0.035200
  0
ENDSEC
  0
SECTION
  2
TABLES
  0
TABLE
  2
LTYPE
 70
     9
  0
LTYPE
  2
CONTINUOUS
 70
    64
  3
Solid line
 72
    65
 73
     0
 40
0.000000
  0
LTYPE
  2
DASHED
 70
    64
  3
__ __ __ __ __ __ __ __ __ __ __ __ __ __ __
 72
    65
 73
     2
 40
0.000330
 49
0.000220
 49
-0.000110
  0
LTYPE
  2
HIDDEN
 70
    64
  3
 _ _ _ _ _ _ _ _ _ _ _ _ _ _ _ _ _ _ _ _ _ _
 72
    65
 73
     2
 40
0.000165
 49
0.000110
 49
-0.000055
  0
LTYPE
  2
CENTER
 70
    64
  3
____ _ ____ _ ____ _ ____ _ ____ _ ____ _ ____
 72
    65
 73
     4
 40
0.000880
 49
0.000550
 49
-0.000110
 49
0.000110
 49
-0.000110
  0
LTYPE
  2
PHANTOM
 70
    64
  3
_____ _ _ _____ _ _ _____ _ _ _____ _ _ ____
 72
    65
 73
     6
 40
0.001100
 49
0.000550
 49
-0.000110
 49
0.000110
 49
-0.000110
 49
0.000110
 49
-0.000110
  0
LTYPE
  2
DOT
 70
    64
  3
...............................................
 72
    65
 73
     2
 40
0.000110
 49
0.000000
 49
-0.000110
  0
LTYPE
  2
DASHDOT
 70
    64
  3
__ . __ . __ . __ . __ . __ . __ . __ . __ . __
 72
    65
 73
     4
 40
0.000440
 49
0.000220
 49
-0.000110
 49
0.000000
 49
-0.000110
  0
LTYPE
  2
BORDER
 70
    64
  3
__ __ . __ __ . __ __ . __ __ . __ __ . __ __
 72
    65
 73
     6
 40
0.000770
 49
0.000220
 49
-0.000110
 49
0.000220
 49
-0.000110
 49
0.000000
 49
-0.000110
  0
LTYPE
  2
DIVIDE
 70
    64
  3
__ . . __ . . __ . . __ . . __ . . __ . . __
 72
    65
 73
     6
 40
0.000550
 49
0.000220
 49
-0.000110
 49
0.000000
 49
-0.000110
 49
0.000000
 49
-0.000110
  0
LTYPE
  2
DOTDOT
 70
    64
  3
 . .  . .  . .  . .  . .  . . 
 72
    65
 73
     5
 40
0.000242
 49
-0.000110
 49
0.000000
 49
-0.000110
 49
0.000000
 49
-0.000110
  0
ENDTAB
  0
TABLE
  2
STYLE
 70
     2
  0
STYLE
 70
     0
  2
SN0
 40
0.000000
 41
0.000440
 50
0.000000
 71
     0
 42
0.000000
  3
ROMAND
  0
STYLE
 70
    68
  2
SV0
 40
0.000000
 41
0.000440
 50
0.000000
 71
     0
 42
0.000000
  3
ROMAND
  0
ENDTAB
  0
TABLE
  2
LAYER
 70
     3
  0
LAYER
  2
FOREGROUND
 70
    64
 62
     7
  6
CONTINUOUS
  0
LAYER
  2
BACKGROUND
 70
    65
 62
    -7
  6
CONTINUOUS
  0
LAYER
  2
0
 70
    64
 62
     7
  6
CONTINUOUS
  0
ENDTAB
  0
ENDSEC
  0
SECTION
  2
ENTITIES
  0
POLYLINE
  8
FOREGROUND
  6
CONTINUOUS
 66
     1
 40
0.000000
 41
0.000000
  0
VERTEX
  8
FOREGROUND
  6
CONTINUOUS
 10
0.000000
 20
10.999560
  0
VERTEX
  8
FOREGROUND
  6
CONTINUOUS
 10
8.499920
 20
10.999560
  0
VERTEX
  8
FOREGROUND
  6
CONTINUOUS
 10
8.499920
 20
-0.000440
  0
VERTEX
  8
FOREGROUND
  6
CONTINUOUS
 10
0.000000
 20
-0.000440
  0
VERTEX
  8
FOREGROUND
  6
CONTINUOUS
 10
0.000000
 20
10.999560
  0
SEQEND
  8
0
  0
POLYLINE
  8
FOREGROUND
  6
CONTINUOUS
 66
     1
 40
0.000000
 41
0.000000
  0
VERTEX
  8
FOREGROUND
  6
CONTINUOUS
 10
0.000000
 20
10.999560
  0
VERTEX
  8
FOREGROUND
  6
CONTINUOUS
 10
8.499920
 20
10.999560
  0
VERTEX
  8
FOREGROUND
  6
CONTINUOUS
 10
8.499920
 20
-0.000440
  0
VERTEX
  8
FOREGROUND
  6
CONTINUOUS
 10
0.000000
 20
-0.000440
  0
VERTEX
  8
FOREGROUND
  6
CONTINUOUS
 10
0.000000
 20
10.999560
  0
SEQEND
  8
0
  0
TEXT
  8
0
 10
3.954720
 20
4.304520
 40
0.138142
  1
BA  283
 41
1.000000
  7
SN0
 71
     0
 72
     5
 11
4.544476
 21
4.304520
  0
TEXT
  8
0
 10
4.031720
 20
4.112680
 40
0.138142
  1
1-3/4"
 41
1.000000
  7
SN0
 71
     0
 72
     5
 11
4.468062
 21
4.112680
  0
SOLID
  8
0
 62
    15
 10
4.341040
 20
5.326640
 11
4.987840
 21
5.708120
 12
4.414080
 22
5.283080
 13
5.060880
 23
5.664120
  0
POLYLINE
  8
0
  6
CONTINUOUS
 66
     1
 40
0.000000
 41
0.000000
  0
VERTEX
  8
0
  6
CONTINUOUS
 10
4.341040
 20
5.326640
  0
VERTEX
  8
0
  6
CONTINUOUS
 10
4.987840
 20
5.708120
  0
VERTEX
  8
0
  6
CONTINUOUS
 10
5.060880
 20
5.664120
  0
VERTEX
  8
0
  6
CONTINUOUS
 10
4.414080
 20
5.283080
  0
VERTEX
  8
0
  6
CONTINUOUS
 10
4.341040
 20
5.326640
  0
SEQEND
  8
0
  0
SOLID
  8
0
 62
    15
 10
3.580720
 20
5.363600
 11
4.227520
 21
5.744640
 12
3.661240
 22
5.393080
 13
4.308040
 23
5.774560
  0
POLYLINE
  8
0
  6
CONTINUOUS
 66
     1
 40
0.000000
 41
0.000000
  0
VERTEX
  8
0
  6
CONTINUOUS
 10
3.580720
 20
5.363600
  0
VERTEX
  8
0
  6
CONTINUOUS
 10
4.227520
 20
5.744640
  0
VERTEX
  8
0
  6
CONTINUOUS
 10
4.308040
 20
5.774560
  0
VERTEX
  8
0
  6
CONTINUOUS
 10
3.661240
 20
5.393080
  0
VERTEX
  8
0
  6
CONTINUOUS
 10
3.580720
 20
5.363600
  0
SEQEND
  8
0
  0
SOLID
  8
0
 62
    15
 10
3.661240
 20
5.393080
 11
4.308040
 21
5.774560
 12
3.745280
 22
5.415080
 13
4.392080
 23
5.796120
  0
POLYLINE
  8
0
  6
CONTINUOUS
 66
     1
 40
0.000000
 41
0.000000
  0
VERTEX
  8
0
  6
CONTINUOUS
 10
3.661240
 20
5.393080
  0
VERTEX
  8
0
  6
CONTINUOUS
 10
4.308040
 20
5.774560
  0
VERTEX
  8
0
  6
CONTINUOUS
 10
4.392080
 20
5.796120
  0
VERTEX
  8
0
  6
CONTINUOUS
 10
3.745280
 20
5.415080
  0
VERTEX
  8
0
  6
CONTINUOUS
 10
3.661240
 20
5.393080
  0
SEQEND
  8
0
  0
SOLID
  8
0
 62
    15
 10
3.745280
 20
5.415080
 11
4.392080
 21
5.796120
 12
3.831960
 22
5.428280
 13
4.478760
 23
5.809320
  0
POLYLINE
  8
0
  6
CONTINUOUS
 66
     1
 40
0.000000
 41
0.000000
  0
VERTEX
  8
0
  6
CONTINUOUS
 10
3.745280
 20
5.415080
  0
VERTEX
  8
0
  6
CONTINUOUS
 10
4.392080
 20
5.796120
  0
VERTEX
  8
0
  6
CONTINUOUS
 10
4.478760
 20
5.809320
  0
VERTEX
  8
0
  6
CONTINUOUS
 10
3.831960
 20
5.428280
  0
VERTEX
  8
0
  6
CONTINUOUS
 10
3.745280
 20
5.415080
  0
SEQEND
  8
0
  0
SOLID
  8
0
 62
    15
 10
3.831960
 20
5.428280
 11
4.478760
 21
5.809320
 12
3.921280
 22
5.432680
 13
4.568080
 23
5.813720
  0
POLYLINE
  8
0
  6
CONTINUOUS
 66
     1
 40
0.000000
 41
0.000000
  0
VERTEX
  8
0
  6
CONTINUOUS
 10
3.831960
 20
5.428280
  0
VERTEX
  8
0
  6
CONTINUOUS
 10
4.478760
 20
5.809320
  0
VERTEX
  8
0
  6
CONTINUOUS
 10
4.568080
 20
5.813720
  0
VERTEX
  8
0
  6
CONTINUOUS
 10
3.921280
 20
5.432680
  0
VERTEX
  8
0
  6
CONTINUOUS
 10
3.831960
 20
5.428280
  0
SEQEND
  8
0
  0
SOLID
  8
0
 62
    15
 10
3.921280
 20
5.432680
 11
4.568080
 21
5.813720
 12
4.010600
 22
5.428280
 13
4.657840
 23
5.809320
  0
POLYLINE
  8
0
  6
CONTINUOUS
 66
     1
 40
0.000000
 41
0.000000
  0
VERTEX
  8
0
  6
CONTINUOUS
 10
3.921280
 20
5.432680
  0
VERTEX
  8
0
  6
CONTINUOUS
 10
4.568080
 20
5.813720
  0
VERTEX
  8
0
  6
CONTINUOUS
 10
4.657840
 20
5.809320
  0
VERTEX
  8
0
  6
CONTINUOUS
 10
4.010600
 20
5.428280
  0
VERTEX
  8
0
  6
CONTINUOUS
 10
3.921280
 20
5.432680
  0
SEQEND
  8
0
  0
SOLID
  8
0
 62
    15
 10
4.010600
 20
5.428280
 11
4.657840
 21
5.809320
 12
4.098160
 22
5.415080
 13
4.744960
 23
5.796120
  0
POLYLINE
  8
0
  6
CONTINUOUS
 66
     1
 40
0.000000
 41
0.000000
  0
VERTEX
  8
0
  6
CONTINUOUS
 10
4.010600
 20
5.428280
  0
VERTEX
  8
0
  6
CONTINUOUS
 10
4.657840
 20
5.809320
  0
VERTEX
  8
0
  6
CONTINUOUS
 10
4.744960
 20
5.796120
  0
VERTEX
  8
0
  6
CONTINUOUS
 10
4.098160
 20
5.415080
  0
VERTEX
  8
0
  6
CONTINUOUS
 10
4.010600
 20
5.428280
  0
SEQEND
  8
0
  0
SOLID
  8
0
 62
    15
 10
4.098160
 20
5.415080
 11
4.744960
 21
5.796120
 12
4.182200
 22
5.393080
 13
4.829000
 23
5.774560
  0
POLYLINE
  8
0
  6
CONTINUOUS
 66
     1
 40
0.000000
 41
0.000000
  0
VERTEX
  8
0
  6
CONTINUOUS
 10
4.098160
 20
5.415080
  0
VERTEX
  8
0
  6
CONTINUOUS
 10
4.744960
 20
5.796120
  0
VERTEX
  8
0
  6
CONTINUOUS
 10
4.829000
 20
5.774560
  0
VERTEX
  8
0
  6
CONTINUOUS
 10
4.182200
 20
5.393080
  0
VERTEX
  8
0
  6
CONTINUOUS
 10
4.098160
 20
5.415080
  0
SEQEND
  8
0
  0
SOLID
  8
0
 62
    15
 10
4.182200
 20
5.393080
 11
4.829000
 21
5.774560
 12
4.263600
 22
5.363600
 13
4.910400
 23
5.744640
  0
POLYLINE
  8
0
  6
CONTINUOUS
 66
     1
 40
0.000000
 41
0.000000
  0
VERTEX
  8
0
  6
CONTINUOUS
 10
4.182200
 20
5.393080
  0
VERTEX
  8
0
  6
CONTINUOUS
 10
4.829000
 20
5.774560
  0
VERTEX
  8
0
  6
CONTINUOUS
 10
4.910400
 20
5.744640
  0
VERTEX
  8
0
  6
CONTINUOUS
 10
4.263600
 20
5.363600
  0
VERTEX
  8
0
  6
CONTINUOUS
 10
4.182200
 20
5.393080
  0
SEQEND
  8
0
  0
SOLID
  8
0
 62
    15
 10
4.263600
 20
5.363600
 11
4.910400
 21
5.744640
 12
4.341040
 22
5.326640
 13
4.987840
 23
5.708120
  0
POLYLINE
  8
0
  6
CONTINUOUS
 66
     1
 40
0.000000
 41
0.000000
  0
VERTEX
  8
0
  6
CONTINUOUS
 10
4.263600
 20
5.363600
  0
VERTEX
  8
0
  6
CONTINUOUS
 10
4.910400
 20
5.744640
  0
VERTEX
  8
0
  6
CONTINUOUS
 10
4.987840
 20
5.708120
  0
VERTEX
  8
0
  6
CONTINUOUS
 10
4.341040
 20
5.326640
  0
VERTEX
  8
0
  6
CONTINUOUS
 10
4.263600
 20
5.363600
  0
SEQEND
  8
0
  0
SOLID
  8
0
 62
    15
 10
3.504160
 20
5.326640
 11
4.150960
 21
5.708120
 12
3.580720
 22
5.363600
 13
4.227520
 23
5.744640
  0
POLYLINE
  8
0
  6
CONTINUOUS
 66
     1
 40
0.000000
 41
0.000000
  0
VERTEX
  8
0
  6
CONTINUOUS
 10
3.504160
 20
5.326640
  0
VERTEX
  8
0
  6
CONTINUOUS
 10
4.150960
 20
5.708120
  0
VERTEX
  8
0
  6
CONTINUOUS
 10
4.227520
 20
5.744640
  0
VERTEX
  8
0
  6
CONTINUOUS
 10
3.580720
 20
5.363600
  0
VERTEX
  8
0
  6
CONTINUOUS
 10
3.504160
 20
5.326640
  0
SEQEND
  8
0
  0
SOLID
  8
0
 62
    15
 10
4.414080
 20
5.283080
 11
5.060880
 21
5.664120
 12
4.482280
 22
5.232480
 13
5.129080
 23
5.613520
  0
POLYLINE
  8
0
  6
CONTINUOUS
 66
     1
 40
0.000000
 41
0.000000
  0
VERTEX
  8
0
  6
CONTINUOUS
 10
4.414080
 20
5.283080
  0
VERTEX
  8
0
  6
CONTINUOUS
 10
5.060880
 20
5.664120
  0
VERTEX
  8
0
  6
CONTINUOUS
 10
5.129080
 20
5.613520
  0
VERTEX
  8
0
  6
CONTINUOUS
 10
4.482280
 20
5.232480
  0
VERTEX
  8
0
  6
CONTINUOUS
 10
4.414080
 20
5.283080
  0
SEQEND
  8
0
  0
SOLID
  8
0
 62
    15
 10
4.482280
 20
5.232480
 11
5.129080
 21
5.613520
 12
4.545640
 22
5.175720
 13
5.192440
 23
5.556760
  0
POLYLINE
  8
0
  6
CONTINUOUS
 66
     1
 40
0.000000
 41
0.000000
  0
VERTEX
  8
0
  6
CONTINUOUS
 10
4.482280
 20
5.232480
  0
VERTEX
  8
0
  6
CONTINUOUS
 10
5.129080
 20
5.613520
  0
VERTEX
  8
0
  6
CONTINUOUS
 10
5.192440
 20
5.556760
  0
VERTEX
  8
0
  6
CONTINUOUS
 10
4.545640
 20
5.175720
  0
VERTEX
  8
0
  6
CONTINUOUS
 10
4.482280
 20
5.232480
  0
SEQEND
  8
0
  0
SOLID
  8
0
 62
    15
 10
4.545640
 20
5.175720
 11
5.192440
 21
5.556760
 12
4.603280
 22
5.113680
 13
5.250080
 23
5.494720
  0
POLYLINE
  8
0
  6
CONTINUOUS
 66
     1
 40
0.000000
 41
0.000000
  0
VERTEX
  8
0
  6
CONTINUOUS
 10
4.545640
 20
5.175720
  0
VERTEX
  8
0
  6
CONTINUOUS
 10
5.192440
 20
5.556760
  0
VERTEX
  8
0
  6
CONTINUOUS
 10
5.250080
 20
5.494720
  0
VERTEX
  8
0
  6
CONTINUOUS
 10
4.603280
 20
5.113680
  0
VERTEX
  8
0
  6
CONTINUOUS
 10
4.545640
 20
5.175720
  0
SEQEND
  8
0
  0
SOLID
  8
0
 62
    15
 10
4.603280
 20
5.113680
 11
5.250080
 21
5.494720
 12
4.654760
 22
5.045920
 13
5.301560
 23
5.426960
  0
POLYLINE
  8
0
  6
CONTINUOUS
 66
     1
 40
0.000000
 41
0.000000
  0
VERTEX
  8
0
  6
CONTINUOUS
 10
4.603280
 20
5.113680
  0
VERTEX
  8
0
  6
CONTINUOUS
 10
5.250080
 20
5.494720
  0
VERTEX
  8
0
  6
CONTINUOUS
 10
5.301560
 20
5.426960
  0
VERTEX
  8
0
  6
CONTINUOUS
 10
4.654760
 20
5.045920
  0
VERTEX
  8
0
  6
CONTINUOUS
 10
4.603280
 20
5.113680
  0
SEQEND
  8
0
  0
SOLID
  8
0
 62
    15
 10
4.654760
 20
5.045920
 11
5.301560
 21
5.426960
 12
4.699640
 22
4.973760
 13
5.346440
 23
5.354800
  0
POLYLINE
  8
0
  6
CONTINUOUS
 66
     1
 40
0.000000
 41
0.000000
  0
VERTEX
  8
0
  6
CONTINUOUS
 10
4.654760
 20
5.045920
  0
VERTEX
  8
0
  6
CONTINUOUS
 10
5.301560
 20
5.426960
  0
VERTEX
  8
0
  6
CONTINUOUS
 10
5.346440
 20
5.354800
  0
VERTEX
  8
0
  6
CONTINUOUS
 10
4.699640
 20
4.973760
  0
VERTEX
  8
0
  6
CONTINUOUS
 10
4.654760
 20
5.045920
  0
SEQEND
  8
0
  0
SOLID
  8
0
 62
    15
 10
4.699640
 20
4.973760
 11
5.346440
 21
5.354800
 12
4.737480
 22
4.897200
 13
5.384280
 23
5.278240
  0
POLYLINE
  8
0
  6
CONTINUOUS
 66
     1
 40
0.000000
 41
0.000000
  0
VERTEX
  8
0
  6
CONTINUOUS
 10
4.699640
 20
4.973760
  0
VERTEX
  8
0
  6
CONTINUOUS
 10
5.346440
 20
5.354800
  0
VERTEX
  8
0
  6
CONTINUOUS
 10
5.384280
 20
5.278240
  0
VERTEX
  8
0
  6
CONTINUOUS
 10
4.737480
 20
4.897200
  0
VERTEX
  8
0
  6
CONTINUOUS
 10
4.699640
 20
4.973760
  0
SEQEND
  8
0
  0
SOLID
  8
0
 62
    15
 10
4.737480
 20
4.897200
 11
5.384280
 21
5.278240
 12
4.767400
 22
4.816680
 13
5.414200
 23
5.198160
  0
POLYLINE
  8
0
  6
CONTINUOUS
 66
     1
 40
0.000000
 41
0.000000
  0
VERTEX
  8
0
  6
CONTINUOUS
 10
4.737480
 20
4.897200
  0
VERTEX
  8
0
  6
CONTINUOUS
 10
5.384280
 20
5.278240
  0
VERTEX
  8
0
  6
CONTINUOUS
 10
5.414200
 20
5.198160
  0
VERTEX
  8
0
  6
CONTINUOUS
 10
4.767400
 20
4.816680
  0
VERTEX
  8
0
  6
CONTINUOUS
 10
4.737480
 20
4.897200
  0
SEQEND
  8
0
  0
SOLID
  8
0
 62
    15
 10
4.767400
 20
4.816680
 11
5.414200
 21
5.198160
 12
4.789840
 22
4.733080
 13
5.436640
 23
5.114120
  0
POLYLINE
  8
0
  6
CONTINUOUS
 66
     1
 40
0.000000
 41
0.000000
  0
VERTEX
  8
0
  6
CONTINUOUS
 10
4.767400
 20
4.816680
  0
VERTEX
  8
0
  6
CONTINUOUS
 10
5.414200
 20
5.198160
  0
VERTEX
  8
0
  6
CONTINUOUS
 10
5.436640
 20
5.114120
  0
VERTEX
  8
0
  6
CONTINUOUS
 10
4.789840
 20
4.733080
  0
VERTEX
  8
0
  6
CONTINUOUS
 10
4.767400
 20
4.816680
  0
SEQEND
  8
0
  0
SOLID
  8
0
 62
    15
 10
4.789840
 20
4.733080
 11
5.436640
 21
5.114120
 12
4.803480
 22
4.645960
 13
5.450280
 23
5.027440
  0
POLYLINE
  8
0
  6
CONTINUOUS
 66
     1
 40
0.000000
 41
0.000000
  0
VERTEX
  8
0
  6
CONTINUOUS
 10
4.789840
 20
4.733080
  0
VERTEX
  8
0
  6
CONTINUOUS
 10
5.436640
 20
5.114120
  0
VERTEX
  8
0
  6
CONTINUOUS
 10
5.450280
 20
5.027440
  0
VERTEX
  8
0
  6
CONTINUOUS
 10
4.803480
 20
4.645960
  0
VERTEX
  8
0
  6
CONTINUOUS
 10
4.789840
 20
4.733080
  0
SEQEND
  8
0
  0
SOLID
  8
0
 62
    15
 10
4.803480
 20
4.645960
 11
5.450280
 21
5.027440
 12
4.807880
 22
4.556640
 13
5.454680
 23
4.937680
  0
POLYLINE
  8
0
  6
CONTINUOUS
 66
     1
 40
0.000000
 41
0.000000
  0
VERTEX
  8
0
  6
CONTINUOUS
 10
4.803480
 20
4.645960
  0
VERTEX
  8
0
  6
CONTINUOUS
 10
5.450280
 20
5.027440
  0
VERTEX
  8
0
  6
CONTINUOUS
 10
5.454680
 20
4.937680
  0
VERTEX
  8
0
  6
CONTINUOUS
 10
4.807880
 20
4.556640
  0
VERTEX
  8
0
  6
CONTINUOUS
 10
4.803480
 20
4.645960
  0
SEQEND
  8
0
  0
POLYLINE
  8
0
  6
CONTINUOUS
 66
     1
 40
0.000000
 41
0.000000
  0
VERTEX
  8
0
  6
CONTINUOUS
 10
3.045240
 20
4.556640
  0
VERTEX
  8
0
  6
CONTINUOUS
 10
3.049640
 20
4.645960
  0
VERTEX
  8
0
  6
CONTINUOUS
 10
3.063280
 20
4.733080
  0
VERTEX
  8
0
  6
CONTINUOUS
 10
3.084840
 20
4.816680
  0
VERTEX
  8
0
  6
CONTINUOUS
 10
3.114320
 20
4.897200
  0
VERTEX
  8
0
  6
CONTINUOUS
 10
3.151280
 20
4.973760
  0
VERTEX
  8
0
  6
CONTINUOUS
 10
3.195280
 20
5.045920
  0
VERTEX
  8
0
  6
CONTINUOUS
 10
3.245880
 20
5.113680
  0
VERTEX
  8
0
  6
CONTINUOUS
 10
3.302200
 20
5.175720
  0
VERTEX
  8
0
  6
CONTINUOUS
 10
3.364680
 20
5.232480
  0
VERTEX
  8
0
  6
CONTINUOUS
 10
3.432000
 20
5.283080
  0
VERTEX
  8
0
  6
CONTINUOUS
 10
3.504160
 20
5.326640
  0
VERTEX
  8
0
  6
CONTINUOUS
 10
3.580720
 20
5.363600
  0
VERTEX
  8
0
  6
CONTINUOUS
 10
3.661240
 20
5.393080
  0
VERTEX
  8
0
  6
CONTINUOUS
 10
3.745280
 20
5.415080
  0
VERTEX
  8
0
  6
CONTINUOUS
 10
3.831960
 20
5.428280
  0
VERTEX
  8
0
  6
CONTINUOUS
 10
3.921280
 20
5.432680
  0
VERTEX
  8
0
  6
CONTINUOUS
 10
4.010600
 20
5.428280
  0
VERTEX
  8
0
  6
CONTINUOUS
 10
4.098160
 20
5.415080
  0
VERTEX
  8
0
  6
CONTINUOUS
 10
4.182200
 20
5.393080
  0
VERTEX
  8
0
  6
CONTINUOUS
 10
4.263600
 20
5.363600
  0
VERTEX
  8
0
  6
CONTINUOUS
 10
4.341040
 20
5.326640
  0
VERTEX
  8
0
  6
CONTINUOUS
 10
4.414080
 20
5.283080
  0
VERTEX
  8
0
  6
CONTINUOUS
 10
4.482280
 20
5.232480
  0
VERTEX
  8
0
  6
CONTINUOUS
 10
4.545640
 20
5.175720
  0
VERTEX
  8
0
  6
CONTINUOUS
 10
4.603280
 20
5.113680
  0
VERTEX
  8
0
  6
CONTINUOUS
 10
4.654760
 20
5.045920
  0
VERTEX
  8
0
  6
CONTINUOUS
 10
4.699640
 20
4.973760
  0
VERTEX
  8
0
  6
CONTINUOUS
 10
4.737480
 20
4.897200
  0
VERTEX
  8
0
  6
CONTINUOUS
 10
4.767400
 20
4.816680
  0
VERTEX
  8
0
  6
CONTINUOUS
 10
4.789840
 20
4.733080
  0
VERTEX
  8
0
  6
CONTINUOUS
 10
4.803480
 20
4.645960
  0
VERTEX
  8
0
  6
CONTINUOUS
 10
4.807880
 20
4.556640
  0
VERTEX
  8
0
  6
CONTINUOUS
 10
3.045240
 20
4.556640
  0
SEQEND
  8
0
  0
POLYLINE
  8
0
  6
CONTINUOUS
 66
     1
 40
0.014080
 41
0.014080
  0
VERTEX
  8
0
  6
CONTINUOUS
 10
5.246120
 20
6.047360
  0
VERTEX
  8
0
  6
CONTINUOUS
 10
5.245931
 20
6.065418
  0
VERTEX
  8
0
  6
CONTINUOUS
 10
5.245368
 20
6.083389
  0
VERTEX
  8
0
  6
CONTINUOUS
 10
5.244433
 20
6.101269
  0
VERTEX
  8
0
  6
CONTINUOUS
 10
5.243131
 20
6.119054
  0
VERTEX
  8
0
  6
CONTINUOUS
 10
5.241466
 20
6.136742
  0
VERTEX
  8
0
  6
CONTINUOUS
 10
5.239441
 20
6.154327
  0
VERTEX
  8
0
  6
CONTINUOUS
 10
5.237060
 20
6.171808
  0
VERTEX
  8
0
  6
CONTINUOUS
 10
5.234328
 20
6.189180
  0
VERTEX
  8
0
  6
CONTINUOUS
 10
5.231247
 20
6.206440
  0
VERTEX
  8
0
  6
CONTINUOUS
 10
5.227821
 20
6.223584
  0
VERTEX
  8
0
  6
CONTINUOUS
 10
5.224055
 20
6.240609
  0
VERTEX
  8
0
  6
CONTINUOUS
 10
5.219953
 20
6.257511
  0
VERTEX
  8
0
  6
CONTINUOUS
 10
5.215517
 20
6.274286
  0
VERTEX
  8
0
  6
CONTINUOUS
 10
5.210753
 20
6.290931
  0
VERTEX
  8
0
  6
CONTINUOUS
 10
5.205662
 20
6.307443
  0
VERTEX
  8
0
  6
CONTINUOUS
 10
5.200251
 20
6.323817
  0
VERTEX
  8
0
  6
CONTINUOUS
 10
5.194522
 20
6.340051
  0
VERTEX
  8
0
  6
CONTINUOUS
 10
5.188478
 20
6.356140
  0
VERTEX
  8
0
  6
CONTINUOUS
 10
5.182125
 20
6.372082
  0
VERTEX
  8
0
  6
CONTINUOUS
 10
5.175466
 20
6.387872
  0
VERTEX
  8
0
  6
CONTINUOUS
 10
5.168504
 20
6.403507
  0
VERTEX
  8
0
  6
CONTINUOUS
 10
5.161243
 20
6.418983
  0
VERTEX
  8
0
  6
CONTINUOUS
 10
5.153687
 20
6.434298
  0
VERTEX
  8
0
  6
CONTINUOUS
 10
5.145841
 20
6.449447
  0
VERTEX
  8
0
  6
CONTINUOUS
 10
5.137707
 20
6.464426
  0
VERTEX
  8
0
  6
CONTINUOUS
 10
5.129290
 20
6.479233
  0
VERTEX
  8
0
  6
CONTINUOUS
 10
5.120593
 20
6.493863
  0
VERTEX
  8
0
  6
CONTINUOUS
 10
5.111621
 20
6.508313
  0
VERTEX
  8
0
  6
CONTINUOUS
 10
5.102376
 20
6.522580
  0
VERTEX
  8
0
  6
CONTINUOUS
 10
5.092863
 20
6.536660
  0
VERTEX
  8
0
  6
CONTINUOUS
 10
5.083086
 20
6.550549
  0
VERTEX
  8
0
  6
CONTINUOUS
 10
5.073049
 20
6.564244
  0
VERTEX
  8
0
  6
CONTINUOUS
 10
5.062754
 20
6.577741
  0
VERTEX
  8
0
  6
CONTINUOUS
 10
5.052207
 20
6.591037
  0
VERTEX
  8
0
  6
CONTINUOUS
 10
5.041411
 20
6.604128
  0
VERTEX
  8
0
  6
CONTINUOUS
 10
5.030369
 20
6.617010
  0
VERTEX
  8
0
  6
CONTINUOUS
 10
5.019086
 20
6.629681
  0
VERTEX
  8
0
  6
CONTINUOUS
 10
5.007565
 20
6.642136
  0
VERTEX
  8
0
  6
CONTINUOUS
 10
4.995810
 20
6.654372
  0
VERTEX
  8
0
  6
CONTINUOUS
 10
4.983825
 20
6.666385
  0
VERTEX
  8
0
  6
CONTINUOUS
 10
4.971614
 20
6.678172
  0
VERTEX
  8
0
  6
CONTINUOUS
 10
4.959180
 20
6.689729
  0
VERTEX
  8
0
  6
CONTINUOUS
 10
4.946528
 20
6.701053
  0
VERTEX
  8
0
  6
CONTINUOUS
 10
4.933661
 20
6.712139
  0
VERTEX
  8
0
  6
CONTINUOUS
 10
4.920583
 20
6.722986
  0
VERTEX
  8
0
  6
CONTINUOUS
 10
4.907298
 20
6.733588
  0
VERTEX
  8
0
  6
CONTINUOUS
 10
4.893809
 20
6.743942
  0
VERTEX
  8
0
  6
CONTINUOUS
 10
4.880121
 20
6.754046
  0
VERTEX
  8
0
  6
CONTINUOUS
 10
4.866237
 20
6.763894
  0
VERTEX
  8
0
  6
CONTINUOUS
 10
4.852161
 20
6.773485
  0
VERTEX
  8
0
  6
CONTINUOUS
 10
4.837897
 20
6.782813
  0
VERTEX
  8
0
  6
CONTINUOUS
 10
4.823448
 20
6.791876
  0
VERTEX
  8
0
  6
CONTINUOUS
 10
4.808819
 20
6.800670
  0
VERTEX
  8
0
  6
CONTINUOUS
 10
4.794014
 20
6.809191
  0
VERTEX
  8
0
  6
CONTINUOUS
 10
4.779035
 20
6.817436
  0
VERTEX
  8
0
  6
CONTINUOUS
 10
4.763887
 20
6.825402
  0
VERTEX
  8
0
  6
CONTINUOUS
 10
4.748574
 20
6.833084
  0
VERTEX
  8
0
  6
CONTINUOUS
 10
4.733100
 20
6.840480
  0
VERTEX
  8
0
  6
CONTINUOUS
 10
4.717468
 20
6.847585
  0
VERTEX
  8
0
  6
CONTINUOUS
 10
4.701682
 20
6.854396
  0
VERTEX
  8
0
  6
CONTINUOUS
 10
4.685746
 20
6.860909
  0
VERTEX
  8
0
  6
CONTINUOUS
 10
4.669664
 20
6.867122
  0
VERTEX
  8
0
  6
CONTINUOUS
 10
4.653439
 20
6.873029
  0
VERTEX
  8
0
  6
CONTINUOUS
 10
4.637076
 20
6.878629
  0
VERTEX
  8
0
  6
CONTINUOUS
 10
4.620577
 20
6.883917
  0
VERTEX
  8
0
  6
CONTINUOUS
 10
4.603948
 20
6.888890
  0
VERTEX
  8
0
  6
CONTINUOUS
 10
4.587192
 20
6.893543
  0
VERTEX
  8
0
  6
CONTINUOUS
 10
4.570312
 20
6.897874
  0
VERTEX
  8
0
  6
CONTINUOUS
 10
4.553313
 20
6.901879
  0
VERTEX
  8
0
  6
CONTINUOUS
 10
4.536198
 20
6.905555
  0
VERTEX
  8
0
  6
CONTINUOUS
 10
4.518971
 20
6.908898
  0
VERTEX
  8
0
  6
CONTINUOUS
 10
4.501636
 20
6.911903
  0
VERTEX
  8
0
  6
CONTINUOUS
 10
4.484197
 20
6.914569
  0
VERTEX
  8
0
  6
CONTINUOUS
 10
4.466657
 20
6.916890
  0
VERTEX
  8
0
  6
CONTINUOUS
 10
4.449020
 20
6.918865
  0
VERTEX
  8
0
  6
CONTINUOUS
 10
4.431291
 20
6.920488
  0
VERTEX
  8
0
  6
CONTINUOUS
 10
4.413472
 20
6.921757
  0
VERTEX
  8
0
  6
CONTINUOUS
 10
4.395568
 20
6.922667
  0
VERTEX
  8
0
  6
CONTINUOUS
 10
4.377583
 20
6.923216
  0
VERTEX
  8
0
  6
CONTINUOUS
 10
4.359520
 20
6.923400
  0
VERTEX
  8
0
  6
CONTINUOUS
 10
4.359520
 20
6.923400
  0
VERTEX
  8
0
  6
CONTINUOUS
 10
4.341462
 20
6.923216
  0
VERTEX
  8
0
  6
CONTINUOUS
 10
4.323491
 20
6.922667
  0
VERTEX
  8
0
  6
CONTINUOUS
 10
4.305611
 20
6.921757
  0
VERTEX
  8
0
  6
CONTINUOUS
 10
4.287826
 20
6.920488
  0
VERTEX
  8
0
  6
CONTINUOUS
 10
4.270138
 20
6.918865
  0
VERTEX
  8
0
  6
CONTINUOUS
 10
4.252553
 20
6.916890
  0
VERTEX
  8
0
  6
CONTINUOUS
 10
4.235072
 20
6.914569
  0
VERTEX
  8
0
  6
CONTINUOUS
 10
4.217700
 20
6.911903
  0
VERTEX
  8
0
  6
CONTINUOUS
 10
4.200440
 20
6.908898
  0
VERTEX
  8
0
  6
CONTINUOUS
 10
4.183296
 20
6.905555
  0
VERTEX
  8
0
  6
CONTINUOUS
 10
4.166271
 20
6.901879
  0
VERTEX
  8
0
  6
CONTINUOUS
 10
4.149369
 20
6.897874
  0
VERTEX
  8
0
  6
CONTINUOUS
 10
4.132594
 20
6.893543
  0
VERTEX
  8
0
  6
CONTINUOUS
 10
4.115949
 20
6.888890
  0
VERTEX
  8
0
  6
CONTINUOUS
 10
4.099437
 20
6.883917
  0
VERTEX
  8
0
  6
CONTINUOUS
 10
4.083063
 20
6.878629
  0
VERTEX
  8
0
  6
CONTINUOUS
 10
4.066829
 20
6.873029
  0
VERTEX
  8
0
  6
CONTINUOUS
 10
4.050740
 20
6.867122
  0
VERTEX
  8
0
  6
CONTINUOUS
 10
4.034798
 20
6.860909
  0
VERTEX
  8
0
  6
CONTINUOUS
 10
4.019008
 20
6.854396
  0
VERTEX
  8
0
  6
CONTINUOUS
 10
4.003373
 20
6.847585
  0
VERTEX
  8
0
  6
CONTINUOUS
 10
3.987897
 20
6.840480
  0
VERTEX
  8
0
  6
CONTINUOUS
 10
3.972582
 20
6.833084
  0
VERTEX
  8
0
  6
CONTINUOUS
 10
3.957433
 20
6.825402
  0
VERTEX
  8
0
  6
CONTINUOUS
 10
3.942454
 20
6.817436
  0
VERTEX
  8
0
  6
CONTINUOUS
 10
3.927647
 20
6.809191
  0
VERTEX
  8
0
  6
CONTINUOUS
 10
3.913017
 20
6.800670
  0
VERTEX
  8
0
  6
CONTINUOUS
 10
3.898567
 20
6.791876
  0
VERTEX
  8
0
  6
CONTINUOUS
 10
3.884300
 20
6.782813
  0
VERTEX
  8
0
  6
CONTINUOUS
 10
3.870220
 20
6.773485
  0
VERTEX
  8
0
  6
CONTINUOUS
 10
3.856331
 20
6.763894
  0
VERTEX
  8
0
  6
CONTINUOUS
 10
3.842636
 20
6.754046
  0
VERTEX
  8
0
  6
CONTINUOUS
 10
3.829139
 20
6.743942
  0
VERTEX
  8
0
  6
CONTINUOUS
 10
3.815843
 20
6.733588
  0
VERTEX
  8
0
  6
CONTINUOUS
 10
3.802752
 20
6.722986
  0
VERTEX
  8
0
  6
CONTINUOUS
 10
3.789870
 20
6.712139
  0
VERTEX
  8
0
  6
CONTINUOUS
 10
3.777199
 20
6.701053
  0
VERTEX
  8
0
  6
CONTINUOUS
 10
3.764744
 20
6.689729
  0
VERTEX
  8
0
  6
CONTINUOUS
 10
3.752508
 20
6.678172
  0
VERTEX
  8
0
  6
CONTINUOUS
 10
3.740495
 20
6.666385
  0
VERTEX
  8
0
  6
CONTINUOUS
 10
3.728708
 20
6.654372
  0
VERTEX
  8
0
  6
CONTINUOUS
 10
3.717151
 20
6.642136
  0
VERTEX
  8
0
  6
CONTINUOUS
 10
3.705827
 20
6.629681
  0
VERTEX
  8
0
  6
CONTINUOUS
 10
3.694741
 20
6.617010
  0
VERTEX
  8
0
  6
CONTINUOUS
 10
3.683894
 20
6.604128
  0
VERTEX
  8
0
  6
CONTINUOUS
 10
3.673292
 20
6.591037
  0
VERTEX
  8
0
  6
CONTINUOUS
 10
3.662938
 20
6.577741
  0
VERTEX
  8
0
  6
CONTINUOUS
 10
3.652834
 20
6.564244
  0
VERTEX
  8
0
  6
CONTINUOUS
 10
3.642986
 20
6.550549
  0
VERTEX
  8
0
  6
CONTINUOUS
 10
3.633395
 20
6.536660
  0
VERTEX
  8
0
  6
CONTINUOUS
 10
3.624067
 20
6.522580
  0
VERTEX
  8
0
  6
CONTINUOUS
 10
3.615004
 20
6.508313
  0
VERTEX
  8
0
  6
CONTINUOUS
 10
3.606210
 20
6.493863
  0
VERTEX
  8
0
  6
CONTINUOUS
 10
3.597689
 20
6.479233
  0
VERTEX
  8
0
  6
CONTINUOUS
 10
3.589444
 20
6.464426
  0
VERTEX
  8
0
  6
CONTINUOUS
 10
3.581478
 20
6.449447
  0
VERTEX
  8
0
  6
CONTINUOUS
 10
3.573796
 20
6.434298
  0
VERTEX
  8
0
  6
CONTINUOUS
 10
3.566400
 20
6.418983
  0
VERTEX
  8
0
  6
CONTINUOUS
 10
3.559295
 20
6.403507
  0
VERTEX
  8
0
  6
CONTINUOUS
 10
3.552484
 20
6.387872
  0
VERTEX
  8
0
  6
CONTINUOUS
 10
3.545971
 20
6.372082
  0
VERTEX
  8
0
  6
CONTINUOUS
 10
3.539758
 20
6.356140
  0
VERTEX
  8
0
  6
CONTINUOUS
 10
3.533851
 20
6.340051
  0
VERTEX
  8
0
  6
CONTINUOUS
 10
3.528251
 20
6.323817
  0
VERTEX
  8
0
  6
CONTINUOUS
 10
3.522963
 20
6.307443
  0
VERTEX
  8
0
  6
CONTINUOUS
 10
3.517990
 20
6.290931
  0
VERTEX
  8
0
  6
CONTINUOUS
 10
3.513337
 20
6.274286
  0
VERTEX
  8
0
  6
CONTINUOUS
 10
3.509006
 20
6.257511
  0
VERTEX
  8
0
  6
CONTINUOUS
 10
3.505001
 20
6.240609
  0
VERTEX
  8
0
  6
CONTINUOUS
 10
3.501325
 20
6.223584
  0
VERTEX
  8
0
  6
CONTINUOUS
 10
3.497982
 20
6.206440
  0
VERTEX
  8
0
  6
CONTINUOUS
 10
3.494977
 20
6.189180
  0
VERTEX
  8
0
  6
CONTINUOUS
 10
3.492311
 20
6.171808
  0
VERTEX
  8
0
  6
CONTINUOUS
 10
3.489990
 20
6.154327
  0
VERTEX
  8
0
  6
CONTINUOUS
 10
3.488015
 20
6.136742
  0
VERTEX
  8
0
  6
CONTINUOUS
 10
3.486392
 20
6.119054
  0
VERTEX
  8
0
  6
CONTINUOUS
 10
3.485123
 20
6.101269
  0
VERTEX
  8
0
  6
CONTINUOUS
 10
3.484213
 20
6.083389
  0
VERTEX
  8
0
  6
CONTINUOUS
 10
3.483664
 20
6.065418
  0
VERTEX
  8
0
  6
CONTINUOUS
 10
3.483480
 20
6.047360
  0
VERTEX
  8
0
  6
CONTINUOUS
 10
5.246120
 20
6.047360
  0
SEQEND
  8
0
  0
TEXT
  8
0
 10
4.072200
 20
6.330720
 40
0.138142
  1
BA  283
 41
1.000000
  7
SN0
 71
     0
 72
     5
 11
4.661956
 21
6.330720
  0
TEXT
  8
0
 10
4.148760
 20
6.139320
 40
0.138142
  1
1-3/4"
 41
1.000000
  7
SN0
 71
     0
 72
     5
 11
4.585102
 21
6.139320
  0
ENDSEC
  0
EOF
