  0
SECTION
  2
HEADER
  9
$ACADVER
  1
AC1006
  9
$EXTMIN
 10
2.302520
 20
0.399080
  9
$EXTMAX
 10
8.050240
 20
3.685000
  9
$LTSCALE
 40
0.044000
  9
$PDMODE
 70
    35
  9
$PDSIZE
 40
0.035200
  0
ENDSEC
  0
SECTION
  2
TABLES
  0
TABLE
  2
LTYPE
 70
     9
  0
LTYPE
  2
CONTINUOUS
 70
    64
  3
Solid line
 72
    65
 73
     0
 40
0.000000
  0
LTYPE
  2
DASHED
 70
    64
  3
__ __ __ __ __ __ __ __ __ __ __ __ __ __ __
 72
    65
 73
     2
 40
0.000330
 49
0.000220
 49
-0.000110
  0
LTYPE
  2
HIDDEN
 70
    64
  3
 _ _ _ _ _ _ _ _ _ _ _ _ _ _ _ _ _ _ _ _ _ _
 72
    65
 73
     2
 40
0.000165
 49
0.000110
 49
-0.000055
  0
LTYPE
  2
CENTER
 70
    64
  3
____ _ ____ _ ____ _ ____ _ ____ _ ____ _ ____
 72
    65
 73
     4
 40
0.000880
 49
0.000550
 49
-0.000110
 49
0.000110
 49
-0.000110
  0
LTYPE
  2
PHANTOM
 70
    64
  3
_____ _ _ _____ _ _ _____ _ _ _____ _ _ ____
 72
    65
 73
     6
 40
0.001100
 49
0.000550
 49
-0.000110
 49
0.000110
 49
-0.000110
 49
0.000110
 49
-0.000110
  0
LTYPE
  2
DOT
 70
    64
  3
...............................................
 72
    65
 73
     2
 40
0.000110
 49
0.000000
 49
-0.000110
  0
LTYPE
  2
DASHDOT
 70
    64
  3
__ . __ . __ . __ . __ . __ . __ . __ . __ . __
 72
    65
 73
     4
 40
0.000440
 49
0.000220
 49
-0.000110
 49
0.000000
 49
-0.000110
  0
LTYPE
  2
BORDER
 70
    64
  3
__ __ . __ __ . __ __ . __ __ . __ __ . __ __
 72
    65
 73
     6
 40
0.000770
 49
0.000220
 49
-0.000110
 49
0.000220
 49
-0.000110
 49
0.000000
 49
-0.000110
  0
LTYPE
  2
DIVIDE
 70
    64
  3
__ . . __ . . __ . . __ . . __ . . __ . . __
 72
    65
 73
     6
 40
0.000550
 49
0.000220
 49
-0.000110
 49
0.000000
 49
-0.000110
 49
0.000000
 49
-0.000110
  0
LTYPE
  2
DOTDOT
 70
    64
  3
 . .  . .  . .  . .  . .  . . 
 72
    65
 73
     5
 40
0.000242
 49
-0.000110
 49
0.000000
 49
-0.000110
 49
0.000000
 49
-0.000110
  0
ENDTAB
  0
TABLE
  2
STYLE
 70
     2
  0
STYLE
 70
     0
  2
SN0
 40
0.000000
 41
0.000440
 50
0.000000
 71
     0
 42
0.000000
  3
ROMAND
  0
STYLE
 70
    68
  2
SV0
 40
0.000000
 41
0.000440
 50
0.000000
 71
     0
 42
0.000000
  3
ROMAND
  0
ENDTAB
  0
TABLE
  2
LAYER
 70
     3
  0
LAYER
  2
FOREGROUND
 70
    64
 62
     7
  6
CONTINUOUS
  0
LAYER
  2
BACKGROUND
 70
    65
 62
    -7
  6
CONTINUOUS
  0
LAYER
  2
0
 70
    64
 62
     7
  6
CONTINUOUS
  0
ENDTAB
  0
ENDSEC
  0
SECTION
  2
ENTITIES
  0
POLYLINE
  8
FOREGROUND
  6
CONTINUOUS
 66
     1
 40
0.000000
 41
0.000000
  0
VERTEX
  8
FOREGROUND
  6
CONTINUOUS
 10
0.000000
 20
4.084080
  0
VERTEX
  8
FOREGROUND
  6
CONTINUOUS
 10
8.499920
 20
4.084080
  0
VERTEX
  8
FOREGROUND
  6
CONTINUOUS
 10
8.499920
 20
-6.915920
  0
VERTEX
  8
FOREGROUND
  6
CONTINUOUS
 10
0.000000
 20
-6.915920
  0
VERTEX
  8
FOREGROUND
  6
CONTINUOUS
 10
0.000000
 20
4.084080
  0
SEQEND
  8
0
  0
POLYLINE
  8
FOREGROUND
  6
CONTINUOUS
 66
     1
 40
0.000000
 41
0.000000
  0
VERTEX
  8
FOREGROUND
  6
CONTINUOUS
 10
0.000000
 20
4.084080
  0
VERTEX
  8
FOREGROUND
  6
CONTINUOUS
 10
8.499920
 20
4.084080
  0
VERTEX
  8
FOREGROUND
  6
CONTINUOUS
 10
8.499920
 20
-6.915920
  0
VERTEX
  8
FOREGROUND
  6
CONTINUOUS
 10
0.000000
 20
-6.915920
  0
VERTEX
  8
FOREGROUND
  6
CONTINUOUS
 10
0.000000
 20
4.084080
  0
SEQEND
  8
0
  0
POLYLINE
  8
0
  6
CONTINUOUS
 66
     1
 40
0.014080
 41
0.014080
  0
VERTEX
  8
0
  6
CONTINUOUS
 10
2.312640
 20
2.798400
  0
VERTEX
  8
0
  6
CONTINUOUS
 10
7.280680
 20
2.798400
  0
VERTEX
  8
0
  6
CONTINUOUS
 10
7.282000
 20
2.805440
  0
VERTEX
  8
0
  6
CONTINUOUS
 10
7.282000
 20
3.330360
  0
VERTEX
  8
0
  6
CONTINUOUS
 10
7.278040
 20
3.333440
  0
VERTEX
  8
0
  6
CONTINUOUS
 10
7.235360
 20
3.343120
  0
VERTEX
  8
0
  6
CONTINUOUS
 10
7.196640
 20
3.358080
  0
VERTEX
  8
0
  6
CONTINUOUS
 10
7.161440
 20
3.377880
  0
VERTEX
  8
0
  6
CONTINUOUS
 10
7.145160
 20
3.389320
  0
VERTEX
  8
0
  6
CONTINUOUS
 10
7.116120
 20
3.416160
  0
VERTEX
  8
0
  6
CONTINUOUS
 10
7.090600
 20
3.447840
  0
VERTEX
  8
0
  6
CONTINUOUS
 10
7.069480
 20
3.484360
  0
VERTEX
  8
0
  6
CONTINUOUS
 10
7.051880
 20
3.525280
  0
VERTEX
  8
0
  6
CONTINUOUS
 10
7.044840
 20
3.547720
  0
VERTEX
  8
0
  6
CONTINUOUS
 10
6.386160
 20
3.547720
  0
VERTEX
  8
0
  6
CONTINUOUS
 10
6.387480
 20
3.547720
  0
VERTEX
  8
0
  6
CONTINUOUS
 10
6.387480
 20
3.495800
  0
VERTEX
  8
0
  6
CONTINUOUS
 10
6.323240
 20
3.506360
  0
VERTEX
  8
0
  6
CONTINUOUS
 10
6.288040
 20
3.509440
  0
VERTEX
  8
0
  6
CONTINUOUS
 10
6.258120
 20
3.509000
  0
VERTEX
  8
0
  6
CONTINUOUS
 10
6.220720
 20
3.503720
  0
VERTEX
  8
0
  6
CONTINUOUS
 10
6.200040
 20
3.497120
  0
VERTEX
  8
0
  6
CONTINUOUS
 10
6.181560
 20
3.488320
  0
VERTEX
  8
0
  6
CONTINUOUS
 10
6.164840
 20
3.477760
  0
VERTEX
  8
0
  6
CONTINUOUS
 10
6.076400
 20
3.406480
  0
VERTEX
  8
0
  6
CONTINUOUS
 10
6.039000
 20
3.382280
  0
VERTEX
  8
0
  6
CONTINUOUS
 10
5.991480
 20
3.358520
  0
VERTEX
  8
0
  6
CONTINUOUS
 10
5.924600
 20
3.331680
  0
VERTEX
  8
0
  6
CONTINUOUS
 10
5.866080
 20
3.313200
  0
VERTEX
  8
0
  6
CONTINUOUS
 10
5.814600
 20
3.300440
  0
VERTEX
  8
0
  6
CONTINUOUS
 10
5.749040
 20
3.291200
  0
VERTEX
  8
0
  6
CONTINUOUS
 10
5.694480
 20
3.288560
  0
VERTEX
  8
0
  6
CONTINUOUS
 10
5.632880
 20
3.288120
  0
VERTEX
  8
0
  6
CONTINUOUS
 10
5.615280
 20
3.258200
  0
VERTEX
  8
0
  6
CONTINUOUS
 10
5.602080
 20
3.243680
  0
VERTEX
  8
0
  6
CONTINUOUS
 10
5.583600
 20
3.231800
  0
VERTEX
  8
0
  6
CONTINUOUS
 10
5.558080
 20
3.223880
  0
VERTEX
  8
0
  6
CONTINUOUS
 10
5.536520
 20
3.222560
  0
VERTEX
  8
0
  6
CONTINUOUS
 10
5.511440
 20
3.225200
  0
VERTEX
  8
0
  6
CONTINUOUS
 10
5.481960
 20
3.232680
  0
VERTEX
  8
0
  6
CONTINUOUS
 10
5.428720
 20
3.253800
  0
VERTEX
  8
0
  6
CONTINUOUS
 10
5.363600
 20
3.289440
  0
VERTEX
  8
0
  6
CONTINUOUS
 10
5.317840
 20
3.318920
  0
VERTEX
  8
0
  6
CONTINUOUS
 10
5.277800
 20
3.340480
  0
VERTEX
  8
0
  6
CONTINUOUS
 10
5.241280
 20
3.355440
  0
VERTEX
  8
0
  6
CONTINUOUS
 10
5.207400
 20
3.364680
  0
VERTEX
  8
0
  6
CONTINUOUS
 10
5.177040
 20
3.368640
  0
VERTEX
  8
0
  6
CONTINUOUS
 10
5.162520
 20
3.369080
  0
VERTEX
  8
0
  6
CONTINUOUS
 10
5.136560
 20
3.366440
  0
VERTEX
  8
0
  6
CONTINUOUS
 10
5.112800
 20
3.360720
  0
VERTEX
  8
0
  6
CONTINUOUS
 10
5.091680
 20
3.351920
  0
VERTEX
  8
0
  6
CONTINUOUS
 10
5.064840
 20
3.334760
  0
VERTEX
  8
0
  6
CONTINUOUS
 10
5.042840
 20
3.315400
  0
VERTEX
  8
0
  6
CONTINUOUS
 10
5.015560
 20
3.283280
  0
VERTEX
  8
0
  6
CONTINUOUS
 10
4.999280
 20
3.261280
  0
VERTEX
  8
0
  6
CONTINUOUS
 10
4.990920
 20
3.259960
  0
VERTEX
  8
0
  6
CONTINUOUS
 10
4.983880
 20
3.263040
  0
VERTEX
  8
0
  6
CONTINUOUS
 10
4.973760
 20
3.274480
  0
VERTEX
  8
0
  6
CONTINUOUS
 10
4.940320
 20
3.340040
  0
VERTEX
  8
0
  6
CONTINUOUS
 10
4.918320
 20
3.373480
  0
VERTEX
  8
0
  6
CONTINUOUS
 10
4.896760
 20
3.396800
  0
VERTEX
  8
0
  6
CONTINUOUS
 10
4.879600
 20
3.410000
  0
VERTEX
  8
0
  6
CONTINUOUS
 10
4.859360
 20
3.421000
  0
VERTEX
  8
0
  6
CONTINUOUS
 10
4.836480
 20
3.428480
  0
VERTEX
  8
0
  6
CONTINUOUS
 10
4.809640
 20
3.432880
  0
VERTEX
  8
0
  6
CONTINUOUS
 10
4.795120
 20
3.433320
  0
VERTEX
  8
0
  6
CONTINUOUS
 10
4.788520
 20
3.434640
  0
VERTEX
  8
0
  6
CONTINUOUS
 10
4.760360
 20
3.432440
  0
VERTEX
  8
0
  6
CONTINUOUS
 10
4.735720
 20
3.426720
  0
VERTEX
  8
0
  6
CONTINUOUS
 10
4.714160
 20
3.417480
  0
VERTEX
  8
0
  6
CONTINUOUS
 10
4.687760
 20
3.399000
  0
VERTEX
  8
0
  6
CONTINUOUS
 10
4.666640
 20
3.376120
  0
VERTEX
  8
0
  6
CONTINUOUS
 10
4.645960
 20
3.343120
  0
VERTEX
  8
0
  6
CONTINUOUS
 10
4.613840
 20
3.279320
  0
VERTEX
  8
0
  6
CONTINUOUS
 10
4.604160
 20
3.267880
  0
VERTEX
  8
0
  6
CONTINUOUS
 10
4.597120
 20
3.265240
  0
VERTEX
  8
0
  6
CONTINUOUS
 10
4.588760
 20
3.266560
  0
VERTEX
  8
0
  6
CONTINUOUS
 10
4.557520
 20
3.307480
  0
VERTEX
  8
0
  6
CONTINUOUS
 10
4.531120
 20
3.333880
  0
VERTEX
  8
0
  6
CONTINUOUS
 10
4.505600
 20
3.351920
  0
VERTEX
  8
0
  6
CONTINUOUS
 10
4.475240
 20
3.366000
  0
VERTEX
  8
0
  6
CONTINUOUS
 10
4.451480
 20
3.371720
  0
VERTEX
  8
0
  6
CONTINUOUS
 10
4.425080
 20
3.374360
  0
VERTEX
  8
0
  6
CONTINUOUS
 10
4.396040
 20
3.372600
  0
VERTEX
  8
0
  6
CONTINUOUS
 10
4.363920
 20
3.366000
  0
VERTEX
  8
0
  6
CONTINUOUS
 10
4.328720
 20
3.354120
  0
VERTEX
  8
0
  6
CONTINUOUS
 10
4.290440
 20
3.335640
  0
VERTEX
  8
0
  6
CONTINUOUS
 10
4.248640
 20
3.310560
  0
VERTEX
  8
0
  6
CONTINUOUS
 10
4.201120
 20
3.281080
  0
VERTEX
  8
0
  6
CONTINUOUS
 10
4.159320
 20
3.259080
  0
VERTEX
  8
0
  6
CONTINUOUS
 10
4.106080
 20
3.237960
  0
VERTEX
  8
0
  6
CONTINUOUS
 10
4.076600
 20
3.230480
  0
VERTEX
  8
0
  6
CONTINUOUS
 10
4.051520
 20
3.227840
  0
VERTEX
  8
0
  6
CONTINUOUS
 10
4.029960
 20
3.229160
  0
VERTEX
  8
0
  6
CONTINUOUS
 10
4.004440
 20
3.237080
  0
VERTEX
  8
0
  6
CONTINUOUS
 10
3.985520
 20
3.248960
  0
VERTEX
  8
0
  6
CONTINUOUS
 10
3.972320
 20
3.263480
  0
VERTEX
  8
0
  6
CONTINUOUS
 10
3.954720
 20
3.293400
  0
VERTEX
  8
0
  6
CONTINUOUS
 10
3.876400
 20
3.294280
  0
VERTEX
  8
0
  6
CONTINUOUS
 10
3.818320
 20
3.298680
  0
VERTEX
  8
0
  6
CONTINUOUS
 10
3.773440
 20
3.305720
  0
VERTEX
  8
0
  6
CONTINUOUS
 10
3.721960
 20
3.318480
  0
VERTEX
  8
0
  6
CONTINUOUS
 10
3.663440
 20
3.336960
  0
VERTEX
  8
0
  6
CONTINUOUS
 10
3.596560
 20
3.363800
  0
VERTEX
  8
0
  6
CONTINUOUS
 10
3.549040
 20
3.387560
  0
VERTEX
  8
0
  6
CONTINUOUS
 10
3.511640
 20
3.411760
  0
VERTEX
  8
0
  6
CONTINUOUS
 10
3.472040
 20
3.443000
  0
VERTEX
  8
0
  6
CONTINUOUS
 10
3.422320
 20
3.483040
  0
VERTEX
  8
0
  6
CONTINUOUS
 10
3.396360
 20
3.498440
  0
VERTEX
  8
0
  6
CONTINUOUS
 10
3.366000
 20
3.509000
  0
VERTEX
  8
0
  6
CONTINUOUS
 10
3.342240
 20
3.513400
  0
VERTEX
  8
0
  6
CONTINUOUS
 10
3.314080
 20
3.515160
  0
VERTEX
  8
0
  6
CONTINUOUS
 10
3.263480
 20
3.511640
  0
VERTEX
  8
0
  6
CONTINUOUS
 10
3.199240
 20
3.501080
  0
VERTEX
  8
0
  6
CONTINUOUS
 10
3.200560
 20
3.504160
  0
VERTEX
  8
0
  6
CONTINUOUS
 10
3.200560
 20
3.554760
  0
VERTEX
  8
0
  6
CONTINUOUS
 10
2.545840
 20
3.553440
  0
VERTEX
  8
0
  6
CONTINUOUS
 10
2.545840
 20
3.556080
  0
VERTEX
  8
0
  6
CONTINUOUS
 10
2.538800
 20
3.533640
  0
VERTEX
  8
0
  6
CONTINUOUS
 10
2.521200
 20
3.492280
  0
VERTEX
  8
0
  6
CONTINUOUS
 10
2.511080
 20
3.472920
  0
VERTEX
  8
0
  6
CONTINUOUS
 10
2.487320
 20
3.438600
  0
VERTEX
  8
0
  6
CONTINUOUS
 10
2.459600
 20
3.408680
  0
VERTEX
  8
0
  6
CONTINUOUS
 10
2.444640
 20
3.395480
  0
VERTEX
  8
0
  6
CONTINUOUS
 10
2.411200
 20
3.373040
  0
VERTEX
  8
0
  6
CONTINUOUS
 10
2.374240
 20
3.355440
  0
VERTEX
  8
0
  6
CONTINUOUS
 10
2.333320
 20
3.343120
  0
VERTEX
  8
0
  6
CONTINUOUS
 10
2.311320
 20
3.338720
  0
VERTEX
  8
0
  6
CONTINUOUS
 10
2.310000
 20
3.337400
  0
VERTEX
  8
0
  6
CONTINUOUS
 10
2.310000
 20
2.812040
  0
VERTEX
  8
0
  6
CONTINUOUS
 10
2.312640
 20
2.798400
  0
SEQEND
  8
0
  0
SOLID
  8
0
 62
    15
 10
5.041960
 20
1.537360
 11
5.037120
 21
2.269520
 12
5.048560
 22
1.535600
 13
5.043720
 23
2.268200
  0
POLYLINE
  8
0
  6
CONTINUOUS
 66
     1
 40
0.000000
 41
0.000000
  0
VERTEX
  8
0
  6
CONTINUOUS
 10
5.041960
 20
1.537360
  0
VERTEX
  8
0
  6
CONTINUOUS
 10
5.037120
 20
2.269520
  0
VERTEX
  8
0
  6
CONTINUOUS
 10
5.043720
 20
2.268200
  0
VERTEX
  8
0
  6
CONTINUOUS
 10
5.048560
 20
1.535600
  0
VERTEX
  8
0
  6
CONTINUOUS
 10
5.041960
 20
1.537360
  0
SEQEND
  8
0
  0
SOLID
  8
0
 62
    15
 10
2.563440
 20
0.914320
 11
2.558600
 21
1.646920
 12
2.563440
 22
1.439680
 13
2.558600
 23
2.172280
  0
POLYLINE
  8
0
  6
CONTINUOUS
 66
     1
 40
0.000000
 41
0.000000
  0
VERTEX
  8
0
  6
CONTINUOUS
 10
2.563440
 20
0.914320
  0
VERTEX
  8
0
  6
CONTINUOUS
 10
2.558600
 20
1.646920
  0
VERTEX
  8
0
  6
CONTINUOUS
 10
2.558600
 20
2.172280
  0
VERTEX
  8
0
  6
CONTINUOUS
 10
2.563440
 20
1.439680
  0
VERTEX
  8
0
  6
CONTINUOUS
 10
2.563440
 20
0.914320
  0
SEQEND
  8
0
  0
SOLID
  8
0
 62
    15
 10
2.564760
 20
1.441000
 11
2.559920
 21
2.173600
 12
2.607000
 22
1.451120
 13
2.602160
 23
2.183280
  0
POLYLINE
  8
0
  6
CONTINUOUS
 66
     1
 40
0.000000
 41
0.000000
  0
VERTEX
  8
0
  6
CONTINUOUS
 10
2.564760
 20
1.441000
  0
VERTEX
  8
0
  6
CONTINUOUS
 10
2.559920
 20
2.173600
  0
VERTEX
  8
0
  6
CONTINUOUS
 10
2.602160
 20
2.183280
  0
VERTEX
  8
0
  6
CONTINUOUS
 10
2.607000
 20
1.451120
  0
VERTEX
  8
0
  6
CONTINUOUS
 10
2.564760
 20
1.441000
  0
SEQEND
  8
0
  0
SOLID
  8
0
 62
    15
 10
2.607000
 20
1.451120
 11
2.602160
 21
2.183280
 12
2.646160
 22
1.466520
 13
2.641320
 23
2.198680
  0
POLYLINE
  8
0
  6
CONTINUOUS
 66
     1
 40
0.000000
 41
0.000000
  0
VERTEX
  8
0
  6
CONTINUOUS
 10
2.607000
 20
1.451120
  0
VERTEX
  8
0
  6
CONTINUOUS
 10
2.602160
 20
2.183280
  0
VERTEX
  8
0
  6
CONTINUOUS
 10
2.641320
 20
2.198680
  0
VERTEX
  8
0
  6
CONTINUOUS
 10
2.646160
 20
1.466520
  0
VERTEX
  8
0
  6
CONTINUOUS
 10
2.607000
 20
1.451120
  0
SEQEND
  8
0
  0
SOLID
  8
0
 62
    15
 10
2.646160
 20
1.466520
 11
2.641320
 21
2.198680
 12
2.681360
 22
1.486320
 13
2.676520
 23
2.218480
  0
POLYLINE
  8
0
  6
CONTINUOUS
 66
     1
 40
0.000000
 41
0.000000
  0
VERTEX
  8
0
  6
CONTINUOUS
 10
2.646160
 20
1.466520
  0
VERTEX
  8
0
  6
CONTINUOUS
 10
2.641320
 20
2.198680
  0
VERTEX
  8
0
  6
CONTINUOUS
 10
2.676520
 20
2.218480
  0
VERTEX
  8
0
  6
CONTINUOUS
 10
2.681360
 20
1.486320
  0
VERTEX
  8
0
  6
CONTINUOUS
 10
2.646160
 20
1.466520
  0
SEQEND
  8
0
  0
SOLID
  8
0
 62
    15
 10
2.681360
 20
1.486320
 11
2.676520
 21
2.218480
 12
2.713040
 22
1.511400
 13
2.708200
 23
2.243560
  0
POLYLINE
  8
0
  6
CONTINUOUS
 66
     1
 40
0.000000
 41
0.000000
  0
VERTEX
  8
0
  6
CONTINUOUS
 10
2.681360
 20
1.486320
  0
VERTEX
  8
0
  6
CONTINUOUS
 10
2.676520
 20
2.218480
  0
VERTEX
  8
0
  6
CONTINUOUS
 10
2.708200
 20
2.243560
  0
VERTEX
  8
0
  6
CONTINUOUS
 10
2.713040
 20
1.511400
  0
VERTEX
  8
0
  6
CONTINUOUS
 10
2.681360
 20
1.486320
  0
SEQEND
  8
0
  0
SOLID
  8
0
 62
    15
 10
2.713040
 20
1.511400
 11
2.708200
 21
2.243560
 12
2.740320
 22
1.541320
 13
2.735480
 23
2.273480
  0
POLYLINE
  8
0
  6
CONTINUOUS
 66
     1
 40
0.000000
 41
0.000000
  0
VERTEX
  8
0
  6
CONTINUOUS
 10
2.713040
 20
1.511400
  0
VERTEX
  8
0
  6
CONTINUOUS
 10
2.708200
 20
2.243560
  0
VERTEX
  8
0
  6
CONTINUOUS
 10
2.735480
 20
2.273480
  0
VERTEX
  8
0
  6
CONTINUOUS
 10
2.740320
 20
1.541320
  0
VERTEX
  8
0
  6
CONTINUOUS
 10
2.713040
 20
1.511400
  0
SEQEND
  8
0
  0
SOLID
  8
0
 62
    15
 10
2.740320
 20
1.541320
 11
2.735480
 21
2.273480
 12
2.764080
 22
1.575640
 13
2.759240
 23
2.307800
  0
POLYLINE
  8
0
  6
CONTINUOUS
 66
     1
 40
0.000000
 41
0.000000
  0
VERTEX
  8
0
  6
CONTINUOUS
 10
2.740320
 20
1.541320
  0
VERTEX
  8
0
  6
CONTINUOUS
 10
2.735480
 20
2.273480
  0
VERTEX
  8
0
  6
CONTINUOUS
 10
2.759240
 20
2.307800
  0
VERTEX
  8
0
  6
CONTINUOUS
 10
2.764080
 20
1.575640
  0
VERTEX
  8
0
  6
CONTINUOUS
 10
2.740320
 20
1.541320
  0
SEQEND
  8
0
  0
SOLID
  8
0
 62
    15
 10
2.764080
 20
1.575640
 11
2.759240
 21
2.307800
 12
2.783440
 22
1.614800
 13
2.778600
 23
2.346960
  0
POLYLINE
  8
0
  6
CONTINUOUS
 66
     1
 40
0.000000
 41
0.000000
  0
VERTEX
  8
0
  6
CONTINUOUS
 10
2.764080
 20
1.575640
  0
VERTEX
  8
0
  6
CONTINUOUS
 10
2.759240
 20
2.307800
  0
VERTEX
  8
0
  6
CONTINUOUS
 10
2.778600
 20
2.346960
  0
VERTEX
  8
0
  6
CONTINUOUS
 10
2.783440
 20
1.614800
  0
VERTEX
  8
0
  6
CONTINUOUS
 10
2.764080
 20
1.575640
  0
SEQEND
  8
0
  0
SOLID
  8
0
 62
    15
 10
2.783440
 20
1.614800
 11
2.778600
 21
2.346960
 12
2.799280
 22
1.658360
 13
2.794440
 23
2.390520
  0
POLYLINE
  8
0
  6
CONTINUOUS
 66
     1
 40
0.000000
 41
0.000000
  0
VERTEX
  8
0
  6
CONTINUOUS
 10
2.783440
 20
1.614800
  0
VERTEX
  8
0
  6
CONTINUOUS
 10
2.778600
 20
2.346960
  0
VERTEX
  8
0
  6
CONTINUOUS
 10
2.794440
 20
2.390520
  0
VERTEX
  8
0
  6
CONTINUOUS
 10
2.799280
 20
1.658360
  0
VERTEX
  8
0
  6
CONTINUOUS
 10
2.783440
 20
1.614800
  0
SEQEND
  8
0
  0
SOLID
  8
0
 62
    15
 10
3.452680
 20
1.603800
 11
3.447840
 21
2.335960
 12
3.496680
 22
1.611720
 13
3.491840
 23
2.343880
  0
POLYLINE
  8
0
  6
CONTINUOUS
 66
     1
 40
0.000000
 41
0.000000
  0
VERTEX
  8
0
  6
CONTINUOUS
 10
3.452680
 20
1.603800
  0
VERTEX
  8
0
  6
CONTINUOUS
 10
3.447840
 20
2.335960
  0
VERTEX
  8
0
  6
CONTINUOUS
 10
3.491840
 20
2.343880
  0
VERTEX
  8
0
  6
CONTINUOUS
 10
3.496680
 20
1.611720
  0
VERTEX
  8
0
  6
CONTINUOUS
 10
3.452680
 20
1.603800
  0
SEQEND
  8
0
  0
SOLID
  8
0
 62
    15
 10
2.799280
 20
1.655720
 11
2.794440
 21
2.387880
 12
3.454000
 22
1.657040
 13
3.449160
 23
2.389200
  0
POLYLINE
  8
0
  6
CONTINUOUS
 66
     1
 40
0.000000
 41
0.000000
  0
VERTEX
  8
0
  6
CONTINUOUS
 10
2.799280
 20
1.655720
  0
VERTEX
  8
0
  6
CONTINUOUS
 10
2.794440
 20
2.387880
  0
VERTEX
  8
0
  6
CONTINUOUS
 10
3.449160
 20
2.389200
  0
VERTEX
  8
0
  6
CONTINUOUS
 10
3.454000
 20
1.657040
  0
VERTEX
  8
0
  6
CONTINUOUS
 10
2.799280
 20
1.655720
  0
SEQEND
  8
0
  0
SOLID
  8
0
 62
    15
 10
3.496680
 20
1.611720
 11
3.491840
 21
2.343880
 12
3.534960
 22
1.616120
 13
3.530120
 23
2.348720
  0
POLYLINE
  8
0
  6
CONTINUOUS
 66
     1
 40
0.000000
 41
0.000000
  0
VERTEX
  8
0
  6
CONTINUOUS
 10
3.496680
 20
1.611720
  0
VERTEX
  8
0
  6
CONTINUOUS
 10
3.491840
 20
2.343880
  0
VERTEX
  8
0
  6
CONTINUOUS
 10
3.530120
 20
2.348720
  0
VERTEX
  8
0
  6
CONTINUOUS
 10
3.534960
 20
1.616120
  0
VERTEX
  8
0
  6
CONTINUOUS
 10
3.496680
 20
1.611720
  0
SEQEND
  8
0
  0
SOLID
  8
0
 62
    15
 10
3.534960
 20
1.616120
 11
3.530120
 21
2.348720
 12
3.567520
 22
1.617440
 13
3.562680
 23
2.350040
  0
POLYLINE
  8
0
  6
CONTINUOUS
 66
     1
 40
0.000000
 41
0.000000
  0
VERTEX
  8
0
  6
CONTINUOUS
 10
3.534960
 20
1.616120
  0
VERTEX
  8
0
  6
CONTINUOUS
 10
3.530120
 20
2.348720
  0
VERTEX
  8
0
  6
CONTINUOUS
 10
3.562680
 20
2.350040
  0
VERTEX
  8
0
  6
CONTINUOUS
 10
3.567520
 20
1.617440
  0
VERTEX
  8
0
  6
CONTINUOUS
 10
3.534960
 20
1.616120
  0
SEQEND
  8
0
  0
SOLID
  8
0
 62
    15
 10
3.567520
 20
1.617440
 11
3.562680
 21
2.350040
 12
3.595240
 22
1.616120
 13
3.590400
 23
2.348280
  0
POLYLINE
  8
0
  6
CONTINUOUS
 66
     1
 40
0.000000
 41
0.000000
  0
VERTEX
  8
0
  6
CONTINUOUS
 10
3.567520
 20
1.617440
  0
VERTEX
  8
0
  6
CONTINUOUS
 10
3.562680
 20
2.350040
  0
VERTEX
  8
0
  6
CONTINUOUS
 10
3.590400
 20
2.348280
  0
VERTEX
  8
0
  6
CONTINUOUS
 10
3.595240
 20
1.616120
  0
VERTEX
  8
0
  6
CONTINUOUS
 10
3.567520
 20
1.617440
  0
SEQEND
  8
0
  0
SOLID
  8
0
 62
    15
 10
3.595240
 20
1.616120
 11
3.590400
 21
2.348280
 12
3.619440
 22
1.611720
 13
3.614600
 23
2.343880
  0
POLYLINE
  8
0
  6
CONTINUOUS
 66
     1
 40
0.000000
 41
0.000000
  0
VERTEX
  8
0
  6
CONTINUOUS
 10
3.595240
 20
1.616120
  0
VERTEX
  8
0
  6
CONTINUOUS
 10
3.590400
 20
2.348280
  0
VERTEX
  8
0
  6
CONTINUOUS
 10
3.614600
 20
2.343880
  0
VERTEX
  8
0
  6
CONTINUOUS
 10
3.619440
 20
1.611720
  0
VERTEX
  8
0
  6
CONTINUOUS
 10
3.595240
 20
1.616120
  0
SEQEND
  8
0
  0
SOLID
  8
0
 62
    15
 10
3.619440
 20
1.611720
 11
3.614600
 21
2.343880
 12
3.640120
 22
1.605120
 13
3.635280
 23
2.337280
  0
POLYLINE
  8
0
  6
CONTINUOUS
 66
     1
 40
0.000000
 41
0.000000
  0
VERTEX
  8
0
  6
CONTINUOUS
 10
3.619440
 20
1.611720
  0
VERTEX
  8
0
  6
CONTINUOUS
 10
3.614600
 20
2.343880
  0
VERTEX
  8
0
  6
CONTINUOUS
 10
3.635280
 20
2.337280
  0
VERTEX
  8
0
  6
CONTINUOUS
 10
3.640120
 20
1.605120
  0
VERTEX
  8
0
  6
CONTINUOUS
 10
3.619440
 20
1.611720
  0
SEQEND
  8
0
  0
SOLID
  8
0
 62
    15
 10
3.640120
 20
1.605120
 11
3.635280
 21
2.337280
 12
3.675760
 22
1.585760
 13
3.670920
 23
2.317920
  0
POLYLINE
  8
0
  6
CONTINUOUS
 66
     1
 40
0.000000
 41
0.000000
  0
VERTEX
  8
0
  6
CONTINUOUS
 10
3.640120
 20
1.605120
  0
VERTEX
  8
0
  6
CONTINUOUS
 10
3.635280
 20
2.337280
  0
VERTEX
  8
0
  6
CONTINUOUS
 10
3.670920
 20
2.317920
  0
VERTEX
  8
0
  6
CONTINUOUS
 10
3.675760
 20
1.585760
  0
VERTEX
  8
0
  6
CONTINUOUS
 10
3.640120
 20
1.605120
  0
SEQEND
  8
0
  0
SOLID
  8
0
 62
    15
 10
3.675760
 20
1.585760
 11
3.670920
 21
2.317920
 12
3.707880
 22
1.560240
 13
3.703040
 23
2.292400
  0
POLYLINE
  8
0
  6
CONTINUOUS
 66
     1
 40
0.000000
 41
0.000000
  0
VERTEX
  8
0
  6
CONTINUOUS
 10
3.675760
 20
1.585760
  0
VERTEX
  8
0
  6
CONTINUOUS
 10
3.670920
 20
2.317920
  0
VERTEX
  8
0
  6
CONTINUOUS
 10
3.703040
 20
2.292400
  0
VERTEX
  8
0
  6
CONTINUOUS
 10
3.707880
 20
1.560240
  0
VERTEX
  8
0
  6
CONTINUOUS
 10
3.675760
 20
1.585760
  0
SEQEND
  8
0
  0
SOLID
  8
0
 62
    15
 10
3.707880
 20
1.560240
 11
3.703040
 21
2.292400
 12
3.743520
 22
1.530320
 13
3.738680
 23
2.262480
  0
POLYLINE
  8
0
  6
CONTINUOUS
 66
     1
 40
0.000000
 41
0.000000
  0
VERTEX
  8
0
  6
CONTINUOUS
 10
3.707880
 20
1.560240
  0
VERTEX
  8
0
  6
CONTINUOUS
 10
3.703040
 20
2.292400
  0
VERTEX
  8
0
  6
CONTINUOUS
 10
3.738680
 20
2.262480
  0
VERTEX
  8
0
  6
CONTINUOUS
 10
3.743520
 20
1.530320
  0
VERTEX
  8
0
  6
CONTINUOUS
 10
3.707880
 20
1.560240
  0
SEQEND
  8
0
  0
SOLID
  8
0
 62
    15
 10
3.743520
 20
1.530320
 11
3.738680
 21
2.262480
 12
3.788840
 22
1.498200
 13
3.784000
 23
2.230360
  0
POLYLINE
  8
0
  6
CONTINUOUS
 66
     1
 40
0.000000
 41
0.000000
  0
VERTEX
  8
0
  6
CONTINUOUS
 10
3.743520
 20
1.530320
  0
VERTEX
  8
0
  6
CONTINUOUS
 10
3.738680
 20
2.262480
  0
VERTEX
  8
0
  6
CONTINUOUS
 10
3.784000
 20
2.230360
  0
VERTEX
  8
0
  6
CONTINUOUS
 10
3.788840
 20
1.498200
  0
VERTEX
  8
0
  6
CONTINUOUS
 10
3.743520
 20
1.530320
  0
SEQEND
  8
0
  0
SOLID
  8
0
 62
    15
 10
3.788840
 20
1.498200
 11
3.784000
 21
2.230360
 12
3.817000
 22
1.482360
 13
3.812160
 23
2.214520
  0
POLYLINE
  8
0
  6
CONTINUOUS
 66
     1
 40
0.000000
 41
0.000000
  0
VERTEX
  8
0
  6
CONTINUOUS
 10
3.788840
 20
1.498200
  0
VERTEX
  8
0
  6
CONTINUOUS
 10
3.784000
 20
2.230360
  0
VERTEX
  8
0
  6
CONTINUOUS
 10
3.812160
 20
2.214520
  0
VERTEX
  8
0
  6
CONTINUOUS
 10
3.817000
 20
1.482360
  0
VERTEX
  8
0
  6
CONTINUOUS
 10
3.788840
 20
1.498200
  0
SEQEND
  8
0
  0
SOLID
  8
0
 62
    15
 10
3.817000
 20
1.482360
 11
3.812160
 21
2.214520
 12
3.850000
 22
1.466520
 13
3.845160
 23
2.198680
  0
POLYLINE
  8
0
  6
CONTINUOUS
 66
     1
 40
0.000000
 41
0.000000
  0
VERTEX
  8
0
  6
CONTINUOUS
 10
3.817000
 20
1.482360
  0
VERTEX
  8
0
  6
CONTINUOUS
 10
3.812160
 20
2.214520
  0
VERTEX
  8
0
  6
CONTINUOUS
 10
3.845160
 20
2.198680
  0
VERTEX
  8
0
  6
CONTINUOUS
 10
3.850000
 20
1.466520
  0
VERTEX
  8
0
  6
CONTINUOUS
 10
3.817000
 20
1.482360
  0
SEQEND
  8
0
  0
SOLID
  8
0
 62
    15
 10
3.850000
 20
1.466520
 11
3.845160
 21
2.198680
 12
3.916440
 22
1.439680
 13
3.911600
 23
2.172280
  0
POLYLINE
  8
0
  6
CONTINUOUS
 66
     1
 40
0.000000
 41
0.000000
  0
VERTEX
  8
0
  6
CONTINUOUS
 10
3.850000
 20
1.466520
  0
VERTEX
  8
0
  6
CONTINUOUS
 10
3.845160
 20
2.198680
  0
VERTEX
  8
0
  6
CONTINUOUS
 10
3.911600
 20
2.172280
  0
VERTEX
  8
0
  6
CONTINUOUS
 10
3.916440
 20
1.439680
  0
VERTEX
  8
0
  6
CONTINUOUS
 10
3.850000
 20
1.466520
  0
SEQEND
  8
0
  0
SOLID
  8
0
 62
    15
 10
3.916440
 20
1.439680
 11
3.911600
 21
2.172280
 12
3.974960
 22
1.420760
 13
3.970120
 23
2.153360
  0
POLYLINE
  8
0
  6
CONTINUOUS
 66
     1
 40
0.000000
 41
0.000000
  0
VERTEX
  8
0
  6
CONTINUOUS
 10
3.916440
 20
1.439680
  0
VERTEX
  8
0
  6
CONTINUOUS
 10
3.911600
 20
2.172280
  0
VERTEX
  8
0
  6
CONTINUOUS
 10
3.970120
 20
2.153360
  0
VERTEX
  8
0
  6
CONTINUOUS
 10
3.974960
 20
1.420760
  0
VERTEX
  8
0
  6
CONTINUOUS
 10
3.916440
 20
1.439680
  0
SEQEND
  8
0
  0
SOLID
  8
0
 62
    15
 10
3.974960
 20
1.420760
 11
3.970120
 21
2.153360
 12
4.026440
 22
1.408440
 13
4.021600
 23
2.140600
  0
POLYLINE
  8
0
  6
CONTINUOUS
 66
     1
 40
0.000000
 41
0.000000
  0
VERTEX
  8
0
  6
CONTINUOUS
 10
3.974960
 20
1.420760
  0
VERTEX
  8
0
  6
CONTINUOUS
 10
3.970120
 20
2.153360
  0
VERTEX
  8
0
  6
CONTINUOUS
 10
4.021600
 20
2.140600
  0
VERTEX
  8
0
  6
CONTINUOUS
 10
4.026440
 20
1.408440
  0
VERTEX
  8
0
  6
CONTINUOUS
 10
3.974960
 20
1.420760
  0
SEQEND
  8
0
  0
SOLID
  8
0
 62
    15
 10
4.026440
 20
1.408440
 11
4.021600
 21
2.140600
 12
4.071320
 22
1.400960
 13
4.066480
 23
2.133560
  0
POLYLINE
  8
0
  6
CONTINUOUS
 66
     1
 40
0.000000
 41
0.000000
  0
VERTEX
  8
0
  6
CONTINUOUS
 10
4.026440
 20
1.408440
  0
VERTEX
  8
0
  6
CONTINUOUS
 10
4.021600
 20
2.140600
  0
VERTEX
  8
0
  6
CONTINUOUS
 10
4.066480
 20
2.133560
  0
VERTEX
  8
0
  6
CONTINUOUS
 10
4.071320
 20
1.400960
  0
VERTEX
  8
0
  6
CONTINUOUS
 10
4.026440
 20
1.408440
  0
SEQEND
  8
0
  0
SOLID
  8
0
 62
    15
 10
4.071320
 20
1.400960
 11
4.066480
 21
2.133560
 12
4.111360
 22
1.397440
 13
4.106520
 23
2.130040
  0
POLYLINE
  8
0
  6
CONTINUOUS
 66
     1
 40
0.000000
 41
0.000000
  0
VERTEX
  8
0
  6
CONTINUOUS
 10
4.071320
 20
1.400960
  0
VERTEX
  8
0
  6
CONTINUOUS
 10
4.066480
 20
2.133560
  0
VERTEX
  8
0
  6
CONTINUOUS
 10
4.106520
 20
2.130040
  0
VERTEX
  8
0
  6
CONTINUOUS
 10
4.111360
 20
1.397440
  0
VERTEX
  8
0
  6
CONTINUOUS
 10
4.071320
 20
1.400960
  0
SEQEND
  8
0
  0
SOLID
  8
0
 62
    15
 10
4.111360
 20
1.397440
 11
4.106520
 21
2.130040
 12
4.146560
 22
1.396120
 13
4.141720
 23
2.128720
  0
POLYLINE
  8
0
  6
CONTINUOUS
 66
     1
 40
0.000000
 41
0.000000
  0
VERTEX
  8
0
  6
CONTINUOUS
 10
4.111360
 20
1.397440
  0
VERTEX
  8
0
  6
CONTINUOUS
 10
4.106520
 20
2.130040
  0
VERTEX
  8
0
  6
CONTINUOUS
 10
4.141720
 20
2.128720
  0
VERTEX
  8
0
  6
CONTINUOUS
 10
4.146560
 20
1.396120
  0
VERTEX
  8
0
  6
CONTINUOUS
 10
4.111360
 20
1.397440
  0
SEQEND
  8
0
  0
SOLID
  8
0
 62
    15
 10
4.146560
 20
1.396120
 11
4.141720
 21
2.128720
 12
4.178240
 22
1.396120
 13
4.173400
 23
2.128280
  0
POLYLINE
  8
0
  6
CONTINUOUS
 66
     1
 40
0.000000
 41
0.000000
  0
VERTEX
  8
0
  6
CONTINUOUS
 10
4.146560
 20
1.396120
  0
VERTEX
  8
0
  6
CONTINUOUS
 10
4.141720
 20
2.128720
  0
VERTEX
  8
0
  6
CONTINUOUS
 10
4.173400
 20
2.128280
  0
VERTEX
  8
0
  6
CONTINUOUS
 10
4.178240
 20
1.396120
  0
VERTEX
  8
0
  6
CONTINUOUS
 10
4.146560
 20
1.396120
  0
SEQEND
  8
0
  0
SOLID
  8
0
 62
    15
 10
4.178240
 20
1.396120
 11
4.173400
 21
2.128280
 12
4.207280
 22
1.395680
 13
4.202440
 23
2.128280
  0
POLYLINE
  8
0
  6
CONTINUOUS
 66
     1
 40
0.000000
 41
0.000000
  0
VERTEX
  8
0
  6
CONTINUOUS
 10
4.178240
 20
1.396120
  0
VERTEX
  8
0
  6
CONTINUOUS
 10
4.173400
 20
2.128280
  0
VERTEX
  8
0
  6
CONTINUOUS
 10
4.202440
 20
2.128280
  0
VERTEX
  8
0
  6
CONTINUOUS
 10
4.207280
 20
1.395680
  0
VERTEX
  8
0
  6
CONTINUOUS
 10
4.178240
 20
1.396120
  0
SEQEND
  8
0
  0
SOLID
  8
0
 62
    15
 10
4.207280
 20
1.395680
 11
4.202440
 21
2.128280
 12
4.211680
 22
1.390400
 13
4.206840
 23
2.122560
  0
POLYLINE
  8
0
  6
CONTINUOUS
 66
     1
 40
0.000000
 41
0.000000
  0
VERTEX
  8
0
  6
CONTINUOUS
 10
4.207280
 20
1.395680
  0
VERTEX
  8
0
  6
CONTINUOUS
 10
4.202440
 20
2.128280
  0
VERTEX
  8
0
  6
CONTINUOUS
 10
4.206840
 20
2.122560
  0
VERTEX
  8
0
  6
CONTINUOUS
 10
4.211680
 20
1.390400
  0
VERTEX
  8
0
  6
CONTINUOUS
 10
4.207280
 20
1.395680
  0
SEQEND
  8
0
  0
SOLID
  8
0
 62
    15
 10
4.211680
 20
1.390400
 11
4.206840
 21
2.122560
 12
4.214760
 22
1.383800
 13
4.209920
 23
2.115960
  0
POLYLINE
  8
0
  6
CONTINUOUS
 66
     1
 40
0.000000
 41
0.000000
  0
VERTEX
  8
0
  6
CONTINUOUS
 10
4.211680
 20
1.390400
  0
VERTEX
  8
0
  6
CONTINUOUS
 10
4.206840
 20
2.122560
  0
VERTEX
  8
0
  6
CONTINUOUS
 10
4.209920
 20
2.115960
  0
VERTEX
  8
0
  6
CONTINUOUS
 10
4.214760
 20
1.383800
  0
VERTEX
  8
0
  6
CONTINUOUS
 10
4.211680
 20
1.390400
  0
SEQEND
  8
0
  0
SOLID
  8
0
 62
    15
 10
4.214760
 20
1.383800
 11
4.209920
 21
2.115960
 12
4.219600
 22
1.375440
 13
4.214760
 23
2.107600
  0
POLYLINE
  8
0
  6
CONTINUOUS
 66
     1
 40
0.000000
 41
0.000000
  0
VERTEX
  8
0
  6
CONTINUOUS
 10
4.214760
 20
1.383800
  0
VERTEX
  8
0
  6
CONTINUOUS
 10
4.209920
 20
2.115960
  0
VERTEX
  8
0
  6
CONTINUOUS
 10
4.214760
 20
2.107600
  0
VERTEX
  8
0
  6
CONTINUOUS
 10
4.219600
 20
1.375440
  0
VERTEX
  8
0
  6
CONTINUOUS
 10
4.214760
 20
1.383800
  0
SEQEND
  8
0
  0
SOLID
  8
0
 62
    15
 10
4.219600
 20
1.375440
 11
4.214760
 21
2.107600
 12
4.233680
 22
1.356080
 13
4.228840
 23
2.088680
  0
POLYLINE
  8
0
  6
CONTINUOUS
 66
     1
 40
0.000000
 41
0.000000
  0
VERTEX
  8
0
  6
CONTINUOUS
 10
4.219600
 20
1.375440
  0
VERTEX
  8
0
  6
CONTINUOUS
 10
4.214760
 20
2.107600
  0
VERTEX
  8
0
  6
CONTINUOUS
 10
4.228840
 20
2.088680
  0
VERTEX
  8
0
  6
CONTINUOUS
 10
4.233680
 20
1.356080
  0
VERTEX
  8
0
  6
CONTINUOUS
 10
4.219600
 20
1.375440
  0
SEQEND
  8
0
  0
SOLID
  8
0
 62
    15
 10
4.233680
 20
1.356080
 11
4.228840
 21
2.088680
 12
4.257440
 22
1.339360
 13
4.252600
 23
2.071960
  0
POLYLINE
  8
0
  6
CONTINUOUS
 66
     1
 40
0.000000
 41
0.000000
  0
VERTEX
  8
0
  6
CONTINUOUS
 10
4.233680
 20
1.356080
  0
VERTEX
  8
0
  6
CONTINUOUS
 10
4.228840
 20
2.088680
  0
VERTEX
  8
0
  6
CONTINUOUS
 10
4.252600
 20
2.071960
  0
VERTEX
  8
0
  6
CONTINUOUS
 10
4.257440
 20
1.339360
  0
VERTEX
  8
0
  6
CONTINUOUS
 10
4.233680
 20
1.356080
  0
SEQEND
  8
0
  0
SOLID
  8
0
 62
    15
 10
4.257440
 20
1.339360
 11
4.252600
 21
2.071960
 12
4.273720
 22
1.333640
 13
4.268880
 23
2.065800
  0
POLYLINE
  8
0
  6
CONTINUOUS
 66
     1
 40
0.000000
 41
0.000000
  0
VERTEX
  8
0
  6
CONTINUOUS
 10
4.257440
 20
1.339360
  0
VERTEX
  8
0
  6
CONTINUOUS
 10
4.252600
 20
2.071960
  0
VERTEX
  8
0
  6
CONTINUOUS
 10
4.268880
 20
2.065800
  0
VERTEX
  8
0
  6
CONTINUOUS
 10
4.273720
 20
1.333640
  0
VERTEX
  8
0
  6
CONTINUOUS
 10
4.257440
 20
1.339360
  0
SEQEND
  8
0
  0
SOLID
  8
0
 62
    15
 10
4.273720
 20
1.333640
 11
4.268880
 21
2.065800
 12
4.293520
 22
1.330560
 13
4.288680
 23
2.063160
  0
POLYLINE
  8
0
  6
CONTINUOUS
 66
     1
 40
0.000000
 41
0.000000
  0
VERTEX
  8
0
  6
CONTINUOUS
 10
4.273720
 20
1.333640
  0
VERTEX
  8
0
  6
CONTINUOUS
 10
4.268880
 20
2.065800
  0
VERTEX
  8
0
  6
CONTINUOUS
 10
4.288680
 20
2.063160
  0
VERTEX
  8
0
  6
CONTINUOUS
 10
4.293520
 20
1.330560
  0
VERTEX
  8
0
  6
CONTINUOUS
 10
4.273720
 20
1.333640
  0
SEQEND
  8
0
  0
SOLID
  8
0
 62
    15
 10
4.293520
 20
1.330560
 11
4.288680
 21
2.063160
 12
4.316840
 22
1.331440
 13
4.312000
 23
2.063600
  0
POLYLINE
  8
0
  6
CONTINUOUS
 66
     1
 40
0.000000
 41
0.000000
  0
VERTEX
  8
0
  6
CONTINUOUS
 10
4.293520
 20
1.330560
  0
VERTEX
  8
0
  6
CONTINUOUS
 10
4.288680
 20
2.063160
  0
VERTEX
  8
0
  6
CONTINUOUS
 10
4.312000
 20
2.063600
  0
VERTEX
  8
0
  6
CONTINUOUS
 10
4.316840
 20
1.331440
  0
VERTEX
  8
0
  6
CONTINUOUS
 10
4.293520
 20
1.330560
  0
SEQEND
  8
0
  0
SOLID
  8
0
 62
    15
 10
4.316840
 20
1.331440
 11
4.312000
 21
2.063600
 12
4.344120
 22
1.336280
 13
4.339280
 23
2.068440
  0
POLYLINE
  8
0
  6
CONTINUOUS
 66
     1
 40
0.000000
 41
0.000000
  0
VERTEX
  8
0
  6
CONTINUOUS
 10
4.316840
 20
1.331440
  0
VERTEX
  8
0
  6
CONTINUOUS
 10
4.312000
 20
2.063600
  0
VERTEX
  8
0
  6
CONTINUOUS
 10
4.339280
 20
2.068440
  0
VERTEX
  8
0
  6
CONTINUOUS
 10
4.344120
 20
1.336280
  0
VERTEX
  8
0
  6
CONTINUOUS
 10
4.316840
 20
1.331440
  0
SEQEND
  8
0
  0
SOLID
  8
0
 62
    15
 10
4.344120
 20
1.336280
 11
4.339280
 21
2.068440
 12
4.375800
 22
1.345960
 13
4.370960
 23
2.078120
  0
POLYLINE
  8
0
  6
CONTINUOUS
 66
     1
 40
0.000000
 41
0.000000
  0
VERTEX
  8
0
  6
CONTINUOUS
 10
4.344120
 20
1.336280
  0
VERTEX
  8
0
  6
CONTINUOUS
 10
4.339280
 20
2.068440
  0
VERTEX
  8
0
  6
CONTINUOUS
 10
4.370960
 20
2.078120
  0
VERTEX
  8
0
  6
CONTINUOUS
 10
4.375800
 20
1.345960
  0
VERTEX
  8
0
  6
CONTINUOUS
 10
4.344120
 20
1.336280
  0
SEQEND
  8
0
  0
SOLID
  8
0
 62
    15
 10
4.375800
 20
1.345960
 11
4.370960
 21
2.078120
 12
4.412760
 22
1.361800
 13
4.407920
 23
2.093960
  0
POLYLINE
  8
0
  6
CONTINUOUS
 66
     1
 40
0.000000
 41
0.000000
  0
VERTEX
  8
0
  6
CONTINUOUS
 10
4.375800
 20
1.345960
  0
VERTEX
  8
0
  6
CONTINUOUS
 10
4.370960
 20
2.078120
  0
VERTEX
  8
0
  6
CONTINUOUS
 10
4.407920
 20
2.093960
  0
VERTEX
  8
0
  6
CONTINUOUS
 10
4.412760
 20
1.361800
  0
VERTEX
  8
0
  6
CONTINUOUS
 10
4.375800
 20
1.345960
  0
SEQEND
  8
0
  0
SOLID
  8
0
 62
    15
 10
4.412760
 20
1.361800
 11
4.407920
 21
2.093960
 12
4.454560
 22
1.383800
 13
4.449720
 23
2.115960
  0
POLYLINE
  8
0
  6
CONTINUOUS
 66
     1
 40
0.000000
 41
0.000000
  0
VERTEX
  8
0
  6
CONTINUOUS
 10
4.412760
 20
1.361800
  0
VERTEX
  8
0
  6
CONTINUOUS
 10
4.407920
 20
2.093960
  0
VERTEX
  8
0
  6
CONTINUOUS
 10
4.449720
 20
2.115960
  0
VERTEX
  8
0
  6
CONTINUOUS
 10
4.454560
 20
1.383800
  0
VERTEX
  8
0
  6
CONTINUOUS
 10
4.412760
 20
1.361800
  0
SEQEND
  8
0
  0
SOLID
  8
0
 62
    15
 10
4.454560
 20
1.383800
 11
4.449720
 21
2.115960
 12
4.502080
 22
1.413280
 13
4.497240
 23
2.145440
  0
POLYLINE
  8
0
  6
CONTINUOUS
 66
     1
 40
0.000000
 41
0.000000
  0
VERTEX
  8
0
  6
CONTINUOUS
 10
4.454560
 20
1.383800
  0
VERTEX
  8
0
  6
CONTINUOUS
 10
4.449720
 20
2.115960
  0
VERTEX
  8
0
  6
CONTINUOUS
 10
4.497240
 20
2.145440
  0
VERTEX
  8
0
  6
CONTINUOUS
 10
4.502080
 20
1.413280
  0
VERTEX
  8
0
  6
CONTINUOUS
 10
4.454560
 20
1.383800
  0
SEQEND
  8
0
  0
SOLID
  8
0
 62
    15
 10
4.502080
 20
1.413280
 11
4.497240
 21
2.145440
 12
4.543880
 22
1.438360
 13
4.538600
 23
2.170520
  0
POLYLINE
  8
0
  6
CONTINUOUS
 66
     1
 40
0.000000
 41
0.000000
  0
VERTEX
  8
0
  6
CONTINUOUS
 10
4.502080
 20
1.413280
  0
VERTEX
  8
0
  6
CONTINUOUS
 10
4.497240
 20
2.145440
  0
VERTEX
  8
0
  6
CONTINUOUS
 10
4.538600
 20
2.170520
  0
VERTEX
  8
0
  6
CONTINUOUS
 10
4.543880
 20
1.438360
  0
VERTEX
  8
0
  6
CONTINUOUS
 10
4.502080
 20
1.413280
  0
SEQEND
  8
0
  0
SOLID
  8
0
 62
    15
 10
4.543880
 20
1.438360
 11
4.538600
 21
2.170520
 12
4.582160
 22
1.456400
 13
4.577320
 23
2.188560
  0
POLYLINE
  8
0
  6
CONTINUOUS
 66
     1
 40
0.000000
 41
0.000000
  0
VERTEX
  8
0
  6
CONTINUOUS
 10
4.543880
 20
1.438360
  0
VERTEX
  8
0
  6
CONTINUOUS
 10
4.538600
 20
2.170520
  0
VERTEX
  8
0
  6
CONTINUOUS
 10
4.577320
 20
2.188560
  0
VERTEX
  8
0
  6
CONTINUOUS
 10
4.582160
 20
1.456400
  0
VERTEX
  8
0
  6
CONTINUOUS
 10
4.543880
 20
1.438360
  0
SEQEND
  8
0
  0
SOLID
  8
0
 62
    15
 10
4.582160
 20
1.456400
 11
4.577320
 21
2.188560
 12
4.617360
 22
1.468720
 13
4.612520
 23
2.200880
  0
POLYLINE
  8
0
  6
CONTINUOUS
 66
     1
 40
0.000000
 41
0.000000
  0
VERTEX
  8
0
  6
CONTINUOUS
 10
4.582160
 20
1.456400
  0
VERTEX
  8
0
  6
CONTINUOUS
 10
4.577320
 20
2.188560
  0
VERTEX
  8
0
  6
CONTINUOUS
 10
4.612520
 20
2.200880
  0
VERTEX
  8
0
  6
CONTINUOUS
 10
4.617360
 20
1.468720
  0
VERTEX
  8
0
  6
CONTINUOUS
 10
4.582160
 20
1.456400
  0
SEQEND
  8
0
  0
SOLID
  8
0
 62
    15
 10
4.617360
 20
1.468720
 11
4.612520
 21
2.200880
 12
4.649480
 22
1.474880
 13
4.644640
 23
2.207480
  0
POLYLINE
  8
0
  6
CONTINUOUS
 66
     1
 40
0.000000
 41
0.000000
  0
VERTEX
  8
0
  6
CONTINUOUS
 10
4.617360
 20
1.468720
  0
VERTEX
  8
0
  6
CONTINUOUS
 10
4.612520
 20
2.200880
  0
VERTEX
  8
0
  6
CONTINUOUS
 10
4.644640
 20
2.207480
  0
VERTEX
  8
0
  6
CONTINUOUS
 10
4.649480
 20
1.474880
  0
VERTEX
  8
0
  6
CONTINUOUS
 10
4.617360
 20
1.468720
  0
SEQEND
  8
0
  0
SOLID
  8
0
 62
    15
 10
4.649480
 20
1.474880
 11
4.644640
 21
2.207480
 12
4.678520
 22
1.476640
 13
4.673680
 23
2.209240
  0
POLYLINE
  8
0
  6
CONTINUOUS
 66
     1
 40
0.000000
 41
0.000000
  0
VERTEX
  8
0
  6
CONTINUOUS
 10
4.649480
 20
1.474880
  0
VERTEX
  8
0
  6
CONTINUOUS
 10
4.644640
 20
2.207480
  0
VERTEX
  8
0
  6
CONTINUOUS
 10
4.673680
 20
2.209240
  0
VERTEX
  8
0
  6
CONTINUOUS
 10
4.678520
 20
1.476640
  0
VERTEX
  8
0
  6
CONTINUOUS
 10
4.649480
 20
1.474880
  0
SEQEND
  8
0
  0
SOLID
  8
0
 62
    15
 10
4.678520
 20
1.476640
 11
4.673680
 21
2.209240
 12
4.704920
 22
1.474440
 13
4.700080
 23
2.206600
  0
POLYLINE
  8
0
  6
CONTINUOUS
 66
     1
 40
0.000000
 41
0.000000
  0
VERTEX
  8
0
  6
CONTINUOUS
 10
4.678520
 20
1.476640
  0
VERTEX
  8
0
  6
CONTINUOUS
 10
4.673680
 20
2.209240
  0
VERTEX
  8
0
  6
CONTINUOUS
 10
4.700080
 20
2.206600
  0
VERTEX
  8
0
  6
CONTINUOUS
 10
4.704920
 20
1.474440
  0
VERTEX
  8
0
  6
CONTINUOUS
 10
4.678520
 20
1.476640
  0
SEQEND
  8
0
  0
SOLID
  8
0
 62
    15
 10
4.704920
 20
1.474440
 11
4.700080
 21
2.206600
 12
4.728240
 22
1.468280
 13
4.723400
 23
2.200440
  0
POLYLINE
  8
0
  6
CONTINUOUS
 66
     1
 40
0.000000
 41
0.000000
  0
VERTEX
  8
0
  6
CONTINUOUS
 10
4.704920
 20
1.474440
  0
VERTEX
  8
0
  6
CONTINUOUS
 10
4.700080
 20
2.206600
  0
VERTEX
  8
0
  6
CONTINUOUS
 10
4.723400
 20
2.200440
  0
VERTEX
  8
0
  6
CONTINUOUS
 10
4.728240
 20
1.468280
  0
VERTEX
  8
0
  6
CONTINUOUS
 10
4.704920
 20
1.474440
  0
SEQEND
  8
0
  0
SOLID
  8
0
 62
    15
 10
4.728240
 20
1.468280
 11
4.723400
 21
2.200440
 12
4.749360
 22
1.459480
 13
4.744520
 23
2.192080
  0
POLYLINE
  8
0
  6
CONTINUOUS
 66
     1
 40
0.000000
 41
0.000000
  0
VERTEX
  8
0
  6
CONTINUOUS
 10
4.728240
 20
1.468280
  0
VERTEX
  8
0
  6
CONTINUOUS
 10
4.723400
 20
2.200440
  0
VERTEX
  8
0
  6
CONTINUOUS
 10
4.744520
 20
2.192080
  0
VERTEX
  8
0
  6
CONTINUOUS
 10
4.749360
 20
1.459480
  0
VERTEX
  8
0
  6
CONTINUOUS
 10
4.728240
 20
1.468280
  0
SEQEND
  8
0
  0
SOLID
  8
0
 62
    15
 10
4.749360
 20
1.459480
 11
4.744520
 21
2.192080
 12
4.784120
 22
1.436160
 13
4.779280
 23
2.168760
  0
POLYLINE
  8
0
  6
CONTINUOUS
 66
     1
 40
0.000000
 41
0.000000
  0
VERTEX
  8
0
  6
CONTINUOUS
 10
4.749360
 20
1.459480
  0
VERTEX
  8
0
  6
CONTINUOUS
 10
4.744520
 20
2.192080
  0
VERTEX
  8
0
  6
CONTINUOUS
 10
4.779280
 20
2.168760
  0
VERTEX
  8
0
  6
CONTINUOUS
 10
4.784120
 20
1.436160
  0
VERTEX
  8
0
  6
CONTINUOUS
 10
4.749360
 20
1.459480
  0
SEQEND
  8
0
  0
SOLID
  8
0
 62
    15
 10
4.784120
 20
1.436160
 11
4.779280
 21
2.168760
 12
4.810520
 22
1.409760
 13
4.805680
 23
2.142360
  0
POLYLINE
  8
0
  6
CONTINUOUS
 66
     1
 40
0.000000
 41
0.000000
  0
VERTEX
  8
0
  6
CONTINUOUS
 10
4.784120
 20
1.436160
  0
VERTEX
  8
0
  6
CONTINUOUS
 10
4.779280
 20
2.168760
  0
VERTEX
  8
0
  6
CONTINUOUS
 10
4.805680
 20
2.142360
  0
VERTEX
  8
0
  6
CONTINUOUS
 10
4.810520
 20
1.409760
  0
VERTEX
  8
0
  6
CONTINUOUS
 10
4.784120
 20
1.436160
  0
SEQEND
  8
0
  0
SOLID
  8
0
 62
    15
 10
4.810520
 20
1.409760
 11
4.805680
 21
2.142360
 12
4.829440
 22
1.385560
 13
4.824600
 23
2.118160
  0
POLYLINE
  8
0
  6
CONTINUOUS
 66
     1
 40
0.000000
 41
0.000000
  0
VERTEX
  8
0
  6
CONTINUOUS
 10
4.810520
 20
1.409760
  0
VERTEX
  8
0
  6
CONTINUOUS
 10
4.805680
 20
2.142360
  0
VERTEX
  8
0
  6
CONTINUOUS
 10
4.824600
 20
2.118160
  0
VERTEX
  8
0
  6
CONTINUOUS
 10
4.829440
 20
1.385560
  0
VERTEX
  8
0
  6
CONTINUOUS
 10
4.810520
 20
1.409760
  0
SEQEND
  8
0
  0
SOLID
  8
0
 62
    15
 10
4.829440
 20
1.385560
 11
4.824600
 21
2.118160
 12
4.836480
 22
1.376320
 13
4.831640
 23
2.108480
  0
POLYLINE
  8
0
  6
CONTINUOUS
 66
     1
 40
0.000000
 41
0.000000
  0
VERTEX
  8
0
  6
CONTINUOUS
 10
4.829440
 20
1.385560
  0
VERTEX
  8
0
  6
CONTINUOUS
 10
4.824600
 20
2.118160
  0
VERTEX
  8
0
  6
CONTINUOUS
 10
4.831640
 20
2.108480
  0
VERTEX
  8
0
  6
CONTINUOUS
 10
4.836480
 20
1.376320
  0
VERTEX
  8
0
  6
CONTINUOUS
 10
4.829440
 20
1.385560
  0
SEQEND
  8
0
  0
SOLID
  8
0
 62
    15
 10
4.836480
 20
1.376320
 11
4.831640
 21
2.108480
 12
4.841760
 22
1.369280
 13
4.836920
 23
2.101440
  0
POLYLINE
  8
0
  6
CONTINUOUS
 66
     1
 40
0.000000
 41
0.000000
  0
VERTEX
  8
0
  6
CONTINUOUS
 10
4.836480
 20
1.376320
  0
VERTEX
  8
0
  6
CONTINUOUS
 10
4.831640
 20
2.108480
  0
VERTEX
  8
0
  6
CONTINUOUS
 10
4.836920
 20
2.101440
  0
VERTEX
  8
0
  6
CONTINUOUS
 10
4.841760
 20
1.369280
  0
VERTEX
  8
0
  6
CONTINUOUS
 10
4.836480
 20
1.376320
  0
SEQEND
  8
0
  0
SOLID
  8
0
 62
    15
 10
4.841760
 20
1.369280
 11
4.836920
 21
2.101440
 12
4.850120
 22
1.367520
 13
4.845280
 23
2.100120
  0
POLYLINE
  8
0
  6
CONTINUOUS
 66
     1
 40
0.000000
 41
0.000000
  0
VERTEX
  8
0
  6
CONTINUOUS
 10
4.841760
 20
1.369280
  0
VERTEX
  8
0
  6
CONTINUOUS
 10
4.836920
 20
2.101440
  0
VERTEX
  8
0
  6
CONTINUOUS
 10
4.845280
 20
2.100120
  0
VERTEX
  8
0
  6
CONTINUOUS
 10
4.850120
 20
1.367520
  0
VERTEX
  8
0
  6
CONTINUOUS
 10
4.841760
 20
1.369280
  0
SEQEND
  8
0
  0
SOLID
  8
0
 62
    15
 10
4.850120
 20
1.367520
 11
4.845280
 21
2.100120
 12
4.857160
 22
1.370600
 13
4.852320
 23
2.102760
  0
POLYLINE
  8
0
  6
CONTINUOUS
 66
     1
 40
0.000000
 41
0.000000
  0
VERTEX
  8
0
  6
CONTINUOUS
 10
4.850120
 20
1.367520
  0
VERTEX
  8
0
  6
CONTINUOUS
 10
4.845280
 20
2.100120
  0
VERTEX
  8
0
  6
CONTINUOUS
 10
4.852320
 20
2.102760
  0
VERTEX
  8
0
  6
CONTINUOUS
 10
4.857160
 20
1.370600
  0
VERTEX
  8
0
  6
CONTINUOUS
 10
4.850120
 20
1.367520
  0
SEQEND
  8
0
  0
SOLID
  8
0
 62
    15
 10
4.857160
 20
1.370600
 11
4.852320
 21
2.102760
 12
4.869920
 22
1.386880
 13
4.865080
 23
2.119040
  0
POLYLINE
  8
0
  6
CONTINUOUS
 66
     1
 40
0.000000
 41
0.000000
  0
VERTEX
  8
0
  6
CONTINUOUS
 10
4.857160
 20
1.370600
  0
VERTEX
  8
0
  6
CONTINUOUS
 10
4.852320
 20
2.102760
  0
VERTEX
  8
0
  6
CONTINUOUS
 10
4.865080
 20
2.119040
  0
VERTEX
  8
0
  6
CONTINUOUS
 10
4.869920
 20
1.386880
  0
VERTEX
  8
0
  6
CONTINUOUS
 10
4.857160
 20
1.370600
  0
SEQEND
  8
0
  0
SOLID
  8
0
 62
    15
 10
4.869920
 20
1.386880
 11
4.865080
 21
2.119040
 12
4.876520
 22
1.399200
 13
4.871680
 23
2.131360
  0
POLYLINE
  8
0
  6
CONTINUOUS
 66
     1
 40
0.000000
 41
0.000000
  0
VERTEX
  8
0
  6
CONTINUOUS
 10
4.869920
 20
1.386880
  0
VERTEX
  8
0
  6
CONTINUOUS
 10
4.865080
 20
2.119040
  0
VERTEX
  8
0
  6
CONTINUOUS
 10
4.871680
 20
2.131360
  0
VERTEX
  8
0
  6
CONTINUOUS
 10
4.876520
 20
1.399200
  0
VERTEX
  8
0
  6
CONTINUOUS
 10
4.869920
 20
1.386880
  0
SEQEND
  8
0
  0
SOLID
  8
0
 62
    15
 10
4.876520
 20
1.399200
 11
4.871680
 21
2.131360
 12
4.883120
 22
1.413280
 13
4.878280
 23
2.145880
  0
POLYLINE
  8
0
  6
CONTINUOUS
 66
     1
 40
0.000000
 41
0.000000
  0
VERTEX
  8
0
  6
CONTINUOUS
 10
4.876520
 20
1.399200
  0
VERTEX
  8
0
  6
CONTINUOUS
 10
4.871680
 20
2.131360
  0
VERTEX
  8
0
  6
CONTINUOUS
 10
4.878280
 20
2.145880
  0
VERTEX
  8
0
  6
CONTINUOUS
 10
4.883120
 20
1.413280
  0
VERTEX
  8
0
  6
CONTINUOUS
 10
4.876520
 20
1.399200
  0
SEQEND
  8
0
  0
SOLID
  8
0
 62
    15
 10
4.883120
 20
1.413280
 11
4.878280
 21
2.145880
 12
4.898960
 22
1.445400
 13
4.894120
 23
2.178000
  0
POLYLINE
  8
0
  6
CONTINUOUS
 66
     1
 40
0.000000
 41
0.000000
  0
VERTEX
  8
0
  6
CONTINUOUS
 10
4.883120
 20
1.413280
  0
VERTEX
  8
0
  6
CONTINUOUS
 10
4.878280
 20
2.145880
  0
VERTEX
  8
0
  6
CONTINUOUS
 10
4.894120
 20
2.178000
  0
VERTEX
  8
0
  6
CONTINUOUS
 10
4.898960
 20
1.445400
  0
VERTEX
  8
0
  6
CONTINUOUS
 10
4.883120
 20
1.413280
  0
SEQEND
  8
0
  0
SOLID
  8
0
 62
    15
 10
4.898960
 20
1.445400
 11
4.894120
 21
2.178000
 12
4.920080
 22
1.478840
 13
4.915240
 23
2.211000
  0
POLYLINE
  8
0
  6
CONTINUOUS
 66
     1
 40
0.000000
 41
0.000000
  0
VERTEX
  8
0
  6
CONTINUOUS
 10
4.898960
 20
1.445400
  0
VERTEX
  8
0
  6
CONTINUOUS
 10
4.894120
 20
2.178000
  0
VERTEX
  8
0
  6
CONTINUOUS
 10
4.915240
 20
2.211000
  0
VERTEX
  8
0
  6
CONTINUOUS
 10
4.920080
 20
1.478840
  0
VERTEX
  8
0
  6
CONTINUOUS
 10
4.898960
 20
1.445400
  0
SEQEND
  8
0
  0
SOLID
  8
0
 62
    15
 10
4.920080
 20
1.478840
 11
4.915240
 21
2.211000
 12
4.949120
 22
1.507880
 13
4.944280
 23
2.240480
  0
POLYLINE
  8
0
  6
CONTINUOUS
 66
     1
 40
0.000000
 41
0.000000
  0
VERTEX
  8
0
  6
CONTINUOUS
 10
4.920080
 20
1.478840
  0
VERTEX
  8
0
  6
CONTINUOUS
 10
4.915240
 20
2.211000
  0
VERTEX
  8
0
  6
CONTINUOUS
 10
4.944280
 20
2.240480
  0
VERTEX
  8
0
  6
CONTINUOUS
 10
4.949120
 20
1.507880
  0
VERTEX
  8
0
  6
CONTINUOUS
 10
4.920080
 20
1.478840
  0
SEQEND
  8
0
  0
SOLID
  8
0
 62
    15
 10
4.949120
 20
1.507880
 11
4.944280
 21
2.240480
 12
4.967600
 22
1.519760
 13
4.962760
 23
2.252360
  0
POLYLINE
  8
0
  6
CONTINUOUS
 66
     1
 40
0.000000
 41
0.000000
  0
VERTEX
  8
0
  6
CONTINUOUS
 10
4.949120
 20
1.507880
  0
VERTEX
  8
0
  6
CONTINUOUS
 10
4.944280
 20
2.240480
  0
VERTEX
  8
0
  6
CONTINUOUS
 10
4.962760
 20
2.252360
  0
VERTEX
  8
0
  6
CONTINUOUS
 10
4.967600
 20
1.519760
  0
VERTEX
  8
0
  6
CONTINUOUS
 10
4.949120
 20
1.507880
  0
SEQEND
  8
0
  0
SOLID
  8
0
 62
    15
 10
4.967600
 20
1.519760
 11
4.962760
 21
2.252360
 12
4.988720
 22
1.529000
 13
4.983880
 23
2.261600
  0
POLYLINE
  8
0
  6
CONTINUOUS
 66
     1
 40
0.000000
 41
0.000000
  0
VERTEX
  8
0
  6
CONTINUOUS
 10
4.967600
 20
1.519760
  0
VERTEX
  8
0
  6
CONTINUOUS
 10
4.962760
 20
2.252360
  0
VERTEX
  8
0
  6
CONTINUOUS
 10
4.983880
 20
2.261600
  0
VERTEX
  8
0
  6
CONTINUOUS
 10
4.988720
 20
1.529000
  0
VERTEX
  8
0
  6
CONTINUOUS
 10
4.967600
 20
1.519760
  0
SEQEND
  8
0
  0
SOLID
  8
0
 62
    15
 10
4.988720
 20
1.529000
 11
4.983880
 21
2.261600
 12
5.013800
 22
1.535160
 13
5.008960
 23
2.267320
  0
POLYLINE
  8
0
  6
CONTINUOUS
 66
     1
 40
0.000000
 41
0.000000
  0
VERTEX
  8
0
  6
CONTINUOUS
 10
4.988720
 20
1.529000
  0
VERTEX
  8
0
  6
CONTINUOUS
 10
4.983880
 20
2.261600
  0
VERTEX
  8
0
  6
CONTINUOUS
 10
5.008960
 20
2.267320
  0
VERTEX
  8
0
  6
CONTINUOUS
 10
5.013800
 20
1.535160
  0
VERTEX
  8
0
  6
CONTINUOUS
 10
4.988720
 20
1.529000
  0
SEQEND
  8
0
  0
SOLID
  8
0
 62
    15
 10
5.013800
 20
1.535160
 11
5.008960
 21
2.267320
 12
5.041960
 22
1.537360
 13
5.037120
 23
2.269520
  0
POLYLINE
  8
0
  6
CONTINUOUS
 66
     1
 40
0.000000
 41
0.000000
  0
VERTEX
  8
0
  6
CONTINUOUS
 10
5.013800
 20
1.535160
  0
VERTEX
  8
0
  6
CONTINUOUS
 10
5.008960
 20
2.267320
  0
VERTEX
  8
0
  6
CONTINUOUS
 10
5.037120
 20
2.269520
  0
VERTEX
  8
0
  6
CONTINUOUS
 10
5.041960
 20
1.537360
  0
VERTEX
  8
0
  6
CONTINUOUS
 10
5.013800
 20
1.535160
  0
SEQEND
  8
0
  0
SOLID
  8
0
 62
    15
 10
2.563440
 20
1.439680
 11
2.558600
 21
2.172280
 12
2.564760
 22
1.441000
 13
2.559920
 23
2.173600
  0
POLYLINE
  8
0
  6
CONTINUOUS
 66
     1
 40
0.000000
 41
0.000000
  0
VERTEX
  8
0
  6
CONTINUOUS
 10
2.563440
 20
1.439680
  0
VERTEX
  8
0
  6
CONTINUOUS
 10
2.558600
 20
2.172280
  0
VERTEX
  8
0
  6
CONTINUOUS
 10
2.559920
 20
2.173600
  0
VERTEX
  8
0
  6
CONTINUOUS
 10
2.564760
 20
1.441000
  0
VERTEX
  8
0
  6
CONTINUOUS
 10
2.563440
 20
1.439680
  0
SEQEND
  8
0
  0
SOLID
  8
0
 62
    15
 10
5.048560
 20
1.535600
 11
5.043720
 21
2.268200
 12
5.076720
 22
1.533840
 13
5.071880
 23
2.266000
  0
POLYLINE
  8
0
  6
CONTINUOUS
 66
     1
 40
0.000000
 41
0.000000
  0
VERTEX
  8
0
  6
CONTINUOUS
 10
5.048560
 20
1.535600
  0
VERTEX
  8
0
  6
CONTINUOUS
 10
5.043720
 20
2.268200
  0
VERTEX
  8
0
  6
CONTINUOUS
 10
5.071880
 20
2.266000
  0
VERTEX
  8
0
  6
CONTINUOUS
 10
5.076720
 20
1.533840
  0
VERTEX
  8
0
  6
CONTINUOUS
 10
5.048560
 20
1.535600
  0
SEQEND
  8
0
  0
SOLID
  8
0
 62
    15
 10
5.076720
 20
1.533840
 11
5.071880
 21
2.266000
 12
5.101800
 22
1.527680
 13
5.096960
 23
2.259840
  0
POLYLINE
  8
0
  6
CONTINUOUS
 66
     1
 40
0.000000
 41
0.000000
  0
VERTEX
  8
0
  6
CONTINUOUS
 10
5.076720
 20
1.533840
  0
VERTEX
  8
0
  6
CONTINUOUS
 10
5.071880
 20
2.266000
  0
VERTEX
  8
0
  6
CONTINUOUS
 10
5.096960
 20
2.259840
  0
VERTEX
  8
0
  6
CONTINUOUS
 10
5.101800
 20
1.527680
  0
VERTEX
  8
0
  6
CONTINUOUS
 10
5.076720
 20
1.533840
  0
SEQEND
  8
0
  0
SOLID
  8
0
 62
    15
 10
5.101800
 20
1.527680
 11
5.096960
 21
2.259840
 12
5.123360
 22
1.518000
 13
5.118520
 23
2.250600
  0
POLYLINE
  8
0
  6
CONTINUOUS
 66
     1
 40
0.000000
 41
0.000000
  0
VERTEX
  8
0
  6
CONTINUOUS
 10
5.101800
 20
1.527680
  0
VERTEX
  8
0
  6
CONTINUOUS
 10
5.096960
 20
2.259840
  0
VERTEX
  8
0
  6
CONTINUOUS
 10
5.118520
 20
2.250600
  0
VERTEX
  8
0
  6
CONTINUOUS
 10
5.123360
 20
1.518000
  0
VERTEX
  8
0
  6
CONTINUOUS
 10
5.101800
 20
1.527680
  0
SEQEND
  8
0
  0
SOLID
  8
0
 62
    15
 10
5.123360
 20
1.518000
 11
5.118520
 21
2.250600
 12
5.141840
 22
1.506120
 13
5.137000
 23
2.238280
  0
POLYLINE
  8
0
  6
CONTINUOUS
 66
     1
 40
0.000000
 41
0.000000
  0
VERTEX
  8
0
  6
CONTINUOUS
 10
5.123360
 20
1.518000
  0
VERTEX
  8
0
  6
CONTINUOUS
 10
5.118520
 20
2.250600
  0
VERTEX
  8
0
  6
CONTINUOUS
 10
5.137000
 20
2.238280
  0
VERTEX
  8
0
  6
CONTINUOUS
 10
5.141840
 20
1.506120
  0
VERTEX
  8
0
  6
CONTINUOUS
 10
5.123360
 20
1.518000
  0
SEQEND
  8
0
  0
SOLID
  8
0
 62
    15
 10
5.141840
 20
1.506120
 11
5.137000
 21
2.238280
 12
5.171760
 22
1.476200
 13
5.166920
 23
2.208360
  0
POLYLINE
  8
0
  6
CONTINUOUS
 66
     1
 40
0.000000
 41
0.000000
  0
VERTEX
  8
0
  6
CONTINUOUS
 10
5.141840
 20
1.506120
  0
VERTEX
  8
0
  6
CONTINUOUS
 10
5.137000
 20
2.238280
  0
VERTEX
  8
0
  6
CONTINUOUS
 10
5.166920
 20
2.208360
  0
VERTEX
  8
0
  6
CONTINUOUS
 10
5.171760
 20
1.476200
  0
VERTEX
  8
0
  6
CONTINUOUS
 10
5.141840
 20
1.506120
  0
SEQEND
  8
0
  0
SOLID
  8
0
 62
    15
 10
5.171760
 20
1.476200
 11
5.166920
 21
2.208360
 12
5.193760
 22
1.442320
 13
5.188920
 23
2.174480
  0
POLYLINE
  8
0
  6
CONTINUOUS
 66
     1
 40
0.000000
 41
0.000000
  0
VERTEX
  8
0
  6
CONTINUOUS
 10
5.171760
 20
1.476200
  0
VERTEX
  8
0
  6
CONTINUOUS
 10
5.166920
 20
2.208360
  0
VERTEX
  8
0
  6
CONTINUOUS
 10
5.188920
 20
2.174480
  0
VERTEX
  8
0
  6
CONTINUOUS
 10
5.193760
 20
1.442320
  0
VERTEX
  8
0
  6
CONTINUOUS
 10
5.171760
 20
1.476200
  0
SEQEND
  8
0
  0
SOLID
  8
0
 62
    15
 10
5.193760
 20
1.442320
 11
5.188920
 21
2.174480
 12
5.210040
 22
1.409320
 13
5.205200
 23
2.141920
  0
POLYLINE
  8
0
  6
CONTINUOUS
 66
     1
 40
0.000000
 41
0.000000
  0
VERTEX
  8
0
  6
CONTINUOUS
 10
5.193760
 20
1.442320
  0
VERTEX
  8
0
  6
CONTINUOUS
 10
5.188920
 20
2.174480
  0
VERTEX
  8
0
  6
CONTINUOUS
 10
5.205200
 20
2.141920
  0
VERTEX
  8
0
  6
CONTINUOUS
 10
5.210040
 20
1.409320
  0
VERTEX
  8
0
  6
CONTINUOUS
 10
5.193760
 20
1.442320
  0
SEQEND
  8
0
  0
SOLID
  8
0
 62
    15
 10
5.210040
 20
1.409320
 11
5.205200
 21
2.141920
 12
5.217080
 22
1.394800
 13
5.212240
 23
2.126960
  0
POLYLINE
  8
0
  6
CONTINUOUS
 66
     1
 40
0.000000
 41
0.000000
  0
VERTEX
  8
0
  6
CONTINUOUS
 10
5.210040
 20
1.409320
  0
VERTEX
  8
0
  6
CONTINUOUS
 10
5.205200
 20
2.141920
  0
VERTEX
  8
0
  6
CONTINUOUS
 10
5.212240
 20
2.126960
  0
VERTEX
  8
0
  6
CONTINUOUS
 10
5.217080
 20
1.394800
  0
VERTEX
  8
0
  6
CONTINUOUS
 10
5.210040
 20
1.409320
  0
SEQEND
  8
0
  0
SOLID
  8
0
 62
    15
 10
5.217080
 20
1.394800
 11
5.212240
 21
2.126960
 12
5.223680
 22
1.382040
 13
5.218840
 23
2.114640
  0
POLYLINE
  8
0
  6
CONTINUOUS
 66
     1
 40
0.000000
 41
0.000000
  0
VERTEX
  8
0
  6
CONTINUOUS
 10
5.217080
 20
1.394800
  0
VERTEX
  8
0
  6
CONTINUOUS
 10
5.212240
 20
2.126960
  0
VERTEX
  8
0
  6
CONTINUOUS
 10
5.218840
 20
2.114640
  0
VERTEX
  8
0
  6
CONTINUOUS
 10
5.223680
 20
1.382040
  0
VERTEX
  8
0
  6
CONTINUOUS
 10
5.217080
 20
1.394800
  0
SEQEND
  8
0
  0
SOLID
  8
0
 62
    15
 10
5.223680
 20
1.382040
 11
5.218840
 21
2.114640
 12
5.236880
 22
1.365320
 13
5.232040
 23
2.097920
  0
POLYLINE
  8
0
  6
CONTINUOUS
 66
     1
 40
0.000000
 41
0.000000
  0
VERTEX
  8
0
  6
CONTINUOUS
 10
5.223680
 20
1.382040
  0
VERTEX
  8
0
  6
CONTINUOUS
 10
5.218840
 20
2.114640
  0
VERTEX
  8
0
  6
CONTINUOUS
 10
5.232040
 20
2.097920
  0
VERTEX
  8
0
  6
CONTINUOUS
 10
5.236880
 20
1.365320
  0
VERTEX
  8
0
  6
CONTINUOUS
 10
5.223680
 20
1.382040
  0
SEQEND
  8
0
  0
SOLID
  8
0
 62
    15
 10
5.236880
 20
1.365320
 11
5.232040
 21
2.097920
 12
5.244360
 22
1.362240
 13
5.239520
 23
2.094840
  0
POLYLINE
  8
0
  6
CONTINUOUS
 66
     1
 40
0.000000
 41
0.000000
  0
VERTEX
  8
0
  6
CONTINUOUS
 10
5.236880
 20
1.365320
  0
VERTEX
  8
0
  6
CONTINUOUS
 10
5.232040
 20
2.097920
  0
VERTEX
  8
0
  6
CONTINUOUS
 10
5.239520
 20
2.094840
  0
VERTEX
  8
0
  6
CONTINUOUS
 10
5.244360
 20
1.362240
  0
VERTEX
  8
0
  6
CONTINUOUS
 10
5.236880
 20
1.365320
  0
SEQEND
  8
0
  0
SOLID
  8
0
 62
    15
 10
5.244360
 20
1.362240
 11
5.239520
 21
2.094840
 12
5.252720
 22
1.364000
 13
5.247880
 23
2.096160
  0
POLYLINE
  8
0
  6
CONTINUOUS
 66
     1
 40
0.000000
 41
0.000000
  0
VERTEX
  8
0
  6
CONTINUOUS
 10
5.244360
 20
1.362240
  0
VERTEX
  8
0
  6
CONTINUOUS
 10
5.239520
 20
2.094840
  0
VERTEX
  8
0
  6
CONTINUOUS
 10
5.247880
 20
2.096160
  0
VERTEX
  8
0
  6
CONTINUOUS
 10
5.252720
 20
1.364000
  0
VERTEX
  8
0
  6
CONTINUOUS
 10
5.244360
 20
1.362240
  0
SEQEND
  8
0
  0
SOLID
  8
0
 62
    15
 10
5.252720
 20
1.364000
 11
5.247880
 21
2.096160
 12
5.258000
 22
1.370600
 13
5.253160
 23
2.103200
  0
POLYLINE
  8
0
  6
CONTINUOUS
 66
     1
 40
0.000000
 41
0.000000
  0
VERTEX
  8
0
  6
CONTINUOUS
 10
5.252720
 20
1.364000
  0
VERTEX
  8
0
  6
CONTINUOUS
 10
5.247880
 20
2.096160
  0
VERTEX
  8
0
  6
CONTINUOUS
 10
5.253160
 20
2.103200
  0
VERTEX
  8
0
  6
CONTINUOUS
 10
5.258000
 20
1.370600
  0
VERTEX
  8
0
  6
CONTINUOUS
 10
5.252720
 20
1.364000
  0
SEQEND
  8
0
  0
SOLID
  8
0
 62
    15
 10
5.258000
 20
1.370600
 11
5.253160
 21
2.103200
 12
5.265040
 22
1.380280
 13
5.260200
 23
2.112880
  0
POLYLINE
  8
0
  6
CONTINUOUS
 66
     1
 40
0.000000
 41
0.000000
  0
VERTEX
  8
0
  6
CONTINUOUS
 10
5.258000
 20
1.370600
  0
VERTEX
  8
0
  6
CONTINUOUS
 10
5.253160
 20
2.103200
  0
VERTEX
  8
0
  6
CONTINUOUS
 10
5.260200
 20
2.112880
  0
VERTEX
  8
0
  6
CONTINUOUS
 10
5.265040
 20
1.380280
  0
VERTEX
  8
0
  6
CONTINUOUS
 10
5.258000
 20
1.370600
  0
SEQEND
  8
0
  0
SOLID
  8
0
 62
    15
 10
5.265040
 20
1.380280
 11
5.260200
 21
2.112880
 12
5.283520
 22
1.404480
 13
5.278680
 23
2.137080
  0
POLYLINE
  8
0
  6
CONTINUOUS
 66
     1
 40
0.000000
 41
0.000000
  0
VERTEX
  8
0
  6
CONTINUOUS
 10
5.265040
 20
1.380280
  0
VERTEX
  8
0
  6
CONTINUOUS
 10
5.260200
 20
2.112880
  0
VERTEX
  8
0
  6
CONTINUOUS
 10
5.278680
 20
2.137080
  0
VERTEX
  8
0
  6
CONTINUOUS
 10
5.283520
 20
1.404480
  0
VERTEX
  8
0
  6
CONTINUOUS
 10
5.265040
 20
1.380280
  0
SEQEND
  8
0
  0
SOLID
  8
0
 62
    15
 10
5.283520
 20
1.404480
 11
5.278680
 21
2.137080
 12
5.309920
 22
1.430880
 13
5.305080
 23
2.163480
  0
POLYLINE
  8
0
  6
CONTINUOUS
 66
     1
 40
0.000000
 41
0.000000
  0
VERTEX
  8
0
  6
CONTINUOUS
 10
5.283520
 20
1.404480
  0
VERTEX
  8
0
  6
CONTINUOUS
 10
5.278680
 20
2.137080
  0
VERTEX
  8
0
  6
CONTINUOUS
 10
5.305080
 20
2.163480
  0
VERTEX
  8
0
  6
CONTINUOUS
 10
5.309920
 20
1.430880
  0
VERTEX
  8
0
  6
CONTINUOUS
 10
5.283520
 20
1.404480
  0
SEQEND
  8
0
  0
SOLID
  8
0
 62
    15
 10
5.309920
 20
1.430880
 11
5.305080
 21
2.163480
 12
5.345120
 22
1.454200
 13
5.340280
 23
2.186800
  0
POLYLINE
  8
0
  6
CONTINUOUS
 66
     1
 40
0.000000
 41
0.000000
  0
VERTEX
  8
0
  6
CONTINUOUS
 10
5.309920
 20
1.430880
  0
VERTEX
  8
0
  6
CONTINUOUS
 10
5.305080
 20
2.163480
  0
VERTEX
  8
0
  6
CONTINUOUS
 10
5.340280
 20
2.186800
  0
VERTEX
  8
0
  6
CONTINUOUS
 10
5.345120
 20
1.454200
  0
VERTEX
  8
0
  6
CONTINUOUS
 10
5.309920
 20
1.430880
  0
SEQEND
  8
0
  0
SOLID
  8
0
 62
    15
 10
5.345120
 20
1.454200
 11
5.340280
 21
2.186800
 12
5.366240
 22
1.463000
 13
5.361400
 23
2.195160
  0
POLYLINE
  8
0
  6
CONTINUOUS
 66
     1
 40
0.000000
 41
0.000000
  0
VERTEX
  8
0
  6
CONTINUOUS
 10
5.345120
 20
1.454200
  0
VERTEX
  8
0
  6
CONTINUOUS
 10
5.340280
 20
2.186800
  0
VERTEX
  8
0
  6
CONTINUOUS
 10
5.361400
 20
2.195160
  0
VERTEX
  8
0
  6
CONTINUOUS
 10
5.366240
 20
1.463000
  0
VERTEX
  8
0
  6
CONTINUOUS
 10
5.345120
 20
1.454200
  0
SEQEND
  8
0
  0
SOLID
  8
0
 62
    15
 10
5.366240
 20
1.463000
 11
5.361400
 21
2.195160
 12
5.389560
 22
1.469160
 13
5.384720
 23
2.201320
  0
POLYLINE
  8
0
  6
CONTINUOUS
 66
     1
 40
0.000000
 41
0.000000
  0
VERTEX
  8
0
  6
CONTINUOUS
 10
5.366240
 20
1.463000
  0
VERTEX
  8
0
  6
CONTINUOUS
 10
5.361400
 20
2.195160
  0
VERTEX
  8
0
  6
CONTINUOUS
 10
5.384720
 20
2.201320
  0
VERTEX
  8
0
  6
CONTINUOUS
 10
5.389560
 20
1.469160
  0
VERTEX
  8
0
  6
CONTINUOUS
 10
5.366240
 20
1.463000
  0
SEQEND
  8
0
  0
SOLID
  8
0
 62
    15
 10
5.389560
 20
1.469160
 11
5.384720
 21
2.201320
 12
5.415960
 22
1.471360
 13
5.411120
 23
2.203960
  0
POLYLINE
  8
0
  6
CONTINUOUS
 66
     1
 40
0.000000
 41
0.000000
  0
VERTEX
  8
0
  6
CONTINUOUS
 10
5.389560
 20
1.469160
  0
VERTEX
  8
0
  6
CONTINUOUS
 10
5.384720
 20
2.201320
  0
VERTEX
  8
0
  6
CONTINUOUS
 10
5.411120
 20
2.203960
  0
VERTEX
  8
0
  6
CONTINUOUS
 10
5.415960
 20
1.471360
  0
VERTEX
  8
0
  6
CONTINUOUS
 10
5.389560
 20
1.469160
  0
SEQEND
  8
0
  0
SOLID
  8
0
 62
    15
 10
5.415960
 20
1.471360
 11
5.411120
 21
2.203960
 12
5.445000
 22
1.469600
 13
5.440160
 23
2.202200
  0
POLYLINE
  8
0
  6
CONTINUOUS
 66
     1
 40
0.000000
 41
0.000000
  0
VERTEX
  8
0
  6
CONTINUOUS
 10
5.415960
 20
1.471360
  0
VERTEX
  8
0
  6
CONTINUOUS
 10
5.411120
 20
2.203960
  0
VERTEX
  8
0
  6
CONTINUOUS
 10
5.440160
 20
2.202200
  0
VERTEX
  8
0
  6
CONTINUOUS
 10
5.445000
 20
1.469600
  0
VERTEX
  8
0
  6
CONTINUOUS
 10
5.415960
 20
1.471360
  0
SEQEND
  8
0
  0
SOLID
  8
0
 62
    15
 10
5.445000
 20
1.469600
 11
5.440160
 21
2.202200
 12
5.477120
 22
1.463000
 13
5.472280
 23
2.195600
  0
POLYLINE
  8
0
  6
CONTINUOUS
 66
     1
 40
0.000000
 41
0.000000
  0
VERTEX
  8
0
  6
CONTINUOUS
 10
5.445000
 20
1.469600
  0
VERTEX
  8
0
  6
CONTINUOUS
 10
5.440160
 20
2.202200
  0
VERTEX
  8
0
  6
CONTINUOUS
 10
5.472280
 20
2.195600
  0
VERTEX
  8
0
  6
CONTINUOUS
 10
5.477120
 20
1.463000
  0
VERTEX
  8
0
  6
CONTINUOUS
 10
5.445000
 20
1.469600
  0
SEQEND
  8
0
  0
SOLID
  8
0
 62
    15
 10
5.477120
 20
1.463000
 11
5.472280
 21
2.195600
 12
5.512320
 22
1.451120
 13
5.507480
 23
2.183280
  0
POLYLINE
  8
0
  6
CONTINUOUS
 66
     1
 40
0.000000
 41
0.000000
  0
VERTEX
  8
0
  6
CONTINUOUS
 10
5.477120
 20
1.463000
  0
VERTEX
  8
0
  6
CONTINUOUS
 10
5.472280
 20
2.195600
  0
VERTEX
  8
0
  6
CONTINUOUS
 10
5.507480
 20
2.183280
  0
VERTEX
  8
0
  6
CONTINUOUS
 10
5.512320
 20
1.451120
  0
VERTEX
  8
0
  6
CONTINUOUS
 10
5.477120
 20
1.463000
  0
SEQEND
  8
0
  0
SOLID
  8
0
 62
    15
 10
5.512320
 20
1.451120
 11
5.507480
 21
2.183280
 12
5.550600
 22
1.433080
 13
5.545760
 23
2.165240
  0
POLYLINE
  8
0
  6
CONTINUOUS
 66
     1
 40
0.000000
 41
0.000000
  0
VERTEX
  8
0
  6
CONTINUOUS
 10
5.512320
 20
1.451120
  0
VERTEX
  8
0
  6
CONTINUOUS
 10
5.507480
 20
2.183280
  0
VERTEX
  8
0
  6
CONTINUOUS
 10
5.545760
 20
2.165240
  0
VERTEX
  8
0
  6
CONTINUOUS
 10
5.550600
 20
1.433080
  0
VERTEX
  8
0
  6
CONTINUOUS
 10
5.512320
 20
1.451120
  0
SEQEND
  8
0
  0
SOLID
  8
0
 62
    15
 10
5.550600
 20
1.433080
 11
5.545760
 21
2.165240
 12
5.592400
 22
1.408000
 13
5.587560
 23
2.140160
  0
POLYLINE
  8
0
  6
CONTINUOUS
 66
     1
 40
0.000000
 41
0.000000
  0
VERTEX
  8
0
  6
CONTINUOUS
 10
5.550600
 20
1.433080
  0
VERTEX
  8
0
  6
CONTINUOUS
 10
5.545760
 20
2.165240
  0
VERTEX
  8
0
  6
CONTINUOUS
 10
5.587560
 20
2.140160
  0
VERTEX
  8
0
  6
CONTINUOUS
 10
5.592400
 20
1.408000
  0
VERTEX
  8
0
  6
CONTINUOUS
 10
5.550600
 20
1.433080
  0
SEQEND
  8
0
  0
SOLID
  8
0
 62
    15
 10
5.592400
 20
1.408000
 11
5.587560
 21
2.140160
 12
5.639920
 22
1.378520
 13
5.635080
 23
2.110680
  0
POLYLINE
  8
0
  6
CONTINUOUS
 66
     1
 40
0.000000
 41
0.000000
  0
VERTEX
  8
0
  6
CONTINUOUS
 10
5.592400
 20
1.408000
  0
VERTEX
  8
0
  6
CONTINUOUS
 10
5.587560
 20
2.140160
  0
VERTEX
  8
0
  6
CONTINUOUS
 10
5.635080
 20
2.110680
  0
VERTEX
  8
0
  6
CONTINUOUS
 10
5.639920
 20
1.378520
  0
VERTEX
  8
0
  6
CONTINUOUS
 10
5.592400
 20
1.408000
  0
SEQEND
  8
0
  0
SOLID
  8
0
 62
    15
 10
5.639920
 20
1.378520
 11
5.635080
 21
2.110680
 12
5.681720
 22
1.356520
 13
5.676880
 23
2.088680
  0
POLYLINE
  8
0
  6
CONTINUOUS
 66
     1
 40
0.000000
 41
0.000000
  0
VERTEX
  8
0
  6
CONTINUOUS
 10
5.639920
 20
1.378520
  0
VERTEX
  8
0
  6
CONTINUOUS
 10
5.635080
 20
2.110680
  0
VERTEX
  8
0
  6
CONTINUOUS
 10
5.676880
 20
2.088680
  0
VERTEX
  8
0
  6
CONTINUOUS
 10
5.681720
 20
1.356520
  0
VERTEX
  8
0
  6
CONTINUOUS
 10
5.639920
 20
1.378520
  0
SEQEND
  8
0
  0
SOLID
  8
0
 62
    15
 10
5.681720
 20
1.356520
 11
5.676880
 21
2.088680
 12
5.718240
 22
1.340680
 13
5.713400
 23
2.072840
  0
POLYLINE
  8
0
  6
CONTINUOUS
 66
     1
 40
0.000000
 41
0.000000
  0
VERTEX
  8
0
  6
CONTINUOUS
 10
5.681720
 20
1.356520
  0
VERTEX
  8
0
  6
CONTINUOUS
 10
5.676880
 20
2.088680
  0
VERTEX
  8
0
  6
CONTINUOUS
 10
5.713400
 20
2.072840
  0
VERTEX
  8
0
  6
CONTINUOUS
 10
5.718240
 20
1.340680
  0
VERTEX
  8
0
  6
CONTINUOUS
 10
5.681720
 20
1.356520
  0
SEQEND
  8
0
  0
SOLID
  8
0
 62
    15
 10
5.718240
 20
1.340680
 11
5.713400
 21
2.072840
 12
5.750360
 22
1.331000
 13
5.745520
 23
2.063160
  0
POLYLINE
  8
0
  6
CONTINUOUS
 66
     1
 40
0.000000
 41
0.000000
  0
VERTEX
  8
0
  6
CONTINUOUS
 10
5.718240
 20
1.340680
  0
VERTEX
  8
0
  6
CONTINUOUS
 10
5.713400
 20
2.072840
  0
VERTEX
  8
0
  6
CONTINUOUS
 10
5.745520
 20
2.063160
  0
VERTEX
  8
0
  6
CONTINUOUS
 10
5.750360
 20
1.331000
  0
VERTEX
  8
0
  6
CONTINUOUS
 10
5.718240
 20
1.340680
  0
SEQEND
  8
0
  0
SOLID
  8
0
 62
    15
 10
5.750360
 20
1.331000
 11
5.745520
 21
2.063160
 12
5.777640
 22
1.326160
 13
5.772800
 23
2.058320
  0
POLYLINE
  8
0
  6
CONTINUOUS
 66
     1
 40
0.000000
 41
0.000000
  0
VERTEX
  8
0
  6
CONTINUOUS
 10
5.750360
 20
1.331000
  0
VERTEX
  8
0
  6
CONTINUOUS
 10
5.745520
 20
2.063160
  0
VERTEX
  8
0
  6
CONTINUOUS
 10
5.772800
 20
2.058320
  0
VERTEX
  8
0
  6
CONTINUOUS
 10
5.777640
 20
1.326160
  0
VERTEX
  8
0
  6
CONTINUOUS
 10
5.750360
 20
1.331000
  0
SEQEND
  8
0
  0
SOLID
  8
0
 62
    15
 10
5.777640
 20
1.326160
 11
5.772800
 21
2.058320
 12
5.800960
 22
1.325280
 13
5.796120
 23
2.057880
  0
POLYLINE
  8
0
  6
CONTINUOUS
 66
     1
 40
0.000000
 41
0.000000
  0
VERTEX
  8
0
  6
CONTINUOUS
 10
5.777640
 20
1.326160
  0
VERTEX
  8
0
  6
CONTINUOUS
 10
5.772800
 20
2.058320
  0
VERTEX
  8
0
  6
CONTINUOUS
 10
5.796120
 20
2.057880
  0
VERTEX
  8
0
  6
CONTINUOUS
 10
5.800960
 20
1.325280
  0
VERTEX
  8
0
  6
CONTINUOUS
 10
5.777640
 20
1.326160
  0
SEQEND
  8
0
  0
SOLID
  8
0
 62
    15
 10
5.800960
 20
1.325280
 11
5.796120
 21
2.057880
 12
5.820760
 22
1.328360
 13
5.815920
 23
2.060520
  0
POLYLINE
  8
0
  6
CONTINUOUS
 66
     1
 40
0.000000
 41
0.000000
  0
VERTEX
  8
0
  6
CONTINUOUS
 10
5.800960
 20
1.325280
  0
VERTEX
  8
0
  6
CONTINUOUS
 10
5.796120
 20
2.057880
  0
VERTEX
  8
0
  6
CONTINUOUS
 10
5.815920
 20
2.060520
  0
VERTEX
  8
0
  6
CONTINUOUS
 10
5.820760
 20
1.328360
  0
VERTEX
  8
0
  6
CONTINUOUS
 10
5.800960
 20
1.325280
  0
SEQEND
  8
0
  0
SOLID
  8
0
 62
    15
 10
5.820760
 20
1.328360
 11
5.815920
 21
2.060520
 12
5.837040
 22
1.334080
 13
5.832200
 23
2.066240
  0
POLYLINE
  8
0
  6
CONTINUOUS
 66
     1
 40
0.000000
 41
0.000000
  0
VERTEX
  8
0
  6
CONTINUOUS
 10
5.820760
 20
1.328360
  0
VERTEX
  8
0
  6
CONTINUOUS
 10
5.815920
 20
2.060520
  0
VERTEX
  8
0
  6
CONTINUOUS
 10
5.832200
 20
2.066240
  0
VERTEX
  8
0
  6
CONTINUOUS
 10
5.837040
 20
1.334080
  0
VERTEX
  8
0
  6
CONTINUOUS
 10
5.820760
 20
1.328360
  0
SEQEND
  8
0
  0
SOLID
  8
0
 62
    15
 10
5.837040
 20
1.334080
 11
5.832200
 21
2.066240
 12
5.860360
 22
1.350800
 13
5.855520
 23
2.083400
  0
POLYLINE
  8
0
  6
CONTINUOUS
 66
     1
 40
0.000000
 41
0.000000
  0
VERTEX
  8
0
  6
CONTINUOUS
 10
5.837040
 20
1.334080
  0
VERTEX
  8
0
  6
CONTINUOUS
 10
5.832200
 20
2.066240
  0
VERTEX
  8
0
  6
CONTINUOUS
 10
5.855520
 20
2.083400
  0
VERTEX
  8
0
  6
CONTINUOUS
 10
5.860360
 20
1.350800
  0
VERTEX
  8
0
  6
CONTINUOUS
 10
5.837040
 20
1.334080
  0
SEQEND
  8
0
  0
SOLID
  8
0
 62
    15
 10
5.860360
 20
1.350800
 11
5.855520
 21
2.083400
 12
5.874880
 22
1.370160
 13
5.870040
 23
2.102320
  0
POLYLINE
  8
0
  6
CONTINUOUS
 66
     1
 40
0.000000
 41
0.000000
  0
VERTEX
  8
0
  6
CONTINUOUS
 10
5.860360
 20
1.350800
  0
VERTEX
  8
0
  6
CONTINUOUS
 10
5.855520
 20
2.083400
  0
VERTEX
  8
0
  6
CONTINUOUS
 10
5.870040
 20
2.102320
  0
VERTEX
  8
0
  6
CONTINUOUS
 10
5.874880
 20
1.370160
  0
VERTEX
  8
0
  6
CONTINUOUS
 10
5.860360
 20
1.350800
  0
SEQEND
  8
0
  0
SOLID
  8
0
 62
    15
 10
5.874880
 20
1.370160
 11
5.870040
 21
2.102320
 12
5.879720
 22
1.378520
 13
5.874880
 23
2.110680
  0
POLYLINE
  8
0
  6
CONTINUOUS
 66
     1
 40
0.000000
 41
0.000000
  0
VERTEX
  8
0
  6
CONTINUOUS
 10
5.874880
 20
1.370160
  0
VERTEX
  8
0
  6
CONTINUOUS
 10
5.870040
 20
2.102320
  0
VERTEX
  8
0
  6
CONTINUOUS
 10
5.874880
 20
2.110680
  0
VERTEX
  8
0
  6
CONTINUOUS
 10
5.879720
 20
1.378520
  0
VERTEX
  8
0
  6
CONTINUOUS
 10
5.874880
 20
1.370160
  0
SEQEND
  8
0
  0
SOLID
  8
0
 62
    15
 10
5.879720
 20
1.378520
 11
5.874880
 21
2.110680
 12
5.882800
 22
1.385120
 13
5.877960
 23
2.117280
  0
POLYLINE
  8
0
  6
CONTINUOUS
 66
     1
 40
0.000000
 41
0.000000
  0
VERTEX
  8
0
  6
CONTINUOUS
 10
5.879720
 20
1.378520
  0
VERTEX
  8
0
  6
CONTINUOUS
 10
5.874880
 20
2.110680
  0
VERTEX
  8
0
  6
CONTINUOUS
 10
5.877960
 20
2.117280
  0
VERTEX
  8
0
  6
CONTINUOUS
 10
5.882800
 20
1.385120
  0
VERTEX
  8
0
  6
CONTINUOUS
 10
5.879720
 20
1.378520
  0
SEQEND
  8
0
  0
SOLID
  8
0
 62
    15
 10
5.882800
 20
1.385120
 11
5.877960
 21
2.117280
 12
5.887200
 22
1.390400
 13
5.882360
 23
2.123000
  0
POLYLINE
  8
0
  6
CONTINUOUS
 66
     1
 40
0.000000
 41
0.000000
  0
VERTEX
  8
0
  6
CONTINUOUS
 10
5.882800
 20
1.385120
  0
VERTEX
  8
0
  6
CONTINUOUS
 10
5.877960
 20
2.117280
  0
VERTEX
  8
0
  6
CONTINUOUS
 10
5.882360
 20
2.123000
  0
VERTEX
  8
0
  6
CONTINUOUS
 10
5.887200
 20
1.390400
  0
VERTEX
  8
0
  6
CONTINUOUS
 10
5.882800
 20
1.385120
  0
SEQEND
  8
0
  0
SOLID
  8
0
 62
    15
 10
5.887200
 20
1.390400
 11
5.882360
 21
2.123000
 12
5.916240
 22
1.390840
 13
5.911400
 23
2.123000
  0
POLYLINE
  8
0
  6
CONTINUOUS
 66
     1
 40
0.000000
 41
0.000000
  0
VERTEX
  8
0
  6
CONTINUOUS
 10
5.887200
 20
1.390400
  0
VERTEX
  8
0
  6
CONTINUOUS
 10
5.882360
 20
2.123000
  0
VERTEX
  8
0
  6
CONTINUOUS
 10
5.911400
 20
2.123000
  0
VERTEX
  8
0
  6
CONTINUOUS
 10
5.916240
 20
1.390840
  0
VERTEX
  8
0
  6
CONTINUOUS
 10
5.887200
 20
1.390400
  0
SEQEND
  8
0
  0
SOLID
  8
0
 62
    15
 10
5.916240
 20
1.390840
 11
5.911400
 21
2.123000
 12
5.947920
 22
1.390840
 13
5.943080
 23
2.123440
  0
POLYLINE
  8
0
  6
CONTINUOUS
 66
     1
 40
0.000000
 41
0.000000
  0
VERTEX
  8
0
  6
CONTINUOUS
 10
5.916240
 20
1.390840
  0
VERTEX
  8
0
  6
CONTINUOUS
 10
5.911400
 20
2.123000
  0
VERTEX
  8
0
  6
CONTINUOUS
 10
5.943080
 20
2.123440
  0
VERTEX
  8
0
  6
CONTINUOUS
 10
5.947920
 20
1.390840
  0
VERTEX
  8
0
  6
CONTINUOUS
 10
5.916240
 20
1.390840
  0
SEQEND
  8
0
  0
SOLID
  8
0
 62
    15
 10
5.947920
 20
1.390840
 11
5.943080
 21
2.123440
 12
5.983120
 22
1.392160
 13
5.978280
 23
2.124320
  0
POLYLINE
  8
0
  6
CONTINUOUS
 66
     1
 40
0.000000
 41
0.000000
  0
VERTEX
  8
0
  6
CONTINUOUS
 10
5.947920
 20
1.390840
  0
VERTEX
  8
0
  6
CONTINUOUS
 10
5.943080
 20
2.123440
  0
VERTEX
  8
0
  6
CONTINUOUS
 10
5.978280
 20
2.124320
  0
VERTEX
  8
0
  6
CONTINUOUS
 10
5.983120
 20
1.392160
  0
VERTEX
  8
0
  6
CONTINUOUS
 10
5.947920
 20
1.390840
  0
SEQEND
  8
0
  0
SOLID
  8
0
 62
    15
 10
5.983120
 20
1.392160
 11
5.978280
 21
2.124320
 12
6.022720
 22
1.395680
 13
6.017880
 23
2.128280
  0
POLYLINE
  8
0
  6
CONTINUOUS
 66
     1
 40
0.000000
 41
0.000000
  0
VERTEX
  8
0
  6
CONTINUOUS
 10
5.983120
 20
1.392160
  0
VERTEX
  8
0
  6
CONTINUOUS
 10
5.978280
 20
2.124320
  0
VERTEX
  8
0
  6
CONTINUOUS
 10
6.017880
 20
2.128280
  0
VERTEX
  8
0
  6
CONTINUOUS
 10
6.022720
 20
1.395680
  0
VERTEX
  8
0
  6
CONTINUOUS
 10
5.983120
 20
1.392160
  0
SEQEND
  8
0
  0
SOLID
  8
0
 62
    15
 10
6.022720
 20
1.395680
 11
6.017880
 21
2.128280
 12
6.068040
 22
1.403160
 13
6.063200
 23
2.135320
  0
POLYLINE
  8
0
  6
CONTINUOUS
 66
     1
 40
0.000000
 41
0.000000
  0
VERTEX
  8
0
  6
CONTINUOUS
 10
6.022720
 20
1.395680
  0
VERTEX
  8
0
  6
CONTINUOUS
 10
6.017880
 20
2.128280
  0
VERTEX
  8
0
  6
CONTINUOUS
 10
6.063200
 20
2.135320
  0
VERTEX
  8
0
  6
CONTINUOUS
 10
6.068040
 20
1.403160
  0
VERTEX
  8
0
  6
CONTINUOUS
 10
6.022720
 20
1.395680
  0
SEQEND
  8
0
  0
SOLID
  8
0
 62
    15
 10
6.068040
 20
1.403160
 11
6.063200
 21
2.135320
 12
6.119520
 22
1.415480
 13
6.114680
 23
2.148080
  0
POLYLINE
  8
0
  6
CONTINUOUS
 66
     1
 40
0.000000
 41
0.000000
  0
VERTEX
  8
0
  6
CONTINUOUS
 10
6.068040
 20
1.403160
  0
VERTEX
  8
0
  6
CONTINUOUS
 10
6.063200
 20
2.135320
  0
VERTEX
  8
0
  6
CONTINUOUS
 10
6.114680
 20
2.148080
  0
VERTEX
  8
0
  6
CONTINUOUS
 10
6.119520
 20
1.415480
  0
VERTEX
  8
0
  6
CONTINUOUS
 10
6.068040
 20
1.403160
  0
SEQEND
  8
0
  0
SOLID
  8
0
 62
    15
 10
6.119520
 20
1.415480
 11
6.114680
 21
2.148080
 12
6.178040
 22
1.434400
 13
6.173200
 23
2.167000
  0
POLYLINE
  8
0
  6
CONTINUOUS
 66
     1
 40
0.000000
 41
0.000000
  0
VERTEX
  8
0
  6
CONTINUOUS
 10
6.119520
 20
1.415480
  0
VERTEX
  8
0
  6
CONTINUOUS
 10
6.114680
 20
2.148080
  0
VERTEX
  8
0
  6
CONTINUOUS
 10
6.173200
 20
2.167000
  0
VERTEX
  8
0
  6
CONTINUOUS
 10
6.178040
 20
1.434400
  0
VERTEX
  8
0
  6
CONTINUOUS
 10
6.119520
 20
1.415480
  0
SEQEND
  8
0
  0
SOLID
  8
0
 62
    15
 10
6.178040
 20
1.434400
 11
6.173200
 21
2.167000
 12
6.244480
 22
1.461240
 13
6.239640
 23
2.193400
  0
POLYLINE
  8
0
  6
CONTINUOUS
 66
     1
 40
0.000000
 41
0.000000
  0
VERTEX
  8
0
  6
CONTINUOUS
 10
6.178040
 20
1.434400
  0
VERTEX
  8
0
  6
CONTINUOUS
 10
6.173200
 20
2.167000
  0
VERTEX
  8
0
  6
CONTINUOUS
 10
6.239640
 20
2.193400
  0
VERTEX
  8
0
  6
CONTINUOUS
 10
6.244480
 20
1.461240
  0
VERTEX
  8
0
  6
CONTINUOUS
 10
6.178040
 20
1.434400
  0
SEQEND
  8
0
  0
SOLID
  8
0
 62
    15
 10
6.244480
 20
1.461240
 11
6.239640
 21
2.193400
 12
6.277480
 22
1.477080
 13
6.272640
 23
2.209240
  0
POLYLINE
  8
0
  6
CONTINUOUS
 66
     1
 40
0.000000
 41
0.000000
  0
VERTEX
  8
0
  6
CONTINUOUS
 10
6.244480
 20
1.461240
  0
VERTEX
  8
0
  6
CONTINUOUS
 10
6.239640
 20
2.193400
  0
VERTEX
  8
0
  6
CONTINUOUS
 10
6.272640
 20
2.209240
  0
VERTEX
  8
0
  6
CONTINUOUS
 10
6.277480
 20
1.477080
  0
VERTEX
  8
0
  6
CONTINUOUS
 10
6.244480
 20
1.461240
  0
SEQEND
  8
0
  0
SOLID
  8
0
 62
    15
 10
6.277480
 20
1.477080
 11
6.272640
 21
2.209240
 12
6.305200
 22
1.492920
 13
6.300360
 23
2.225080
  0
POLYLINE
  8
0
  6
CONTINUOUS
 66
     1
 40
0.000000
 41
0.000000
  0
VERTEX
  8
0
  6
CONTINUOUS
 10
6.277480
 20
1.477080
  0
VERTEX
  8
0
  6
CONTINUOUS
 10
6.272640
 20
2.209240
  0
VERTEX
  8
0
  6
CONTINUOUS
 10
6.300360
 20
2.225080
  0
VERTEX
  8
0
  6
CONTINUOUS
 10
6.305200
 20
1.492920
  0
VERTEX
  8
0
  6
CONTINUOUS
 10
6.277480
 20
1.477080
  0
SEQEND
  8
0
  0
SOLID
  8
0
 62
    15
 10
6.305200
 20
1.492920
 11
6.300360
 21
2.225080
 12
6.350520
 22
1.525040
 13
6.345680
 23
2.257200
  0
POLYLINE
  8
0
  6
CONTINUOUS
 66
     1
 40
0.000000
 41
0.000000
  0
VERTEX
  8
0
  6
CONTINUOUS
 10
6.305200
 20
1.492920
  0
VERTEX
  8
0
  6
CONTINUOUS
 10
6.300360
 20
2.225080
  0
VERTEX
  8
0
  6
CONTINUOUS
 10
6.345680
 20
2.257200
  0
VERTEX
  8
0
  6
CONTINUOUS
 10
6.350520
 20
1.525040
  0
VERTEX
  8
0
  6
CONTINUOUS
 10
6.305200
 20
1.492920
  0
SEQEND
  8
0
  0
SOLID
  8
0
 62
    15
 10
6.350520
 20
1.525040
 11
6.345680
 21
2.257200
 12
6.385720
 22
1.554520
 13
6.380880
 23
2.287120
  0
POLYLINE
  8
0
  6
CONTINUOUS
 66
     1
 40
0.000000
 41
0.000000
  0
VERTEX
  8
0
  6
CONTINUOUS
 10
6.350520
 20
1.525040
  0
VERTEX
  8
0
  6
CONTINUOUS
 10
6.345680
 20
2.257200
  0
VERTEX
  8
0
  6
CONTINUOUS
 10
6.380880
 20
2.287120
  0
VERTEX
  8
0
  6
CONTINUOUS
 10
6.385720
 20
1.554520
  0
VERTEX
  8
0
  6
CONTINUOUS
 10
6.350520
 20
1.525040
  0
SEQEND
  8
0
  0
SOLID
  8
0
 62
    15
 10
6.385720
 20
1.554520
 11
6.380880
 21
2.287120
 12
6.417840
 22
1.580480
 13
6.413000
 23
2.312640
  0
POLYLINE
  8
0
  6
CONTINUOUS
 66
     1
 40
0.000000
 41
0.000000
  0
VERTEX
  8
0
  6
CONTINUOUS
 10
6.385720
 20
1.554520
  0
VERTEX
  8
0
  6
CONTINUOUS
 10
6.380880
 20
2.287120
  0
VERTEX
  8
0
  6
CONTINUOUS
 10
6.413000
 20
2.312640
  0
VERTEX
  8
0
  6
CONTINUOUS
 10
6.417840
 20
1.580480
  0
VERTEX
  8
0
  6
CONTINUOUS
 10
6.385720
 20
1.554520
  0
SEQEND
  8
0
  0
SOLID
  8
0
 62
    15
 10
6.417840
 20
1.580480
 11
6.413000
 21
2.312640
 12
6.453040
 22
1.599840
 13
6.448200
 23
2.332000
  0
POLYLINE
  8
0
  6
CONTINUOUS
 66
     1
 40
0.000000
 41
0.000000
  0
VERTEX
  8
0
  6
CONTINUOUS
 10
6.417840
 20
1.580480
  0
VERTEX
  8
0
  6
CONTINUOUS
 10
6.413000
 20
2.312640
  0
VERTEX
  8
0
  6
CONTINUOUS
 10
6.448200
 20
2.332000
  0
VERTEX
  8
0
  6
CONTINUOUS
 10
6.453040
 20
1.599840
  0
VERTEX
  8
0
  6
CONTINUOUS
 10
6.417840
 20
1.580480
  0
SEQEND
  8
0
  0
SOLID
  8
0
 62
    15
 10
6.453040
 20
1.599840
 11
6.448200
 21
2.332000
 12
6.473720
 22
1.606440
 13
6.468880
 23
2.338600
  0
POLYLINE
  8
0
  6
CONTINUOUS
 66
     1
 40
0.000000
 41
0.000000
  0
VERTEX
  8
0
  6
CONTINUOUS
 10
6.453040
 20
1.599840
  0
VERTEX
  8
0
  6
CONTINUOUS
 10
6.448200
 20
2.332000
  0
VERTEX
  8
0
  6
CONTINUOUS
 10
6.468880
 20
2.338600
  0
VERTEX
  8
0
  6
CONTINUOUS
 10
6.473720
 20
1.606440
  0
VERTEX
  8
0
  6
CONTINUOUS
 10
6.453040
 20
1.599840
  0
SEQEND
  8
0
  0
SOLID
  8
0
 62
    15
 10
6.473720
 20
1.606440
 11
6.468880
 21
2.338600
 12
6.497920
 22
1.610400
 13
6.493080
 23
2.343000
  0
POLYLINE
  8
0
  6
CONTINUOUS
 66
     1
 40
0.000000
 41
0.000000
  0
VERTEX
  8
0
  6
CONTINUOUS
 10
6.473720
 20
1.606440
  0
VERTEX
  8
0
  6
CONTINUOUS
 10
6.468880
 20
2.338600
  0
VERTEX
  8
0
  6
CONTINUOUS
 10
6.493080
 20
2.343000
  0
VERTEX
  8
0
  6
CONTINUOUS
 10
6.497920
 20
1.610400
  0
VERTEX
  8
0
  6
CONTINUOUS
 10
6.473720
 20
1.606440
  0
SEQEND
  8
0
  0
SOLID
  8
0
 62
    15
 10
6.497920
 20
1.610400
 11
6.493080
 21
2.343000
 12
6.525640
 22
1.612160
 13
6.520800
 23
2.344760
  0
POLYLINE
  8
0
  6
CONTINUOUS
 66
     1
 40
0.000000
 41
0.000000
  0
VERTEX
  8
0
  6
CONTINUOUS
 10
6.497920
 20
1.610400
  0
VERTEX
  8
0
  6
CONTINUOUS
 10
6.493080
 20
2.343000
  0
VERTEX
  8
0
  6
CONTINUOUS
 10
6.520800
 20
2.344760
  0
VERTEX
  8
0
  6
CONTINUOUS
 10
6.525640
 20
1.612160
  0
VERTEX
  8
0
  6
CONTINUOUS
 10
6.497920
 20
1.610400
  0
SEQEND
  8
0
  0
SOLID
  8
0
 62
    15
 10
6.525640
 20
1.612160
 11
6.520800
 21
2.344760
 12
6.558200
 22
1.610840
 13
6.553360
 23
2.343440
  0
POLYLINE
  8
0
  6
CONTINUOUS
 66
     1
 40
0.000000
 41
0.000000
  0
VERTEX
  8
0
  6
CONTINUOUS
 10
6.525640
 20
1.612160
  0
VERTEX
  8
0
  6
CONTINUOUS
 10
6.520800
 20
2.344760
  0
VERTEX
  8
0
  6
CONTINUOUS
 10
6.553360
 20
2.343440
  0
VERTEX
  8
0
  6
CONTINUOUS
 10
6.558200
 20
1.610840
  0
VERTEX
  8
0
  6
CONTINUOUS
 10
6.525640
 20
1.612160
  0
SEQEND
  8
0
  0
SOLID
  8
0
 62
    15
 10
6.558200
 20
1.610840
 11
6.553360
 21
2.343440
 12
6.596040
 22
1.606440
 13
6.591200
 23
2.338600
  0
POLYLINE
  8
0
  6
CONTINUOUS
 66
     1
 40
0.000000
 41
0.000000
  0
VERTEX
  8
0
  6
CONTINUOUS
 10
6.558200
 20
1.610840
  0
VERTEX
  8
0
  6
CONTINUOUS
 10
6.553360
 20
2.343440
  0
VERTEX
  8
0
  6
CONTINUOUS
 10
6.591200
 20
2.338600
  0
VERTEX
  8
0
  6
CONTINUOUS
 10
6.596040
 20
1.606440
  0
VERTEX
  8
0
  6
CONTINUOUS
 10
6.558200
 20
1.610840
  0
SEQEND
  8
0
  0
SOLID
  8
0
 62
    15
 10
6.596040
 20
1.606440
 11
6.591200
 21
2.338600
 12
6.640480
 22
1.598520
 13
6.635640
 23
2.330680
  0
POLYLINE
  8
0
  6
CONTINUOUS
 66
     1
 40
0.000000
 41
0.000000
  0
VERTEX
  8
0
  6
CONTINUOUS
 10
6.596040
 20
1.606440
  0
VERTEX
  8
0
  6
CONTINUOUS
 10
6.591200
 20
2.338600
  0
VERTEX
  8
0
  6
CONTINUOUS
 10
6.635640
 20
2.330680
  0
VERTEX
  8
0
  6
CONTINUOUS
 10
6.640480
 20
1.598520
  0
VERTEX
  8
0
  6
CONTINUOUS
 10
6.596040
 20
1.606440
  0
SEQEND
  8
0
  0
SOLID
  8
0
 62
    15
 10
6.640480
 20
1.598520
 11
6.635640
 21
2.330680
 12
6.640480
 22
1.650440
 13
6.635640
 23
2.382600
  0
POLYLINE
  8
0
  6
CONTINUOUS
 66
     1
 40
0.000000
 41
0.000000
  0
VERTEX
  8
0
  6
CONTINUOUS
 10
6.640480
 20
1.598520
  0
VERTEX
  8
0
  6
CONTINUOUS
 10
6.635640
 20
2.330680
  0
VERTEX
  8
0
  6
CONTINUOUS
 10
6.635640
 20
2.382600
  0
VERTEX
  8
0
  6
CONTINUOUS
 10
6.640480
 20
1.650440
  0
VERTEX
  8
0
  6
CONTINUOUS
 10
6.640480
 20
1.598520
  0
SEQEND
  8
0
  0
SOLID
  8
0
 62
    15
 10
7.297840
 20
1.650440
 11
7.293000
 21
2.382600
 12
7.313240
 22
1.606880
 13
7.308400
 23
2.339040
  0
POLYLINE
  8
0
  6
CONTINUOUS
 66
     1
 40
0.000000
 41
0.000000
  0
VERTEX
  8
0
  6
CONTINUOUS
 10
7.297840
 20
1.650440
  0
VERTEX
  8
0
  6
CONTINUOUS
 10
7.293000
 20
2.382600
  0
VERTEX
  8
0
  6
CONTINUOUS
 10
7.308400
 20
2.339040
  0
VERTEX
  8
0
  6
CONTINUOUS
 10
7.313240
 20
1.606880
  0
VERTEX
  8
0
  6
CONTINUOUS
 10
7.297840
 20
1.650440
  0
SEQEND
  8
0
  0
SOLID
  8
0
 62
    15
 10
6.640480
 20
1.650440
 11
6.635640
 21
2.382600
 12
7.297840
 22
1.650440
 13
7.293000
 23
2.382600
  0
POLYLINE
  8
0
  6
CONTINUOUS
 66
     1
 40
0.000000
 41
0.000000
  0
VERTEX
  8
0
  6
CONTINUOUS
 10
6.640480
 20
1.650440
  0
VERTEX
  8
0
  6
CONTINUOUS
 10
6.635640
 20
2.382600
  0
VERTEX
  8
0
  6
CONTINUOUS
 10
7.293000
 20
2.382600
  0
VERTEX
  8
0
  6
CONTINUOUS
 10
7.297840
 20
1.650440
  0
VERTEX
  8
0
  6
CONTINUOUS
 10
6.640480
 20
1.650440
  0
SEQEND
  8
0
  0
SOLID
  8
0
 62
    15
 10
7.333040
 20
1.568160
 11
7.328200
 21
2.300320
 12
7.356360
 22
1.533840
 13
7.351520
 23
2.266440
  0
POLYLINE
  8
0
  6
CONTINUOUS
 66
     1
 40
0.000000
 41
0.000000
  0
VERTEX
  8
0
  6
CONTINUOUS
 10
7.333040
 20
1.568160
  0
VERTEX
  8
0
  6
CONTINUOUS
 10
7.328200
 20
2.300320
  0
VERTEX
  8
0
  6
CONTINUOUS
 10
7.351520
 20
2.266440
  0
VERTEX
  8
0
  6
CONTINUOUS
 10
7.356360
 20
1.533840
  0
VERTEX
  8
0
  6
CONTINUOUS
 10
7.333040
 20
1.568160
  0
SEQEND
  8
0
  0
SOLID
  8
0
 62
    15
 10
7.313240
 20
1.606880
 11
7.308400
 21
2.339040
 12
7.333040
 22
1.568160
 13
7.328200
 23
2.300320
  0
POLYLINE
  8
0
  6
CONTINUOUS
 66
     1
 40
0.000000
 41
0.000000
  0
VERTEX
  8
0
  6
CONTINUOUS
 10
7.313240
 20
1.606880
  0
VERTEX
  8
0
  6
CONTINUOUS
 10
7.308400
 20
2.339040
  0
VERTEX
  8
0
  6
CONTINUOUS
 10
7.328200
 20
2.300320
  0
VERTEX
  8
0
  6
CONTINUOUS
 10
7.333040
 20
1.568160
  0
VERTEX
  8
0
  6
CONTINUOUS
 10
7.313240
 20
1.606880
  0
SEQEND
  8
0
  0
SOLID
  8
0
 62
    15
 10
7.356360
 20
1.533840
 11
7.351520
 21
2.266440
 12
7.383640
 22
1.504800
 13
7.378800
 23
2.236960
  0
POLYLINE
  8
0
  6
CONTINUOUS
 66
     1
 40
0.000000
 41
0.000000
  0
VERTEX
  8
0
  6
CONTINUOUS
 10
7.356360
 20
1.533840
  0
VERTEX
  8
0
  6
CONTINUOUS
 10
7.351520
 20
2.266440
  0
VERTEX
  8
0
  6
CONTINUOUS
 10
7.378800
 20
2.236960
  0
VERTEX
  8
0
  6
CONTINUOUS
 10
7.383640
 20
1.504800
  0
VERTEX
  8
0
  6
CONTINUOUS
 10
7.356360
 20
1.533840
  0
SEQEND
  8
0
  0
SOLID
  8
0
 62
    15
 10
7.383640
 20
1.504800
 11
7.378800
 21
2.236960
 12
7.414880
 22
1.480160
 13
7.410040
 23
2.212760
  0
POLYLINE
  8
0
  6
CONTINUOUS
 66
     1
 40
0.000000
 41
0.000000
  0
VERTEX
  8
0
  6
CONTINUOUS
 10
7.383640
 20
1.504800
  0
VERTEX
  8
0
  6
CONTINUOUS
 10
7.378800
 20
2.236960
  0
VERTEX
  8
0
  6
CONTINUOUS
 10
7.410040
 20
2.212760
  0
VERTEX
  8
0
  6
CONTINUOUS
 10
7.414880
 20
1.480160
  0
VERTEX
  8
0
  6
CONTINUOUS
 10
7.383640
 20
1.504800
  0
SEQEND
  8
0
  0
SOLID
  8
0
 62
    15
 10
7.414880
 20
1.480160
 11
7.410040
 21
2.212760
 12
7.449640
 22
1.460360
 13
7.444800
 23
2.192960
  0
POLYLINE
  8
0
  6
CONTINUOUS
 66
     1
 40
0.000000
 41
0.000000
  0
VERTEX
  8
0
  6
CONTINUOUS
 10
7.414880
 20
1.480160
  0
VERTEX
  8
0
  6
CONTINUOUS
 10
7.410040
 20
2.212760
  0
VERTEX
  8
0
  6
CONTINUOUS
 10
7.444800
 20
2.192960
  0
VERTEX
  8
0
  6
CONTINUOUS
 10
7.449640
 20
1.460360
  0
VERTEX
  8
0
  6
CONTINUOUS
 10
7.414880
 20
1.480160
  0
SEQEND
  8
0
  0
SOLID
  8
0
 62
    15
 10
7.449640
 20
1.460360
 11
7.444800
 21
2.192960
 12
7.488800
 22
1.445840
 13
7.483960
 23
2.178000
  0
POLYLINE
  8
0
  6
CONTINUOUS
 66
     1
 40
0.000000
 41
0.000000
  0
VERTEX
  8
0
  6
CONTINUOUS
 10
7.449640
 20
1.460360
  0
VERTEX
  8
0
  6
CONTINUOUS
 10
7.444800
 20
2.192960
  0
VERTEX
  8
0
  6
CONTINUOUS
 10
7.483960
 20
2.178000
  0
VERTEX
  8
0
  6
CONTINUOUS
 10
7.488800
 20
1.445840
  0
VERTEX
  8
0
  6
CONTINUOUS
 10
7.449640
 20
1.460360
  0
SEQEND
  8
0
  0
SOLID
  8
0
 62
    15
 10
7.488800
 20
1.445840
 11
7.483960
 21
2.178000
 12
7.531040
 22
1.435720
 13
7.526200
 23
2.167880
  0
POLYLINE
  8
0
  6
CONTINUOUS
 66
     1
 40
0.000000
 41
0.000000
  0
VERTEX
  8
0
  6
CONTINUOUS
 10
7.488800
 20
1.445840
  0
VERTEX
  8
0
  6
CONTINUOUS
 10
7.483960
 20
2.178000
  0
VERTEX
  8
0
  6
CONTINUOUS
 10
7.526200
 20
2.167880
  0
VERTEX
  8
0
  6
CONTINUOUS
 10
7.531040
 20
1.435720
  0
VERTEX
  8
0
  6
CONTINUOUS
 10
7.488800
 20
1.445840
  0
SEQEND
  8
0
  0
SOLID
  8
0
 62
    15
 10
7.531040
 20
1.435720
 11
7.526200
 21
2.167880
 12
7.535440
 22
1.433080
 13
7.530600
 23
2.165240
  0
POLYLINE
  8
0
  6
CONTINUOUS
 66
     1
 40
0.000000
 41
0.000000
  0
VERTEX
  8
0
  6
CONTINUOUS
 10
7.531040
 20
1.435720
  0
VERTEX
  8
0
  6
CONTINUOUS
 10
7.526200
 20
2.167880
  0
VERTEX
  8
0
  6
CONTINUOUS
 10
7.530600
 20
2.165240
  0
VERTEX
  8
0
  6
CONTINUOUS
 10
7.535440
 20
1.433080
  0
VERTEX
  8
0
  6
CONTINUOUS
 10
7.531040
 20
1.435720
  0
SEQEND
  8
0
  0
POLYLINE
  8
0
  6
CONTINUOUS
 66
     1
 40
0.000000
 41
0.000000
  0
VERTEX
  8
0
  6
CONTINUOUS
 10
2.563440
 20
0.914320
  0
VERTEX
  8
0
  6
CONTINUOUS
 10
2.563440
 20
1.439680
  0
VERTEX
  8
0
  6
CONTINUOUS
 10
2.564760
 20
1.441000
  0
VERTEX
  8
0
  6
CONTINUOUS
 10
2.607000
 20
1.451120
  0
VERTEX
  8
0
  6
CONTINUOUS
 10
2.646160
 20
1.466520
  0
VERTEX
  8
0
  6
CONTINUOUS
 10
2.681360
 20
1.486320
  0
VERTEX
  8
0
  6
CONTINUOUS
 10
2.713040
 20
1.511400
  0
VERTEX
  8
0
  6
CONTINUOUS
 10
2.740320
 20
1.541320
  0
VERTEX
  8
0
  6
CONTINUOUS
 10
2.764080
 20
1.575640
  0
VERTEX
  8
0
  6
CONTINUOUS
 10
2.783440
 20
1.614800
  0
VERTEX
  8
0
  6
CONTINUOUS
 10
2.799280
 20
1.658360
  0
VERTEX
  8
0
  6
CONTINUOUS
 10
2.799280
 20
1.655720
  0
VERTEX
  8
0
  6
CONTINUOUS
 10
3.454000
 20
1.657040
  0
VERTEX
  8
0
  6
CONTINUOUS
 10
3.454000
 20
1.606440
  0
VERTEX
  8
0
  6
CONTINUOUS
 10
3.452680
 20
1.603800
  0
VERTEX
  8
0
  6
CONTINUOUS
 10
3.496680
 20
1.611720
  0
VERTEX
  8
0
  6
CONTINUOUS
 10
3.534960
 20
1.616120
  0
VERTEX
  8
0
  6
CONTINUOUS
 10
3.567520
 20
1.617440
  0
VERTEX
  8
0
  6
CONTINUOUS
 10
3.595240
 20
1.616120
  0
VERTEX
  8
0
  6
CONTINUOUS
 10
3.619440
 20
1.611720
  0
VERTEX
  8
0
  6
CONTINUOUS
 10
3.640120
 20
1.605120
  0
VERTEX
  8
0
  6
CONTINUOUS
 10
3.675760
 20
1.585760
  0
VERTEX
  8
0
  6
CONTINUOUS
 10
3.743520
 20
1.530320
  0
VERTEX
  8
0
  6
CONTINUOUS
 10
3.788840
 20
1.498200
  0
VERTEX
  8
0
  6
CONTINUOUS
 10
3.817000
 20
1.482360
  0
VERTEX
  8
0
  6
CONTINUOUS
 10
3.850000
 20
1.466520
  0
VERTEX
  8
0
  6
CONTINUOUS
 10
3.916440
 20
1.439680
  0
VERTEX
  8
0
  6
CONTINUOUS
 10
3.974960
 20
1.420760
  0
VERTEX
  8
0
  6
CONTINUOUS
 10
4.026440
 20
1.408440
  0
VERTEX
  8
0
  6
CONTINUOUS
 10
4.071320
 20
1.400960
  0
VERTEX
  8
0
  6
CONTINUOUS
 10
4.111360
 20
1.397440
  0
VERTEX
  8
0
  6
CONTINUOUS
 10
4.178240
 20
1.396120
  0
VERTEX
  8
0
  6
CONTINUOUS
 10
4.207280
 20
1.395680
  0
VERTEX
  8
0
  6
CONTINUOUS
 10
4.211680
 20
1.390400
  0
VERTEX
  8
0
  6
CONTINUOUS
 10
4.219600
 20
1.375440
  0
VERTEX
  8
0
  6
CONTINUOUS
 10
4.233680
 20
1.356080
  0
VERTEX
  8
0
  6
CONTINUOUS
 10
4.257440
 20
1.339360
  0
VERTEX
  8
0
  6
CONTINUOUS
 10
4.273720
 20
1.333640
  0
VERTEX
  8
0
  6
CONTINUOUS
 10
4.293520
 20
1.330560
  0
VERTEX
  8
0
  6
CONTINUOUS
 10
4.316840
 20
1.331440
  0
VERTEX
  8
0
  6
CONTINUOUS
 10
4.344120
 20
1.336280
  0
VERTEX
  8
0
  6
CONTINUOUS
 10
4.375800
 20
1.345960
  0
VERTEX
  8
0
  6
CONTINUOUS
 10
4.412760
 20
1.361800
  0
VERTEX
  8
0
  6
CONTINUOUS
 10
4.454560
 20
1.383800
  0
VERTEX
  8
0
  6
CONTINUOUS
 10
4.543880
 20
1.438360
  0
VERTEX
  8
0
  6
CONTINUOUS
 10
4.582160
 20
1.456400
  0
VERTEX
  8
0
  6
CONTINUOUS
 10
4.617360
 20
1.468720
  0
VERTEX
  8
0
  6
CONTINUOUS
 10
4.649480
 20
1.474880
  0
VERTEX
  8
0
  6
CONTINUOUS
 10
4.678520
 20
1.476640
  0
VERTEX
  8
0
  6
CONTINUOUS
 10
4.704920
 20
1.474440
  0
VERTEX
  8
0
  6
CONTINUOUS
 10
4.728240
 20
1.468280
  0
VERTEX
  8
0
  6
CONTINUOUS
 10
4.749360
 20
1.459480
  0
VERTEX
  8
0
  6
CONTINUOUS
 10
4.784120
 20
1.436160
  0
VERTEX
  8
0
  6
CONTINUOUS
 10
4.810520
 20
1.409760
  0
VERTEX
  8
0
  6
CONTINUOUS
 10
4.841760
 20
1.369280
  0
VERTEX
  8
0
  6
CONTINUOUS
 10
4.850120
 20
1.367520
  0
VERTEX
  8
0
  6
CONTINUOUS
 10
4.857160
 20
1.370600
  0
VERTEX
  8
0
  6
CONTINUOUS
 10
4.869920
 20
1.386880
  0
VERTEX
  8
0
  6
CONTINUOUS
 10
4.898960
 20
1.445400
  0
VERTEX
  8
0
  6
CONTINUOUS
 10
4.920080
 20
1.478840
  0
VERTEX
  8
0
  6
CONTINUOUS
 10
4.949120
 20
1.507880
  0
VERTEX
  8
0
  6
CONTINUOUS
 10
4.967600
 20
1.519760
  0
VERTEX
  8
0
  6
CONTINUOUS
 10
4.988720
 20
1.529000
  0
VERTEX
  8
0
  6
CONTINUOUS
 10
5.013800
 20
1.535160
  0
VERTEX
  8
0
  6
CONTINUOUS
 10
5.041960
 20
1.537360
  0
VERTEX
  8
0
  6
CONTINUOUS
 10
5.048560
 20
1.535600
  0
VERTEX
  8
0
  6
CONTINUOUS
 10
5.076720
 20
1.533840
  0
VERTEX
  8
0
  6
CONTINUOUS
 10
5.101800
 20
1.527680
  0
VERTEX
  8
0
  6
CONTINUOUS
 10
5.123360
 20
1.518000
  0
VERTEX
  8
0
  6
CONTINUOUS
 10
5.141840
 20
1.506120
  0
VERTEX
  8
0
  6
CONTINUOUS
 10
5.171760
 20
1.476200
  0
VERTEX
  8
0
  6
CONTINUOUS
 10
5.193760
 20
1.442320
  0
VERTEX
  8
0
  6
CONTINUOUS
 10
5.223680
 20
1.382040
  0
VERTEX
  8
0
  6
CONTINUOUS
 10
5.236880
 20
1.365320
  0
VERTEX
  8
0
  6
CONTINUOUS
 10
5.244360
 20
1.362240
  0
VERTEX
  8
0
  6
CONTINUOUS
 10
5.252720
 20
1.364000
  0
VERTEX
  8
0
  6
CONTINUOUS
 10
5.283520
 20
1.404480
  0
VERTEX
  8
0
  6
CONTINUOUS
 10
5.309920
 20
1.430880
  0
VERTEX
  8
0
  6
CONTINUOUS
 10
5.345120
 20
1.454200
  0
VERTEX
  8
0
  6
CONTINUOUS
 10
5.366240
 20
1.463000
  0
VERTEX
  8
0
  6
CONTINUOUS
 10
5.389560
 20
1.469160
  0
VERTEX
  8
0
  6
CONTINUOUS
 10
5.415960
 20
1.471360
  0
VERTEX
  8
0
  6
CONTINUOUS
 10
5.445000
 20
1.469600
  0
VERTEX
  8
0
  6
CONTINUOUS
 10
5.477120
 20
1.463000
  0
VERTEX
  8
0
  6
CONTINUOUS
 10
5.512320
 20
1.451120
  0
VERTEX
  8
0
  6
CONTINUOUS
 10
5.550600
 20
1.433080
  0
VERTEX
  8
0
  6
CONTINUOUS
 10
5.639920
 20
1.378520
  0
VERTEX
  8
0
  6
CONTINUOUS
 10
5.681720
 20
1.356520
  0
VERTEX
  8
0
  6
CONTINUOUS
 10
5.718240
 20
1.340680
  0
VERTEX
  8
0
  6
CONTINUOUS
 10
5.750360
 20
1.331000
  0
VERTEX
  8
0
  6
CONTINUOUS
 10
5.777640
 20
1.326160
  0
VERTEX
  8
0
  6
CONTINUOUS
 10
5.800960
 20
1.325280
  0
VERTEX
  8
0
  6
CONTINUOUS
 10
5.820760
 20
1.328360
  0
VERTEX
  8
0
  6
CONTINUOUS
 10
5.837040
 20
1.334080
  0
VERTEX
  8
0
  6
CONTINUOUS
 10
5.860360
 20
1.350800
  0
VERTEX
  8
0
  6
CONTINUOUS
 10
5.879720
 20
1.378520
  0
VERTEX
  8
0
  6
CONTINUOUS
 10
5.882800
 20
1.385120
  0
VERTEX
  8
0
  6
CONTINUOUS
 10
5.887200
 20
1.390400
  0
VERTEX
  8
0
  6
CONTINUOUS
 10
5.947920
 20
1.390840
  0
VERTEX
  8
0
  6
CONTINUOUS
 10
5.983120
 20
1.392160
  0
VERTEX
  8
0
  6
CONTINUOUS
 10
6.022720
 20
1.395680
  0
VERTEX
  8
0
  6
CONTINUOUS
 10
6.068040
 20
1.403160
  0
VERTEX
  8
0
  6
CONTINUOUS
 10
6.119520
 20
1.415480
  0
VERTEX
  8
0
  6
CONTINUOUS
 10
6.178040
 20
1.434400
  0
VERTEX
  8
0
  6
CONTINUOUS
 10
6.244480
 20
1.461240
  0
VERTEX
  8
0
  6
CONTINUOUS
 10
6.277480
 20
1.477080
  0
VERTEX
  8
0
  6
CONTINUOUS
 10
6.305200
 20
1.492920
  0
VERTEX
  8
0
  6
CONTINUOUS
 10
6.350520
 20
1.525040
  0
VERTEX
  8
0
  6
CONTINUOUS
 10
6.417840
 20
1.580480
  0
VERTEX
  8
0
  6
CONTINUOUS
 10
6.453040
 20
1.599840
  0
VERTEX
  8
0
  6
CONTINUOUS
 10
6.473720
 20
1.606440
  0
VERTEX
  8
0
  6
CONTINUOUS
 10
6.497920
 20
1.610400
  0
VERTEX
  8
0
  6
CONTINUOUS
 10
6.525640
 20
1.612160
  0
VERTEX
  8
0
  6
CONTINUOUS
 10
6.558200
 20
1.610840
  0
VERTEX
  8
0
  6
CONTINUOUS
 10
6.596040
 20
1.606440
  0
VERTEX
  8
0
  6
CONTINUOUS
 10
6.640480
 20
1.598520
  0
VERTEX
  8
0
  6
CONTINUOUS
 10
6.640480
 20
1.650440
  0
VERTEX
  8
0
  6
CONTINUOUS
 10
7.297840
 20
1.650440
  0
VERTEX
  8
0
  6
CONTINUOUS
 10
7.313240
 20
1.606880
  0
VERTEX
  8
0
  6
CONTINUOUS
 10
7.333040
 20
1.568160
  0
VERTEX
  8
0
  6
CONTINUOUS
 10
7.356360
 20
1.533840
  0
VERTEX
  8
0
  6
CONTINUOUS
 10
7.383640
 20
1.504800
  0
VERTEX
  8
0
  6
CONTINUOUS
 10
7.414880
 20
1.480160
  0
VERTEX
  8
0
  6
CONTINUOUS
 10
7.449640
 20
1.460360
  0
VERTEX
  8
0
  6
CONTINUOUS
 10
7.488800
 20
1.445840
  0
VERTEX
  8
0
  6
CONTINUOUS
 10
7.531040
 20
1.435720
  0
VERTEX
  8
0
  6
CONTINUOUS
 10
7.535440
 20
1.433080
  0
VERTEX
  8
0
  6
CONTINUOUS
 10
7.535440
 20
0.907720
  0
VERTEX
  8
0
  6
CONTINUOUS
 10
7.533680
 20
0.901120
  0
VERTEX
  8
0
  6
CONTINUOUS
 10
2.566080
 20
0.901120
  0
VERTEX
  8
0
  6
CONTINUOUS
 10
2.563440
 20
0.914320
  0
SEQEND
  8
0
  0
TEXT
  8
0
 10
4.752880
 20
0.634040
 40
0.138046
  1
BA  281
 41
1.000000
  7
SN0
 71
     0
 72
     5
 11
5.343171
 21
0.634040
  0
TEXT
  8
0
 10
4.740120
 20
0.442200
 40
0.138046
  1
3/4" x 5"
 41
1.000000
  7
SN0
 71
     0
 72
     5
 11
5.355988
 21
0.442200
  0
TEXT
  8
0
 10
7.700880
 20
3.534080
 40
0.138046
  1
case
 41
1.000000
  7
SN0
 71
     0
 72
     5
 11
8.051778
 21
3.534080
  0
TEXT
  8
0
 10
7.737840
 20
3.342240
 40
0.138046
  1
281
 41
1.000000
  7
SN0
 71
     0
 72
     5
 11
8.014880
 21
3.342240
  0
ENDSEC
  0
EOF
