  0
SECTION
  2
HEADER
  9
$ACADVER
  1
AC1006
  9
$EXTMIN
 10
5.988400
 20
0.419320
  9
$EXTMAX
 10
7.898880
 20
2.451680
  9
$LTSCALE
 40
0.044000
  9
$PDMODE
 70
    35
  9
$PDSIZE
 40
0.035200
  0
ENDSEC
  0
SECTION
  2
TABLES
  0
TABLE
  2
LTYPE
 70
     9
  0
LTYPE
  2
CONTINUOUS
 70
    64
  3
Solid line
 72
    65
 73
     0
 40
0.000000
  0
LTYPE
  2
DASHED
 70
    64
  3
__ __ __ __ __ __ __ __ __ __ __ __ __ __ __
 72
    65
 73
     2
 40
0.000330
 49
0.000220
 49
-0.000110
  0
LTYPE
  2
HIDDEN
 70
    64
  3
 _ _ _ _ _ _ _ _ _ _ _ _ _ _ _ _ _ _ _ _ _ _
 72
    65
 73
     2
 40
0.000165
 49
0.000110
 49
-0.000055
  0
LTYPE
  2
CENTER
 70
    64
  3
____ _ ____ _ ____ _ ____ _ ____ _ ____ _ ____
 72
    65
 73
     4
 40
0.000880
 49
0.000550
 49
-0.000110
 49
0.000110
 49
-0.000110
  0
LTYPE
  2
PHANTOM
 70
    64
  3
_____ _ _ _____ _ _ _____ _ _ _____ _ _ ____
 72
    65
 73
     6
 40
0.001100
 49
0.000550
 49
-0.000110
 49
0.000110
 49
-0.000110
 49
0.000110
 49
-0.000110
  0
LTYPE
  2
DOT
 70
    64
  3
...............................................
 72
    65
 73
     2
 40
0.000110
 49
0.000000
 49
-0.000110
  0
LTYPE
  2
DASHDOT
 70
    64
  3
__ . __ . __ . __ . __ . __ . __ . __ . __ . __
 72
    65
 73
     4
 40
0.000440
 49
0.000220
 49
-0.000110
 49
0.000000
 49
-0.000110
  0
LTYPE
  2
BORDER
 70
    64
  3
__ __ . __ __ . __ __ . __ __ . __ __ . __ __
 72
    65
 73
     6
 40
0.000770
 49
0.000220
 49
-0.000110
 49
0.000220
 49
-0.000110
 49
0.000000
 49
-0.000110
  0
LTYPE
  2
DIVIDE
 70
    64
  3
__ . . __ . . __ . . __ . . __ . . __ . . __
 72
    65
 73
     6
 40
0.000550
 49
0.000220
 49
-0.000110
 49
0.000000
 49
-0.000110
 49
0.000000
 49
-0.000110
  0
LTYPE
  2
DOTDOT
 70
    64
  3
 . .  . .  . .  . .  . .  . . 
 72
    65
 73
     5
 40
0.000242
 49
-0.000110
 49
0.000000
 49
-0.000110
 49
0.000000
 49
-0.000110
  0
ENDTAB
  0
TABLE
  2
STYLE
 70
     2
  0
STYLE
 70
     0
  2
SN0
 40
0.000000
 41
0.000440
 50
0.000000
 71
     0
 42
0.000000
  3
ROMAND
  0
STYLE
 70
    68
  2
SV0
 40
0.000000
 41
0.000440
 50
0.000000
 71
     0
 42
0.000000
  3
ROMAND
  0
ENDTAB
  0
TABLE
  2
LAYER
 70
     3
  0
LAYER
  2
FOREGROUND
 70
    64
 62
     7
  6
CONTINUOUS
  0
LAYER
  2
BACKGROUND
 70
    65
 62
    -7
  6
CONTINUOUS
  0
LAYER
  2
0
 70
    64
 62
     7
  6
CONTINUOUS
  0
ENDTAB
  0
ENDSEC
  0
SECTION
  2
ENTITIES
  0
POLYLINE
  8
FOREGROUND
  6
CONTINUOUS
 66
     1
 40
0.000000
 41
0.000000
  0
VERTEX
  8
FOREGROUND
  6
CONTINUOUS
 10
0.000000
 20
2.871000
  0
VERTEX
  8
FOREGROUND
  6
CONTINUOUS
 10
8.499920
 20
2.871000
  0
VERTEX
  8
FOREGROUND
  6
CONTINUOUS
 10
8.499920
 20
-8.129000
  0
VERTEX
  8
FOREGROUND
  6
CONTINUOUS
 10
0.000000
 20
-8.129000
  0
VERTEX
  8
FOREGROUND
  6
CONTINUOUS
 10
0.000000
 20
2.871000
  0
SEQEND
  8
0
  0
POLYLINE
  8
FOREGROUND
  6
CONTINUOUS
 66
     1
 40
0.000000
 41
0.000000
  0
VERTEX
  8
FOREGROUND
  6
CONTINUOUS
 10
0.000000
 20
2.871000
  0
VERTEX
  8
FOREGROUND
  6
CONTINUOUS
 10
8.499920
 20
2.871000
  0
VERTEX
  8
FOREGROUND
  6
CONTINUOUS
 10
8.499920
 20
-8.129000
  0
VERTEX
  8
FOREGROUND
  6
CONTINUOUS
 10
0.000000
 20
-8.129000
  0
VERTEX
  8
FOREGROUND
  6
CONTINUOUS
 10
0.000000
 20
2.871000
  0
SEQEND
  8
0
  0
POLYLINE
  8
0
  6
CONTINUOUS
 66
     1
 40
0.014080
 41
0.014080
  0
VERTEX
  8
0
  6
CONTINUOUS
 10
6.562600
 20
2.409000
  0
VERTEX
  8
0
  6
CONTINUOUS
 10
5.995880
 20
2.409000
  0
VERTEX
  8
0
  6
CONTINUOUS
 10
5.995880
 20
1.980880
  0
VERTEX
  8
0
  6
CONTINUOUS
 10
6.567880
 20
1.980880
  0
VERTEX
  8
0
  6
CONTINUOUS
 10
6.569200
 20
1.982200
  0
VERTEX
  8
0
  6
CONTINUOUS
 10
6.569200
 20
2.047760
  0
VERTEX
  8
0
  6
CONTINUOUS
 10
6.570520
 20
2.047760
  0
VERTEX
  8
0
  6
CONTINUOUS
 10
6.589000
 20
2.048640
  0
VERTEX
  8
0
  6
CONTINUOUS
 10
6.606600
 20
2.051280
  0
VERTEX
  8
0
  6
CONTINUOUS
 10
6.623320
 20
2.055680
  0
VERTEX
  8
0
  6
CONTINUOUS
 10
6.639600
 20
2.061840
  0
VERTEX
  8
0
  6
CONTINUOUS
 10
6.655000
 20
2.069760
  0
VERTEX
  8
0
  6
CONTINUOUS
 10
6.669520
 20
2.078560
  0
VERTEX
  8
0
  6
CONTINUOUS
 10
6.683160
 20
2.089120
  0
VERTEX
  8
0
  6
CONTINUOUS
 10
6.695480
 20
2.100560
  0
VERTEX
  8
0
  6
CONTINUOUS
 10
6.706920
 20
2.113320
  0
VERTEX
  8
0
  6
CONTINUOUS
 10
6.717040
 20
2.127400
  0
VERTEX
  8
0
  6
CONTINUOUS
 10
6.725840
 20
2.141920
  0
VERTEX
  8
0
  6
CONTINUOUS
 10
6.732880
 20
2.157760
  0
VERTEX
  8
0
  6
CONTINUOUS
 10
6.738600
 20
2.174480
  0
VERTEX
  8
0
  6
CONTINUOUS
 10
6.743000
 20
2.191640
  0
VERTEX
  8
0
  6
CONTINUOUS
 10
6.745640
 20
2.209240
  0
VERTEX
  8
0
  6
CONTINUOUS
 10
6.746520
 20
2.227720
  0
VERTEX
  8
0
  6
CONTINUOUS
 10
6.745640
 20
2.246200
  0
VERTEX
  8
0
  6
CONTINUOUS
 10
6.742560
 20
2.263800
  0
VERTEX
  8
0
  6
CONTINUOUS
 10
6.738160
 20
2.280960
  0
VERTEX
  8
0
  6
CONTINUOUS
 10
6.732000
 20
2.297680
  0
VERTEX
  8
0
  6
CONTINUOUS
 10
6.724520
 20
2.313520
  0
VERTEX
  8
0
  6
CONTINUOUS
 10
6.715280
 20
2.328480
  0
VERTEX
  8
0
  6
CONTINUOUS
 10
6.704720
 20
2.342560
  0
VERTEX
  8
0
  6
CONTINUOUS
 10
6.692840
 20
2.355320
  0
VERTEX
  8
0
  6
CONTINUOUS
 10
6.680080
 20
2.367200
  0
VERTEX
  8
0
  6
CONTINUOUS
 10
6.666000
 20
2.377760
  0
VERTEX
  8
0
  6
CONTINUOUS
 10
6.651040
 20
2.387000
  0
VERTEX
  8
0
  6
CONTINUOUS
 10
6.635200
 20
2.394480
  0
VERTEX
  8
0
  6
CONTINUOUS
 10
6.618480
 20
2.400640
  0
VERTEX
  8
0
  6
CONTINUOUS
 10
6.601320
 20
2.405040
  0
VERTEX
  8
0
  6
CONTINUOUS
 10
6.583720
 20
2.408120
  0
VERTEX
  8
0
  6
CONTINUOUS
 10
6.565240
 20
2.409000
  0
VERTEX
  8
0
  6
CONTINUOUS
 10
6.562600
 20
2.409000
  0
SEQEND
  8
0
  0
SOLID
  8
0
 62
    15
 10
7.118320
 20
1.110560
 11
7.767320
 21
1.478400
 12
7.114800
 22
1.074480
 13
7.763800
 23
1.442320
  0
POLYLINE
  8
0
  6
CONTINUOUS
 66
     1
 40
0.000000
 41
0.000000
  0
VERTEX
  8
0
  6
CONTINUOUS
 10
7.118320
 20
1.110560
  0
VERTEX
  8
0
  6
CONTINUOUS
 10
7.767320
 20
1.478400
  0
VERTEX
  8
0
  6
CONTINUOUS
 10
7.763800
 20
1.442320
  0
VERTEX
  8
0
  6
CONTINUOUS
 10
7.114800
 20
1.074480
  0
VERTEX
  8
0
  6
CONTINUOUS
 10
7.118320
 20
1.110560
  0
SEQEND
  8
0
  0
SOLID
  8
0
 62
    15
 10
6.973120
 20
1.288320
 11
7.622120
 21
1.656160
 12
7.007000
 22
1.277320
 13
7.656000
 23
1.645160
  0
POLYLINE
  8
0
  6
CONTINUOUS
 66
     1
 40
0.000000
 41
0.000000
  0
VERTEX
  8
0
  6
CONTINUOUS
 10
6.973120
 20
1.288320
  0
VERTEX
  8
0
  6
CONTINUOUS
 10
7.622120
 20
1.656160
  0
VERTEX
  8
0
  6
CONTINUOUS
 10
7.656000
 20
1.645160
  0
VERTEX
  8
0
  6
CONTINUOUS
 10
7.007000
 20
1.277320
  0
VERTEX
  8
0
  6
CONTINUOUS
 10
6.973120
 20
1.288320
  0
SEQEND
  8
0
  0
SOLID
  8
0
 62
    15
 10
7.007000
 20
1.277320
 11
7.656000
 21
1.645160
 12
7.037800
 22
1.260600
 13
7.686800
 23
1.628440
  0
POLYLINE
  8
0
  6
CONTINUOUS
 66
     1
 40
0.000000
 41
0.000000
  0
VERTEX
  8
0
  6
CONTINUOUS
 10
7.007000
 20
1.277320
  0
VERTEX
  8
0
  6
CONTINUOUS
 10
7.656000
 20
1.645160
  0
VERTEX
  8
0
  6
CONTINUOUS
 10
7.686800
 20
1.628440
  0
VERTEX
  8
0
  6
CONTINUOUS
 10
7.037800
 20
1.260600
  0
VERTEX
  8
0
  6
CONTINUOUS
 10
7.007000
 20
1.277320
  0
SEQEND
  8
0
  0
SOLID
  8
0
 62
     7
 10
7.037800
 20
1.260600
 11
7.686800
 21
1.628440
 12
7.064640
 22
1.238160
 13
7.713640
 23
1.606000
  0
POLYLINE
  8
0
  6
CONTINUOUS
 66
     1
 40
0.000000
 41
0.000000
  0
VERTEX
  8
0
  6
CONTINUOUS
 10
7.037800
 20
1.260600
  0
VERTEX
  8
0
  6
CONTINUOUS
 10
7.686800
 20
1.628440
  0
VERTEX
  8
0
  6
CONTINUOUS
 10
7.713640
 20
1.606000
  0
VERTEX
  8
0
  6
CONTINUOUS
 10
7.064640
 20
1.238160
  0
VERTEX
  8
0
  6
CONTINUOUS
 10
7.037800
 20
1.260600
  0
SEQEND
  8
0
  0
SOLID
  8
0
 62
     7
 10
7.064640
 20
1.238160
 11
7.713640
 21
1.606000
 12
7.087080
 22
1.211320
 13
7.736080
 23
1.579160
  0
POLYLINE
  8
0
  6
CONTINUOUS
 66
     1
 40
0.000000
 41
0.000000
  0
VERTEX
  8
0
  6
CONTINUOUS
 10
7.064640
 20
1.238160
  0
VERTEX
  8
0
  6
CONTINUOUS
 10
7.713640
 20
1.606000
  0
VERTEX
  8
0
  6
CONTINUOUS
 10
7.736080
 20
1.579160
  0
VERTEX
  8
0
  6
CONTINUOUS
 10
7.087080
 20
1.211320
  0
VERTEX
  8
0
  6
CONTINUOUS
 10
7.064640
 20
1.238160
  0
SEQEND
  8
0
  0
SOLID
  8
0
 62
     7
 10
7.087080
 20
1.211320
 11
7.736080
 21
1.579160
 12
7.103800
 22
1.180520
 13
7.753240
 23
1.548360
  0
POLYLINE
  8
0
  6
CONTINUOUS
 66
     1
 40
0.000000
 41
0.000000
  0
VERTEX
  8
0
  6
CONTINUOUS
 10
7.087080
 20
1.211320
  0
VERTEX
  8
0
  6
CONTINUOUS
 10
7.736080
 20
1.579160
  0
VERTEX
  8
0
  6
CONTINUOUS
 10
7.753240
 20
1.548360
  0
VERTEX
  8
0
  6
CONTINUOUS
 10
7.103800
 20
1.180520
  0
VERTEX
  8
0
  6
CONTINUOUS
 10
7.087080
 20
1.211320
  0
SEQEND
  8
0
  0
SOLID
  8
0
 62
    15
 10
7.103800
 20
1.180520
 11
7.753240
 21
1.548360
 12
7.114360
 22
1.146640
 13
7.763800
 23
1.514480
  0
POLYLINE
  8
0
  6
CONTINUOUS
 66
     1
 40
0.000000
 41
0.000000
  0
VERTEX
  8
0
  6
CONTINUOUS
 10
7.103800
 20
1.180520
  0
VERTEX
  8
0
  6
CONTINUOUS
 10
7.753240
 20
1.548360
  0
VERTEX
  8
0
  6
CONTINUOUS
 10
7.763800
 20
1.514480
  0
VERTEX
  8
0
  6
CONTINUOUS
 10
7.114360
 20
1.146640
  0
VERTEX
  8
0
  6
CONTINUOUS
 10
7.103800
 20
1.180520
  0
SEQEND
  8
0
  0
SOLID
  8
0
 62
    15
 10
7.114360
 20
1.146640
 11
7.763800
 21
1.514480
 12
7.118320
 22
1.110560
 13
7.767320
 23
1.478400
  0
POLYLINE
  8
0
  6
CONTINUOUS
 66
     1
 40
0.000000
 41
0.000000
  0
VERTEX
  8
0
  6
CONTINUOUS
 10
7.114360
 20
1.146640
  0
VERTEX
  8
0
  6
CONTINUOUS
 10
7.763800
 20
1.514480
  0
VERTEX
  8
0
  6
CONTINUOUS
 10
7.767320
 20
1.478400
  0
VERTEX
  8
0
  6
CONTINUOUS
 10
7.118320
 20
1.110560
  0
VERTEX
  8
0
  6
CONTINUOUS
 10
7.114360
 20
1.146640
  0
SEQEND
  8
0
  0
SOLID
  8
0
 62
    15
 10
6.937040
 20
1.291840
 11
7.586040
 21
1.659680
 12
6.973120
 22
1.288320
 13
7.622120
 23
1.656160
  0
POLYLINE
  8
0
  6
CONTINUOUS
 66
     1
 40
0.000000
 41
0.000000
  0
VERTEX
  8
0
  6
CONTINUOUS
 10
6.937040
 20
1.291840
  0
VERTEX
  8
0
  6
CONTINUOUS
 10
7.586040
 20
1.659680
  0
VERTEX
  8
0
  6
CONTINUOUS
 10
7.622120
 20
1.656160
  0
VERTEX
  8
0
  6
CONTINUOUS
 10
6.973120
 20
1.288320
  0
VERTEX
  8
0
  6
CONTINUOUS
 10
6.937040
 20
1.291840
  0
SEQEND
  8
0
  0
SOLID
  8
0
 62
    15
 10
7.114800
 20
1.074480
 11
7.763800
 21
1.442320
 12
7.104680
 22
1.041040
 13
7.753680
 23
1.408880
  0
POLYLINE
  8
0
  6
CONTINUOUS
 66
     1
 40
0.000000
 41
0.000000
  0
VERTEX
  8
0
  6
CONTINUOUS
 10
7.114800
 20
1.074480
  0
VERTEX
  8
0
  6
CONTINUOUS
 10
7.763800
 20
1.442320
  0
VERTEX
  8
0
  6
CONTINUOUS
 10
7.753680
 20
1.408880
  0
VERTEX
  8
0
  6
CONTINUOUS
 10
7.104680
 20
1.041040
  0
VERTEX
  8
0
  6
CONTINUOUS
 10
7.114800
 20
1.074480
  0
SEQEND
  8
0
  0
SOLID
  8
0
 62
    15
 10
6.941000
 20
0.930600
 11
7.590000
 21
1.298440
 12
6.941000
 22
0.865480
 13
7.590000
 23
1.233320
  0
POLYLINE
  8
0
  6
CONTINUOUS
 66
     1
 40
0.000000
 41
0.000000
  0
VERTEX
  8
0
  6
CONTINUOUS
 10
6.941000
 20
0.930600
  0
VERTEX
  8
0
  6
CONTINUOUS
 10
7.590000
 20
1.298440
  0
VERTEX
  8
0
  6
CONTINUOUS
 10
7.590000
 20
1.233320
  0
VERTEX
  8
0
  6
CONTINUOUS
 10
6.941000
 20
0.865480
  0
VERTEX
  8
0
  6
CONTINUOUS
 10
6.941000
 20
0.930600
  0
SEQEND
  8
0
  0
SOLID
  8
0
 62
    15
 10
7.088400
 20
1.010240
 11
7.737840
 21
1.378080
 12
7.067280
 22
0.983840
 13
7.716280
 23
1.351680
  0
POLYLINE
  8
0
  6
CONTINUOUS
 66
     1
 40
0.000000
 41
0.000000
  0
VERTEX
  8
0
  6
CONTINUOUS
 10
7.088400
 20
1.010240
  0
VERTEX
  8
0
  6
CONTINUOUS
 10
7.737840
 20
1.378080
  0
VERTEX
  8
0
  6
CONTINUOUS
 10
7.716280
 20
1.351680
  0
VERTEX
  8
0
  6
CONTINUOUS
 10
7.067280
 20
0.983840
  0
VERTEX
  8
0
  6
CONTINUOUS
 10
7.088400
 20
1.010240
  0
SEQEND
  8
0
  0
SOLID
  8
0
 62
    15
 10
7.067280
 20
0.983840
 11
7.716280
 21
1.351680
 12
7.041320
 22
0.961400
 13
7.690760
 23
1.329680
  0
POLYLINE
  8
0
  6
CONTINUOUS
 66
     1
 40
0.000000
 41
0.000000
  0
VERTEX
  8
0
  6
CONTINUOUS
 10
7.067280
 20
0.983840
  0
VERTEX
  8
0
  6
CONTINUOUS
 10
7.716280
 20
1.351680
  0
VERTEX
  8
0
  6
CONTINUOUS
 10
7.690760
 20
1.329680
  0
VERTEX
  8
0
  6
CONTINUOUS
 10
7.041320
 20
0.961400
  0
VERTEX
  8
0
  6
CONTINUOUS
 10
7.067280
 20
0.983840
  0
SEQEND
  8
0
  0
SOLID
  8
0
 62
    15
 10
7.104680
 20
1.041040
 11
7.753680
 21
1.408880
 12
7.088400
 22
1.010240
 13
7.737840
 23
1.378080
  0
POLYLINE
  8
0
  6
CONTINUOUS
 66
     1
 40
0.000000
 41
0.000000
  0
VERTEX
  8
0
  6
CONTINUOUS
 10
7.104680
 20
1.041040
  0
VERTEX
  8
0
  6
CONTINUOUS
 10
7.753680
 20
1.408880
  0
VERTEX
  8
0
  6
CONTINUOUS
 10
7.737840
 20
1.378080
  0
VERTEX
  8
0
  6
CONTINUOUS
 10
7.088400
 20
1.010240
  0
VERTEX
  8
0
  6
CONTINUOUS
 10
7.104680
 20
1.041040
  0
SEQEND
  8
0
  0
SOLID
  8
0
 62
    15
 10
6.941000
 20
0.865480
 11
7.590000
 21
1.233320
 12
6.939680
 22
0.864160
 13
7.588680
 23
1.232000
  0
POLYLINE
  8
0
  6
CONTINUOUS
 66
     1
 40
0.000000
 41
0.000000
  0
VERTEX
  8
0
  6
CONTINUOUS
 10
6.941000
 20
0.865480
  0
VERTEX
  8
0
  6
CONTINUOUS
 10
7.590000
 20
1.233320
  0
VERTEX
  8
0
  6
CONTINUOUS
 10
7.588680
 20
1.232000
  0
VERTEX
  8
0
  6
CONTINUOUS
 10
6.939680
 20
0.864160
  0
VERTEX
  8
0
  6
CONTINUOUS
 10
6.941000
 20
0.865480
  0
SEQEND
  8
0
  0
SOLID
  8
0
 62
    15
 10
6.367680
 20
1.291840
 11
7.016680
 21
1.659680
 12
6.934400
 22
1.291840
 13
7.583400
 23
1.659680
  0
POLYLINE
  8
0
  6
CONTINUOUS
 66
     1
 40
0.000000
 41
0.000000
  0
VERTEX
  8
0
  6
CONTINUOUS
 10
6.367680
 20
1.291840
  0
VERTEX
  8
0
  6
CONTINUOUS
 10
7.016680
 20
1.659680
  0
VERTEX
  8
0
  6
CONTINUOUS
 10
7.583400
 20
1.659680
  0
VERTEX
  8
0
  6
CONTINUOUS
 10
6.934400
 20
1.291840
  0
VERTEX
  8
0
  6
CONTINUOUS
 10
6.367680
 20
1.291840
  0
SEQEND
  8
0
  0
SOLID
  8
0
 62
    15
 10
6.934400
 20
1.291840
 11
7.583400
 21
1.659680
 12
6.937040
 22
1.291840
 13
7.586040
 23
1.659680
  0
POLYLINE
  8
0
  6
CONTINUOUS
 66
     1
 40
0.000000
 41
0.000000
  0
VERTEX
  8
0
  6
CONTINUOUS
 10
6.934400
 20
1.291840
  0
VERTEX
  8
0
  6
CONTINUOUS
 10
7.583400
 20
1.659680
  0
VERTEX
  8
0
  6
CONTINUOUS
 10
7.586040
 20
1.659680
  0
VERTEX
  8
0
  6
CONTINUOUS
 10
6.937040
 20
1.291840
  0
VERTEX
  8
0
  6
CONTINUOUS
 10
6.934400
 20
1.291840
  0
SEQEND
  8
0
  0
POLYLINE
  8
0
  6
CONTINUOUS
 66
     1
 40
0.000000
 41
0.000000
  0
VERTEX
  8
0
  6
CONTINUOUS
 10
6.937040
 20
1.291840
  0
VERTEX
  8
0
  6
CONTINUOUS
 10
6.973120
 20
1.288320
  0
VERTEX
  8
0
  6
CONTINUOUS
 10
7.007000
 20
1.277320
  0
VERTEX
  8
0
  6
CONTINUOUS
 10
7.037800
 20
1.260600
  0
VERTEX
  8
0
  6
CONTINUOUS
 10
7.064640
 20
1.238160
  0
VERTEX
  8
0
  6
CONTINUOUS
 10
7.087080
 20
1.211320
  0
VERTEX
  8
0
  6
CONTINUOUS
 10
7.103800
 20
1.180520
  0
VERTEX
  8
0
  6
CONTINUOUS
 10
7.114360
 20
1.146640
  0
VERTEX
  8
0
  6
CONTINUOUS
 10
7.118320
 20
1.110560
  0
VERTEX
  8
0
  6
CONTINUOUS
 10
7.114800
 20
1.074480
  0
VERTEX
  8
0
  6
CONTINUOUS
 10
7.104680
 20
1.041040
  0
VERTEX
  8
0
  6
CONTINUOUS
 10
7.088400
 20
1.010240
  0
VERTEX
  8
0
  6
CONTINUOUS
 10
7.067280
 20
0.983840
  0
VERTEX
  8
0
  6
CONTINUOUS
 10
7.041320
 20
0.961400
  0
VERTEX
  8
0
  6
CONTINUOUS
 10
7.011400
 20
0.944680
  0
VERTEX
  8
0
  6
CONTINUOUS
 10
6.977960
 20
0.934560
  0
VERTEX
  8
0
  6
CONTINUOUS
 10
6.942320
 20
0.930600
  0
VERTEX
  8
0
  6
CONTINUOUS
 10
6.941000
 20
0.930600
  0
VERTEX
  8
0
  6
CONTINUOUS
 10
6.941000
 20
0.865480
  0
VERTEX
  8
0
  6
CONTINUOUS
 10
6.939680
 20
0.864160
  0
VERTEX
  8
0
  6
CONTINUOUS
 10
6.367680
 20
0.864160
  0
VERTEX
  8
0
  6
CONTINUOUS
 10
6.367680
 20
1.291840
  0
VERTEX
  8
0
  6
CONTINUOUS
 10
6.934400
 20
1.291840
  0
VERTEX
  8
0
  6
CONTINUOUS
 10
6.937040
 20
1.291840
  0
SEQEND
  8
0
  0
TEXT
  8
0
 10
6.770280
 20
0.654720
 40
0.138146
  1
BA  280
 41
1.000000
  7
SN0
 71
     0
 72
     5
 11
7.360172
 21
0.654720
  0
TEXT
  8
0
 10
6.642240
 20
0.462880
 40
0.138146
  1
7/16" x 3/4"
 41
1.000000
  7
SN0
 71
     0
 72
     5
 11
7.486889
 21
0.462880
  0
TEXT
  8
0
 10
7.382760
 20
2.299440
 40
0.138146
  1
1/2 rnd
 41
1.000000
  7
SN0
 71
     0
 72
     5
 11
7.898471
 21
2.299440
  0
TEXT
  8
0
 10
7.502440
 20
2.107600
 40
0.138146
  1
280
 41
1.000000
  7
SN0
 71
     0
 72
     5
 11
7.779349
 21
2.107600
  0
ENDSEC
  0
EOF
