  0
SECTION
  2
HEADER
  9
$ACADVER
  1
AC1006
  9
$EXTMIN
 10
1.382040
 20
0.374000
  9
$EXTMAX
 10
8.098200
 20
4.373160
  9
$LTSCALE
 40
0.044000
  9
$PDMODE
 70
    35
  9
$PDSIZE
 40
0.035200
  0
ENDSEC
  0
SECTION
  2
TABLES
  0
TABLE
  2
LTYPE
 70
     9
  0
LTYPE
  2
CONTINUOUS
 70
    64
  3
Solid line
 72
    65
 73
     0
 40
0.000000
  0
LTYPE
  2
DASHED
 70
    64
  3
__ __ __ __ __ __ __ __ __ __ __ __ __ __ __
 72
    65
 73
     2
 40
0.000330
 49
0.000220
 49
-0.000110
  0
LTYPE
  2
HIDDEN
 70
    64
  3
 _ _ _ _ _ _ _ _ _ _ _ _ _ _ _ _ _ _ _ _ _ _
 72
    65
 73
     2
 40
0.000165
 49
0.000110
 49
-0.000055
  0
LTYPE
  2
CENTER
 70
    64
  3
____ _ ____ _ ____ _ ____ _ ____ _ ____ _ ____
 72
    65
 73
     4
 40
0.000880
 49
0.000550
 49
-0.000110
 49
0.000110
 49
-0.000110
  0
LTYPE
  2
PHANTOM
 70
    64
  3
_____ _ _ _____ _ _ _____ _ _ _____ _ _ ____
 72
    65
 73
     6
 40
0.001100
 49
0.000550
 49
-0.000110
 49
0.000110
 49
-0.000110
 49
0.000110
 49
-0.000110
  0
LTYPE
  2
DOT
 70
    64
  3
...............................................
 72
    65
 73
     2
 40
0.000110
 49
0.000000
 49
-0.000110
  0
LTYPE
  2
DASHDOT
 70
    64
  3
__ . __ . __ . __ . __ . __ . __ . __ . __ . __
 72
    65
 73
     4
 40
0.000440
 49
0.000220
 49
-0.000110
 49
0.000000
 49
-0.000110
  0
LTYPE
  2
BORDER
 70
    64
  3
__ __ . __ __ . __ __ . __ __ . __ __ . __ __
 72
    65
 73
     6
 40
0.000770
 49
0.000220
 49
-0.000110
 49
0.000220
 49
-0.000110
 49
0.000000
 49
-0.000110
  0
LTYPE
  2
DIVIDE
 70
    64
  3
__ . . __ . . __ . . __ . . __ . . __ . . __
 72
    65
 73
     6
 40
0.000550
 49
0.000220
 49
-0.000110
 49
0.000000
 49
-0.000110
 49
0.000000
 49
-0.000110
  0
LTYPE
  2
DOTDOT
 70
    64
  3
 . .  . .  . .  . .  . .  . . 
 72
    65
 73
     5
 40
0.000242
 49
-0.000110
 49
0.000000
 49
-0.000110
 49
0.000000
 49
-0.000110
  0
ENDTAB
  0
TABLE
  2
STYLE
 70
     2
  0
STYLE
 70
     0
  2
SN0
 40
0.000000
 41
0.000440
 50
0.000000
 71
     0
 42
0.000000
  3
ROMAND
  0
STYLE
 70
    68
  2
SV0
 40
0.000000
 41
0.000440
 50
0.000000
 71
     0
 42
0.000000
  3
ROMAND
  0
ENDTAB
  0
TABLE
  2
LAYER
 70
     3
  0
LAYER
  2
FOREGROUND
 70
    64
 62
     7
  6
CONTINUOUS
  0
LAYER
  2
BACKGROUND
 70
    65
 62
    -7
  6
CONTINUOUS
  0
LAYER
  2
0
 70
    64
 62
     7
  6
CONTINUOUS
  0
ENDTAB
  0
ENDSEC
  0
SECTION
  2
ENTITIES
  0
POLYLINE
  8
FOREGROUND
  6
CONTINUOUS
 66
     1
 40
0.000000
 41
0.000000
  0
VERTEX
  8
FOREGROUND
  6
CONTINUOUS
 10
0.000000
 20
4.747160
  0
VERTEX
  8
FOREGROUND
  6
CONTINUOUS
 10
8.499920
 20
4.747160
  0
VERTEX
  8
FOREGROUND
  6
CONTINUOUS
 10
8.499920
 20
-6.252840
  0
VERTEX
  8
FOREGROUND
  6
CONTINUOUS
 10
0.000000
 20
-6.252840
  0
VERTEX
  8
FOREGROUND
  6
CONTINUOUS
 10
0.000000
 20
4.747160
  0
SEQEND
  8
0
  0
POLYLINE
  8
FOREGROUND
  6
CONTINUOUS
 66
     1
 40
0.000000
 41
0.000000
  0
VERTEX
  8
FOREGROUND
  6
CONTINUOUS
 10
0.000000
 20
4.747160
  0
VERTEX
  8
FOREGROUND
  6
CONTINUOUS
 10
8.499920
 20
4.747160
  0
VERTEX
  8
FOREGROUND
  6
CONTINUOUS
 10
8.499920
 20
-6.252840
  0
VERTEX
  8
FOREGROUND
  6
CONTINUOUS
 10
0.000000
 20
-6.252840
  0
VERTEX
  8
FOREGROUND
  6
CONTINUOUS
 10
0.000000
 20
4.747160
  0
SEQEND
  8
0
  0
POLYLINE
  8
0
  6
CONTINUOUS
 66
     1
 40
0.014080
 41
0.014080
  0
VERTEX
  8
0
  6
CONTINUOUS
 10
5.980480
 20
1.215280
  0
VERTEX
  8
0
  6
CONTINUOUS
 10
4.986080
 20
1.215280
  0
VERTEX
  8
0
  6
CONTINUOUS
 10
4.980800
 20
1.216600
  0
VERTEX
  8
0
  6
CONTINUOUS
 10
4.974640
 20
1.244320
  0
VERTEX
  8
0
  6
CONTINUOUS
 10
4.957920
 20
1.294920
  0
VERTEX
  8
0
  6
CONTINUOUS
 10
4.935920
 20
1.339800
  0
VERTEX
  8
0
  6
CONTINUOUS
 10
4.923160
 20
1.360480
  0
VERTEX
  8
0
  6
CONTINUOUS
 10
4.909080
 20
1.379400
  0
VERTEX
  8
0
  6
CONTINUOUS
 10
4.876960
 20
1.412400
  0
VERTEX
  8
0
  6
CONTINUOUS
 10
4.859360
 20
1.426920
  0
VERTEX
  8
0
  6
CONTINUOUS
 10
4.820640
 20
1.451120
  0
VERTEX
  8
0
  6
CONTINUOUS
 10
4.777960
 20
1.469160
  0
VERTEX
  8
0
  6
CONTINUOUS
 10
4.755080
 20
1.475760
  0
VERTEX
  8
0
  6
CONTINUOUS
 10
4.731320
 20
1.480600
  0
VERTEX
  8
0
  6
CONTINUOUS
 10
4.731320
 20
1.738000
  0
VERTEX
  8
0
  6
CONTINUOUS
 10
4.877840
 20
1.736680
  0
VERTEX
  8
0
  6
CONTINUOUS
 10
4.879160
 20
1.738000
  0
VERTEX
  8
0
  6
CONTINUOUS
 10
4.876520
 20
1.806200
  0
VERTEX
  8
0
  6
CONTINUOUS
 10
4.878280
 20
1.867800
  0
VERTEX
  8
0
  6
CONTINUOUS
 10
4.886200
 20
1.949640
  0
VERTEX
  8
0
  6
CONTINUOUS
 10
4.902920
 20
2.042920
  0
VERTEX
  8
0
  6
CONTINUOUS
 10
4.925800
 20
2.161280
  0
VERTEX
  8
0
  6
CONTINUOUS
 10
4.938560
 20
2.204400
  0
VERTEX
  8
0
  6
CONTINUOUS
 10
4.970240
 20
2.282280
  0
VERTEX
  8
0
  6
CONTINUOUS
 10
5.062640
 20
2.492600
  0
VERTEX
  8
0
  6
CONTINUOUS
 10
5.115880
 20
2.628560
  0
VERTEX
  8
0
  6
CONTINUOUS
 10
5.135680
 20
2.685320
  0
VERTEX
  8
0
  6
CONTINUOUS
 10
5.137440
 20
2.701600
  0
VERTEX
  8
0
  6
CONTINUOUS
 10
5.135680
 20
2.733280
  0
VERTEX
  8
0
  6
CONTINUOUS
 10
5.128200
 20
2.772440
  0
VERTEX
  8
0
  6
CONTINUOUS
 10
5.115000
 20
2.816880
  0
VERTEX
  8
0
  6
CONTINUOUS
 10
5.094760
 20
2.865280
  0
VERTEX
  8
0
  6
CONTINUOUS
 10
5.067920
 20
2.915000
  0
VERTEX
  8
0
  6
CONTINUOUS
 10
5.033600
 20
2.965160
  0
VERTEX
  8
0
  6
CONTINUOUS
 10
4.991360
 20
3.013120
  0
VERTEX
  8
0
  6
CONTINUOUS
 10
4.958800
 20
3.043040
  0
VERTEX
  8
0
  6
CONTINUOUS
 10
4.922720
 20
3.070760
  0
VERTEX
  8
0
  6
CONTINUOUS
 10
4.882240
 20
3.095840
  0
VERTEX
  8
0
  6
CONTINUOUS
 10
4.838240
 20
3.117840
  0
VERTEX
  8
0
  6
CONTINUOUS
 10
4.836480
 20
3.117840
  0
VERTEX
  8
0
  6
CONTINUOUS
 10
4.864640
 20
3.241920
  0
VERTEX
  8
0
  6
CONTINUOUS
 10
4.865960
 20
3.240600
  0
VERTEX
  8
0
  6
CONTINUOUS
 10
4.835600
 20
3.265240
  0
VERTEX
  8
0
  6
CONTINUOUS
 10
4.806560
 20
3.297360
  0
VERTEX
  8
0
  6
CONTINUOUS
 10
4.779720
 20
3.336080
  0
VERTEX
  8
0
  6
CONTINUOUS
 10
4.756400
 20
3.380520
  0
VERTEX
  8
0
  6
CONTINUOUS
 10
4.743200
 20
3.413080
  0
VERTEX
  8
0
  6
CONTINUOUS
 10
4.728240
 20
3.465440
  0
VERTEX
  8
0
  6
CONTINUOUS
 10
4.721640
 20
3.502400
  0
VERTEX
  8
0
  6
CONTINUOUS
 10
4.718120
 20
3.540240
  0
VERTEX
  8
0
  6
CONTINUOUS
 10
4.717680
 20
3.579840
  0
VERTEX
  8
0
  6
CONTINUOUS
 10
4.721200
 20
3.619880
  0
VERTEX
  8
0
  6
CONTINUOUS
 10
4.728680
 20
3.660360
  0
VERTEX
  8
0
  6
CONTINUOUS
 10
4.740560
 20
3.701720
  0
VERTEX
  8
0
  6
CONTINUOUS
 10
4.757280
 20
3.742640
  0
VERTEX
  8
0
  6
CONTINUOUS
 10
4.778840
 20
3.784000
  0
VERTEX
  8
0
  6
CONTINUOUS
 10
4.805680
 20
3.824480
  0
VERTEX
  8
0
  6
CONTINUOUS
 10
4.837800
 20
3.864520
  0
VERTEX
  8
0
  6
CONTINUOUS
 10
4.876080
 20
3.904120
  0
VERTEX
  8
0
  6
CONTINUOUS
 10
4.920520
 20
3.941960
  0
VERTEX
  8
0
  6
CONTINUOUS
 10
4.971560
 20
3.978920
  0
VERTEX
  8
0
  6
CONTINUOUS
 10
5.029640
 20
4.014120
  0
VERTEX
  8
0
  6
CONTINUOUS
 10
5.094760
 20
4.047560
  0
VERTEX
  8
0
  6
CONTINUOUS
 10
5.167360
 20
4.078800
  0
VERTEX
  8
0
  6
CONTINUOUS
 10
5.247440
 20
4.107840
  0
VERTEX
  8
0
  6
CONTINUOUS
 10
5.335880
 20
4.134240
  0
VERTEX
  8
0
  6
CONTINUOUS
 10
5.432680
 20
4.158000
  0
VERTEX
  8
0
  6
CONTINUOUS
 10
5.538280
 20
4.178680
  0
VERTEX
  8
0
  6
CONTINUOUS
 10
5.652680
 20
4.195840
  0
VERTEX
  8
0
  6
CONTINUOUS
 10
5.744640
 20
4.206400
  0
VERTEX
  8
0
  6
CONTINUOUS
 10
5.841880
 20
4.215200
  0
VERTEX
  8
0
  6
CONTINUOUS
 10
5.980480
 20
4.223120
  0
VERTEX
  8
0
  6
CONTINUOUS
 10
5.976520
 20
4.221800
  0
VERTEX
  8
0
  6
CONTINUOUS
 10
6.115120
 20
4.213880
  0
VERTEX
  8
0
  6
CONTINUOUS
 10
6.274400
 20
4.198480
  0
VERTEX
  8
0
  6
CONTINUOUS
 10
6.419160
 20
4.177360
  0
VERTEX
  8
0
  6
CONTINUOUS
 10
6.524760
 20
4.156680
  0
VERTEX
  8
0
  6
CONTINUOUS
 10
6.621560
 20
4.132920
  0
VERTEX
  8
0
  6
CONTINUOUS
 10
6.709560
 20
4.106520
  0
VERTEX
  8
0
  6
CONTINUOUS
 10
6.790080
 20
4.077480
  0
VERTEX
  8
0
  6
CONTINUOUS
 10
6.862680
 20
4.046240
  0
VERTEX
  8
0
  6
CONTINUOUS
 10
6.927800
 20
4.012800
  0
VERTEX
  8
0
  6
CONTINUOUS
 10
6.985440
 20
3.977600
  0
VERTEX
  8
0
  6
CONTINUOUS
 10
7.036480
 20
3.940640
  0
VERTEX
  8
0
  6
CONTINUOUS
 10
7.080920
 20
3.902800
  0
VERTEX
  8
0
  6
CONTINUOUS
 10
7.119640
 20
3.863200
  0
VERTEX
  8
0
  6
CONTINUOUS
 10
7.151760
 20
3.823160
  0
VERTEX
  8
0
  6
CONTINUOUS
 10
7.178600
 20
3.782680
  0
VERTEX
  8
0
  6
CONTINUOUS
 10
7.200160
 20
3.741320
  0
VERTEX
  8
0
  6
CONTINUOUS
 10
7.216880
 20
3.700400
  0
VERTEX
  8
0
  6
CONTINUOUS
 10
7.228760
 20
3.659040
  0
VERTEX
  8
0
  6
CONTINUOUS
 10
7.236240
 20
3.618560
  0
VERTEX
  8
0
  6
CONTINUOUS
 10
7.239760
 20
3.578520
  0
VERTEX
  8
0
  6
CONTINUOUS
 10
7.240200
 20
3.558720
  0
VERTEX
  8
0
  6
CONTINUOUS
 10
7.238000
 20
3.520000
  0
VERTEX
  8
0
  6
CONTINUOUS
 10
7.232720
 20
3.482160
  0
VERTEX
  8
0
  6
CONTINUOUS
 10
7.224800
 20
3.446080
  0
VERTEX
  8
0
  6
CONTINUOUS
 10
7.214240
 20
3.411760
  0
VERTEX
  8
0
  6
CONTINUOUS
 10
7.193560
 20
3.363800
  0
VERTEX
  8
0
  6
CONTINUOUS
 10
7.169360
 20
3.321120
  0
VERTEX
  8
0
  6
CONTINUOUS
 10
7.141640
 20
3.284600
  0
VERTEX
  8
0
  6
CONTINUOUS
 10
7.111720
 20
3.255120
  0
VERTEX
  8
0
  6
CONTINUOUS
 10
7.091480
 20
3.239280
  0
VERTEX
  8
0
  6
CONTINUOUS
 10
7.126240
 20
3.124440
  0
VERTEX
  8
0
  6
CONTINUOUS
 10
7.081800
 20
3.102440
  0
VERTEX
  8
0
  6
CONTINUOUS
 10
7.041760
 20
3.077360
  0
VERTEX
  8
0
  6
CONTINUOUS
 10
7.005240
 20
3.049640
  0
VERTEX
  8
0
  6
CONTINUOUS
 10
6.972680
 20
3.019720
  0
VERTEX
  8
0
  6
CONTINUOUS
 10
6.943640
 20
2.988040
  0
VERTEX
  8
0
  6
CONTINUOUS
 10
6.907120
 20
2.938320
  0
VERTEX
  8
0
  6
CONTINUOUS
 10
6.886440
 20
2.904880
  0
VERTEX
  8
0
  6
CONTINUOUS
 10
6.861800
 20
2.855160
  0
VERTEX
  8
0
  6
CONTINUOUS
 10
6.849040
 20
2.823480
  0
VERTEX
  8
0
  6
CONTINUOUS
 10
6.835840
 20
2.779040
  0
VERTEX
  8
0
  6
CONTINUOUS
 10
6.828360
 20
2.739880
  0
VERTEX
  8
0
  6
CONTINUOUS
 10
6.826600
 20
2.708200
  0
VERTEX
  8
0
  6
CONTINUOUS
 10
6.828360
 20
2.691920
  0
VERTEX
  8
0
  6
CONTINUOUS
 10
6.866200
 20
2.587640
  0
VERTEX
  8
0
  6
CONTINUOUS
 10
6.935280
 20
2.420440
  0
VERTEX
  8
0
  6
CONTINUOUS
 10
7.005680
 20
2.261160
  0
VERTEX
  8
0
  6
CONTINUOUS
 10
7.025480
 20
2.211000
  0
VERTEX
  8
0
  6
CONTINUOUS
 10
7.038240
 20
2.167880
  0
VERTEX
  8
0
  6
CONTINUOUS
 10
7.073880
 20
1.980880
  0
VERTEX
  8
0
  6
CONTINUOUS
 10
7.080920
 20
1.930280
  0
VERTEX
  8
0
  6
CONTINUOUS
 10
7.085760
 20
1.874400
  0
VERTEX
  8
0
  6
CONTINUOUS
 10
7.087520
 20
1.812800
  0
VERTEX
  8
0
  6
CONTINUOUS
 10
7.084880
 20
1.744600
  0
VERTEX
  8
0
  6
CONTINUOUS
 10
7.086200
 20
1.741960
  0
VERTEX
  8
0
  6
CONTINUOUS
 10
7.230080
 20
1.741960
  0
VERTEX
  8
0
  6
CONTINUOUS
 10
7.230080
 20
1.487200
  0
VERTEX
  8
0
  6
CONTINUOUS
 10
7.206320
 20
1.482360
  0
VERTEX
  8
0
  6
CONTINUOUS
 10
7.183440
 20
1.475760
  0
VERTEX
  8
0
  6
CONTINUOUS
 10
7.141200
 20
1.457720
  0
VERTEX
  8
0
  6
CONTINUOUS
 10
7.102920
 20
1.433520
  0
VERTEX
  8
0
  6
CONTINUOUS
 10
7.085320
 20
1.419440
  0
VERTEX
  8
0
  6
CONTINUOUS
 10
7.054080
 20
1.386000
  0
VERTEX
  8
0
  6
CONTINUOUS
 10
7.040000
 20
1.367080
  0
VERTEX
  8
0
  6
CONTINUOUS
 10
7.016240
 20
1.324840
  0
VERTEX
  8
0
  6
CONTINUOUS
 10
7.005680
 20
1.301520
  0
VERTEX
  8
0
  6
CONTINUOUS
 10
6.989400
 20
1.250920
  0
VERTEX
  8
0
  6
CONTINUOUS
 10
6.983240
 20
1.223200
  0
VERTEX
  8
0
  6
CONTINUOUS
 10
6.980600
 20
1.220560
  0
VERTEX
  8
0
  6
CONTINUOUS
 10
5.986200
 20
1.220560
  0
VERTEX
  8
0
  6
CONTINUOUS
 10
5.980480
 20
1.215280
  0
SEQEND
  8
0
  0
SOLID
  8
0
 62
    15
 10
3.705240
 20
2.742080
 11
4.337960
 21
3.125320
 12
3.636600
 22
2.684000
 13
4.268880
 23
3.067240
  0
POLYLINE
  8
0
  6
CONTINUOUS
 66
     1
 40
0.000000
 41
0.000000
  0
VERTEX
  8
0
  6
CONTINUOUS
 10
3.705240
 20
2.742080
  0
VERTEX
  8
0
  6
CONTINUOUS
 10
4.337960
 20
3.125320
  0
VERTEX
  8
0
  6
CONTINUOUS
 10
4.268880
 20
3.067240
  0
VERTEX
  8
0
  6
CONTINUOUS
 10
3.636600
 20
2.684000
  0
VERTEX
  8
0
  6
CONTINUOUS
 10
3.705240
 20
2.742080
  0
SEQEND
  8
0
  0
SOLID
  8
0
 62
    15
 10
1.528560
 20
2.906200
 11
2.160840
 21
3.289440
 12
1.529880
 22
2.904880
 13
2.162160
 23
3.288120
  0
POLYLINE
  8
0
  6
CONTINUOUS
 66
     1
 40
0.000000
 41
0.000000
  0
VERTEX
  8
0
  6
CONTINUOUS
 10
1.528560
 20
2.906200
  0
VERTEX
  8
0
  6
CONTINUOUS
 10
2.160840
 20
3.289440
  0
VERTEX
  8
0
  6
CONTINUOUS
 10
2.162160
 20
3.288120
  0
VERTEX
  8
0
  6
CONTINUOUS
 10
1.529880
 20
2.904880
  0
VERTEX
  8
0
  6
CONTINUOUS
 10
1.528560
 20
2.906200
  0
SEQEND
  8
0
  0
SOLID
  8
0
 62
    15
 10
1.663640
 20
3.661240
 11
2.295920
 21
4.044480
 12
1.793880
 22
3.727680
 13
2.426160
 23
4.111360
  0
POLYLINE
  8
0
  6
CONTINUOUS
 66
     1
 40
0.000000
 41
0.000000
  0
VERTEX
  8
0
  6
CONTINUOUS
 10
1.663640
 20
3.661240
  0
VERTEX
  8
0
  6
CONTINUOUS
 10
2.295920
 20
4.044480
  0
VERTEX
  8
0
  6
CONTINUOUS
 10
2.426160
 20
4.111360
  0
VERTEX
  8
0
  6
CONTINUOUS
 10
1.793880
 20
3.727680
  0
VERTEX
  8
0
  6
CONTINUOUS
 10
1.663640
 20
3.661240
  0
SEQEND
  8
0
  0
SOLID
  8
0
 62
    15
 10
1.793880
 20
3.727680
 11
2.426160
 21
4.111360
 12
1.954480
 22
3.785760
 13
2.586760
 23
4.169440
  0
POLYLINE
  8
0
  6
CONTINUOUS
 66
     1
 40
0.000000
 41
0.000000
  0
VERTEX
  8
0
  6
CONTINUOUS
 10
1.793880
 20
3.727680
  0
VERTEX
  8
0
  6
CONTINUOUS
 10
2.426160
 20
4.111360
  0
VERTEX
  8
0
  6
CONTINUOUS
 10
2.586760
 20
4.169440
  0
VERTEX
  8
0
  6
CONTINUOUS
 10
1.954480
 20
3.785760
  0
VERTEX
  8
0
  6
CONTINUOUS
 10
1.793880
 20
3.727680
  0
SEQEND
  8
0
  0
SOLID
  8
0
 62
    15
 10
1.954480
 20
3.785760
 11
2.586760
 21
4.169440
 12
2.148080
 22
3.833280
 13
2.780360
 23
4.216520
  0
POLYLINE
  8
0
  6
CONTINUOUS
 66
     1
 40
0.000000
 41
0.000000
  0
VERTEX
  8
0
  6
CONTINUOUS
 10
1.954480
 20
3.785760
  0
VERTEX
  8
0
  6
CONTINUOUS
 10
2.586760
 20
4.169440
  0
VERTEX
  8
0
  6
CONTINUOUS
 10
2.780360
 20
4.216520
  0
VERTEX
  8
0
  6
CONTINUOUS
 10
2.148080
 20
3.833280
  0
VERTEX
  8
0
  6
CONTINUOUS
 10
1.954480
 20
3.785760
  0
SEQEND
  8
0
  0
SOLID
  8
0
 62
    15
 10
2.148080
 20
3.833280
 11
2.780360
 21
4.216520
 12
2.377320
 22
3.867600
 13
3.009600
 23
4.250840
  0
POLYLINE
  8
0
  6
CONTINUOUS
 66
     1
 40
0.000000
 41
0.000000
  0
VERTEX
  8
0
  6
CONTINUOUS
 10
2.148080
 20
3.833280
  0
VERTEX
  8
0
  6
CONTINUOUS
 10
2.780360
 20
4.216520
  0
VERTEX
  8
0
  6
CONTINUOUS
 10
3.009600
 20
4.250840
  0
VERTEX
  8
0
  6
CONTINUOUS
 10
2.377320
 20
3.867600
  0
VERTEX
  8
0
  6
CONTINUOUS
 10
2.148080
 20
3.833280
  0
SEQEND
  8
0
  0
SOLID
  8
0
 62
    15
 10
2.640440
 20
3.886080
 11
3.273160
 21
4.269760
 12
2.907520
 22
3.866280
 13
3.540240
 23
4.249960
  0
POLYLINE
  8
0
  6
CONTINUOUS
 66
     1
 40
0.000000
 41
0.000000
  0
VERTEX
  8
0
  6
CONTINUOUS
 10
2.640440
 20
3.886080
  0
VERTEX
  8
0
  6
CONTINUOUS
 10
3.273160
 20
4.269760
  0
VERTEX
  8
0
  6
CONTINUOUS
 10
3.540240
 20
4.249960
  0
VERTEX
  8
0
  6
CONTINUOUS
 10
2.907520
 20
3.866280
  0
VERTEX
  8
0
  6
CONTINUOUS
 10
2.640440
 20
3.886080
  0
SEQEND
  8
0
  0
SOLID
  8
0
 62
    15
 10
2.377320
 20
3.867600
 11
3.009600
 21
4.250840
 12
2.644400
 22
3.887400
 13
3.277120
 23
4.271080
  0
POLYLINE
  8
0
  6
CONTINUOUS
 66
     1
 40
0.000000
 41
0.000000
  0
VERTEX
  8
0
  6
CONTINUOUS
 10
2.377320
 20
3.867600
  0
VERTEX
  8
0
  6
CONTINUOUS
 10
3.009600
 20
4.250840
  0
VERTEX
  8
0
  6
CONTINUOUS
 10
3.277120
 20
4.271080
  0
VERTEX
  8
0
  6
CONTINUOUS
 10
2.644400
 20
3.887400
  0
VERTEX
  8
0
  6
CONTINUOUS
 10
2.377320
 20
3.867600
  0
SEQEND
  8
0
  0
SOLID
  8
0
 62
    15
 10
2.907520
 20
3.866280
 11
3.540240
 21
4.249960
 12
3.136760
 22
3.831960
 13
3.769040
 23
4.215200
  0
POLYLINE
  8
0
  6
CONTINUOUS
 66
     1
 40
0.000000
 41
0.000000
  0
VERTEX
  8
0
  6
CONTINUOUS
 10
2.907520
 20
3.866280
  0
VERTEX
  8
0
  6
CONTINUOUS
 10
3.540240
 20
4.249960
  0
VERTEX
  8
0
  6
CONTINUOUS
 10
3.769040
 20
4.215200
  0
VERTEX
  8
0
  6
CONTINUOUS
 10
3.136760
 20
3.831960
  0
VERTEX
  8
0
  6
CONTINUOUS
 10
2.907520
 20
3.866280
  0
SEQEND
  8
0
  0
SOLID
  8
0
 62
    15
 10
3.136760
 20
3.831960
 11
3.769040
 21
4.215200
 12
3.330360
 22
3.784440
 13
3.962640
 23
4.168120
  0
POLYLINE
  8
0
  6
CONTINUOUS
 66
     1
 40
0.000000
 41
0.000000
  0
VERTEX
  8
0
  6
CONTINUOUS
 10
3.136760
 20
3.831960
  0
VERTEX
  8
0
  6
CONTINUOUS
 10
3.769040
 20
4.215200
  0
VERTEX
  8
0
  6
CONTINUOUS
 10
3.962640
 20
4.168120
  0
VERTEX
  8
0
  6
CONTINUOUS
 10
3.330360
 20
3.784440
  0
VERTEX
  8
0
  6
CONTINUOUS
 10
3.136760
 20
3.831960
  0
SEQEND
  8
0
  0
SOLID
  8
0
 62
    15
 10
3.330360
 20
3.784440
 11
3.962640
 21
4.168120
 12
3.490960
 22
3.726360
 13
4.123680
 23
4.110040
  0
POLYLINE
  8
0
  6
CONTINUOUS
 66
     1
 40
0.000000
 41
0.000000
  0
VERTEX
  8
0
  6
CONTINUOUS
 10
3.330360
 20
3.784440
  0
VERTEX
  8
0
  6
CONTINUOUS
 10
3.962640
 20
4.168120
  0
VERTEX
  8
0
  6
CONTINUOUS
 10
4.123680
 20
4.110040
  0
VERTEX
  8
0
  6
CONTINUOUS
 10
3.490960
 20
3.726360
  0
VERTEX
  8
0
  6
CONTINUOUS
 10
3.330360
 20
3.784440
  0
SEQEND
  8
0
  0
SOLID
  8
0
 62
    15
 10
3.490960
 20
3.726360
 11
4.123680
 21
4.110040
 12
3.621200
 22
3.659920
 13
4.253480
 23
4.043160
  0
POLYLINE
  8
0
  6
CONTINUOUS
 66
     1
 40
0.000000
 41
0.000000
  0
VERTEX
  8
0
  6
CONTINUOUS
 10
3.490960
 20
3.726360
  0
VERTEX
  8
0
  6
CONTINUOUS
 10
4.123680
 20
4.110040
  0
VERTEX
  8
0
  6
CONTINUOUS
 10
4.253480
 20
4.043160
  0
VERTEX
  8
0
  6
CONTINUOUS
 10
3.621200
 20
3.659920
  0
VERTEX
  8
0
  6
CONTINUOUS
 10
3.490960
 20
3.726360
  0
SEQEND
  8
0
  0
SOLID
  8
0
 62
    15
 10
3.621200
 20
3.659920
 11
4.253480
 21
4.043160
 12
3.723280
 22
3.586440
 13
4.356000
 23
3.969680
  0
POLYLINE
  8
0
  6
CONTINUOUS
 66
     1
 40
0.000000
 41
0.000000
  0
VERTEX
  8
0
  6
CONTINUOUS
 10
3.621200
 20
3.659920
  0
VERTEX
  8
0
  6
CONTINUOUS
 10
4.253480
 20
4.043160
  0
VERTEX
  8
0
  6
CONTINUOUS
 10
4.356000
 20
3.969680
  0
VERTEX
  8
0
  6
CONTINUOUS
 10
3.723280
 20
3.586440
  0
VERTEX
  8
0
  6
CONTINUOUS
 10
3.621200
 20
3.659920
  0
SEQEND
  8
0
  0
SOLID
  8
0
 62
    15
 10
3.723280
 20
3.586440
 11
4.356000
 21
3.969680
 12
3.799840
 22
3.508120
 13
4.432560
 23
3.891360
  0
POLYLINE
  8
0
  6
CONTINUOUS
 66
     1
 40
0.000000
 41
0.000000
  0
VERTEX
  8
0
  6
CONTINUOUS
 10
3.723280
 20
3.586440
  0
VERTEX
  8
0
  6
CONTINUOUS
 10
4.356000
 20
3.969680
  0
VERTEX
  8
0
  6
CONTINUOUS
 10
4.432560
 20
3.891360
  0
VERTEX
  8
0
  6
CONTINUOUS
 10
3.799840
 20
3.508120
  0
VERTEX
  8
0
  6
CONTINUOUS
 10
3.723280
 20
3.586440
  0
SEQEND
  8
0
  0
SOLID
  8
0
 62
    15
 10
3.799840
 20
3.508120
 11
4.432560
 21
3.891360
 12
3.853520
 22
3.426280
 13
4.486240
 23
3.809960
  0
POLYLINE
  8
0
  6
CONTINUOUS
 66
     1
 40
0.000000
 41
0.000000
  0
VERTEX
  8
0
  6
CONTINUOUS
 10
3.799840
 20
3.508120
  0
VERTEX
  8
0
  6
CONTINUOUS
 10
4.432560
 20
3.891360
  0
VERTEX
  8
0
  6
CONTINUOUS
 10
4.486240
 20
3.809960
  0
VERTEX
  8
0
  6
CONTINUOUS
 10
3.853520
 20
3.426280
  0
VERTEX
  8
0
  6
CONTINUOUS
 10
3.799840
 20
3.508120
  0
SEQEND
  8
0
  0
SOLID
  8
0
 62
    15
 10
3.853520
 20
3.426280
 11
4.486240
 21
3.809960
 12
3.886960
 22
3.344000
 13
4.519240
 23
3.727680
  0
POLYLINE
  8
0
  6
CONTINUOUS
 66
     1
 40
0.000000
 41
0.000000
  0
VERTEX
  8
0
  6
CONTINUOUS
 10
3.853520
 20
3.426280
  0
VERTEX
  8
0
  6
CONTINUOUS
 10
4.486240
 20
3.809960
  0
VERTEX
  8
0
  6
CONTINUOUS
 10
4.519240
 20
3.727680
  0
VERTEX
  8
0
  6
CONTINUOUS
 10
3.886960
 20
3.344000
  0
VERTEX
  8
0
  6
CONTINUOUS
 10
3.853520
 20
3.426280
  0
SEQEND
  8
0
  0
SOLID
  8
0
 62
    15
 10
3.886960
 20
3.344000
 11
4.519240
 21
3.727680
 12
3.901920
 22
3.262600
 13
4.534640
 23
3.646280
  0
POLYLINE
  8
0
  6
CONTINUOUS
 66
     1
 40
0.000000
 41
0.000000
  0
VERTEX
  8
0
  6
CONTINUOUS
 10
3.886960
 20
3.344000
  0
VERTEX
  8
0
  6
CONTINUOUS
 10
4.519240
 20
3.727680
  0
VERTEX
  8
0
  6
CONTINUOUS
 10
4.534640
 20
3.646280
  0
VERTEX
  8
0
  6
CONTINUOUS
 10
3.901920
 20
3.262600
  0
VERTEX
  8
0
  6
CONTINUOUS
 10
3.886960
 20
3.344000
  0
SEQEND
  8
0
  0
SOLID
  8
0
 62
    15
 10
3.901920
 20
3.262600
 11
4.534640
 21
3.646280
 12
3.901480
 22
3.184280
 13
4.534200
 23
3.567520
  0
POLYLINE
  8
0
  6
CONTINUOUS
 66
     1
 40
0.000000
 41
0.000000
  0
VERTEX
  8
0
  6
CONTINUOUS
 10
3.901920
 20
3.262600
  0
VERTEX
  8
0
  6
CONTINUOUS
 10
4.534640
 20
3.646280
  0
VERTEX
  8
0
  6
CONTINUOUS
 10
4.534200
 20
3.567520
  0
VERTEX
  8
0
  6
CONTINUOUS
 10
3.901480
 20
3.184280
  0
VERTEX
  8
0
  6
CONTINUOUS
 10
3.901920
 20
3.262600
  0
SEQEND
  8
0
  0
SOLID
  8
0
 62
    15
 10
3.901480
 20
3.184280
 11
4.534200
 21
3.567520
 12
3.888280
 22
3.110800
 13
4.521000
 23
3.494040
  0
POLYLINE
  8
0
  6
CONTINUOUS
 66
     1
 40
0.000000
 41
0.000000
  0
VERTEX
  8
0
  6
CONTINUOUS
 10
3.901480
 20
3.184280
  0
VERTEX
  8
0
  6
CONTINUOUS
 10
4.534200
 20
3.567520
  0
VERTEX
  8
0
  6
CONTINUOUS
 10
4.521000
 20
3.494040
  0
VERTEX
  8
0
  6
CONTINUOUS
 10
3.888280
 20
3.110800
  0
VERTEX
  8
0
  6
CONTINUOUS
 10
3.901480
 20
3.184280
  0
SEQEND
  8
0
  0
SOLID
  8
0
 62
    15
 10
3.888280
 20
3.110800
 11
4.521000
 21
3.494040
 12
3.832840
 22
2.985840
 13
4.465120
 23
3.369080
  0
POLYLINE
  8
0
  6
CONTINUOUS
 66
     1
 40
0.000000
 41
0.000000
  0
VERTEX
  8
0
  6
CONTINUOUS
 10
3.888280
 20
3.110800
  0
VERTEX
  8
0
  6
CONTINUOUS
 10
4.521000
 20
3.494040
  0
VERTEX
  8
0
  6
CONTINUOUS
 10
4.465120
 20
3.369080
  0
VERTEX
  8
0
  6
CONTINUOUS
 10
3.832840
 20
2.985840
  0
VERTEX
  8
0
  6
CONTINUOUS
 10
3.888280
 20
3.110800
  0
SEQEND
  8
0
  0
SOLID
  8
0
 62
    15
 10
3.832840
 20
2.985840
 11
4.465120
 21
3.369080
 12
3.795440
 22
2.938320
 13
4.427720
 23
3.321560
  0
POLYLINE
  8
0
  6
CONTINUOUS
 66
     1
 40
0.000000
 41
0.000000
  0
VERTEX
  8
0
  6
CONTINUOUS
 10
3.832840
 20
2.985840
  0
VERTEX
  8
0
  6
CONTINUOUS
 10
4.465120
 20
3.369080
  0
VERTEX
  8
0
  6
CONTINUOUS
 10
4.427720
 20
3.321560
  0
VERTEX
  8
0
  6
CONTINUOUS
 10
3.795440
 20
2.938320
  0
VERTEX
  8
0
  6
CONTINUOUS
 10
3.832840
 20
2.985840
  0
SEQEND
  8
0
  0
SOLID
  8
0
 62
    15
 10
3.795440
 20
2.938320
 11
4.427720
 21
3.321560
 12
3.754960
 22
2.903560
 13
4.387680
 23
3.286800
  0
POLYLINE
  8
0
  6
CONTINUOUS
 66
     1
 40
0.000000
 41
0.000000
  0
VERTEX
  8
0
  6
CONTINUOUS
 10
3.795440
 20
2.938320
  0
VERTEX
  8
0
  6
CONTINUOUS
 10
4.427720
 20
3.321560
  0
VERTEX
  8
0
  6
CONTINUOUS
 10
4.387680
 20
3.286800
  0
VERTEX
  8
0
  6
CONTINUOUS
 10
3.754960
 20
2.903560
  0
VERTEX
  8
0
  6
CONTINUOUS
 10
3.795440
 20
2.938320
  0
SEQEND
  8
0
  0
SOLID
  8
0
 62
    15
 10
3.754960
 20
2.903560
 11
4.387680
 21
3.286800
 12
3.756280
 22
2.900920
 13
4.389000
 23
3.284160
  0
POLYLINE
  8
0
  6
CONTINUOUS
 66
     1
 40
0.000000
 41
0.000000
  0
VERTEX
  8
0
  6
CONTINUOUS
 10
3.754960
 20
2.903560
  0
VERTEX
  8
0
  6
CONTINUOUS
 10
4.387680
 20
3.286800
  0
VERTEX
  8
0
  6
CONTINUOUS
 10
4.389000
 20
3.284160
  0
VERTEX
  8
0
  6
CONTINUOUS
 10
3.756280
 20
2.900920
  0
VERTEX
  8
0
  6
CONTINUOUS
 10
3.754960
 20
2.903560
  0
SEQEND
  8
0
  0
SOLID
  8
0
 62
    15
 10
3.756280
 20
2.900920
 11
4.389000
 21
3.284160
 12
3.788400
 22
2.793120
 13
4.421120
 23
3.176360
  0
POLYLINE
  8
0
  6
CONTINUOUS
 66
     1
 40
0.000000
 41
0.000000
  0
VERTEX
  8
0
  6
CONTINUOUS
 10
3.756280
 20
2.900920
  0
VERTEX
  8
0
  6
CONTINUOUS
 10
4.389000
 20
3.284160
  0
VERTEX
  8
0
  6
CONTINUOUS
 10
4.421120
 20
3.176360
  0
VERTEX
  8
0
  6
CONTINUOUS
 10
3.788400
 20
2.793120
  0
VERTEX
  8
0
  6
CONTINUOUS
 10
3.756280
 20
2.900920
  0
SEQEND
  8
0
  0
SOLID
  8
0
 62
    15
 10
3.788400
 20
2.793120
 11
4.421120
 21
3.176360
 12
3.789720
 22
2.788720
 13
4.422440
 23
3.172400
  0
POLYLINE
  8
0
  6
CONTINUOUS
 66
     1
 40
0.000000
 41
0.000000
  0
VERTEX
  8
0
  6
CONTINUOUS
 10
3.788400
 20
2.793120
  0
VERTEX
  8
0
  6
CONTINUOUS
 10
4.421120
 20
3.176360
  0
VERTEX
  8
0
  6
CONTINUOUS
 10
4.422440
 20
3.172400
  0
VERTEX
  8
0
  6
CONTINUOUS
 10
3.789720
 20
2.788720
  0
VERTEX
  8
0
  6
CONTINUOUS
 10
3.788400
 20
2.793120
  0
SEQEND
  8
0
  0
SOLID
  8
0
 62
    15
 10
1.395240
 20
1.402280
 11
2.027520
 21
1.785520
 12
1.541760
 22
1.400960
 13
2.174480
 23
1.784200
  0
POLYLINE
  8
0
  6
CONTINUOUS
 66
     1
 40
0.000000
 41
0.000000
  0
VERTEX
  8
0
  6
CONTINUOUS
 10
1.395240
 20
1.402280
  0
VERTEX
  8
0
  6
CONTINUOUS
 10
2.027520
 20
1.785520
  0
VERTEX
  8
0
  6
CONTINUOUS
 10
2.174480
 20
1.784200
  0
VERTEX
  8
0
  6
CONTINUOUS
 10
1.541760
 20
1.400960
  0
VERTEX
  8
0
  6
CONTINUOUS
 10
1.395240
 20
1.402280
  0
SEQEND
  8
0
  0
SOLID
  8
0
 62
    15
 10
3.636600
 20
2.684000
 11
4.268880
 21
3.067240
 12
3.582040
 22
2.619320
 13
4.214760
 23
3.003000
  0
POLYLINE
  8
0
  6
CONTINUOUS
 66
     1
 40
0.000000
 41
0.000000
  0
VERTEX
  8
0
  6
CONTINUOUS
 10
3.636600
 20
2.684000
  0
VERTEX
  8
0
  6
CONTINUOUS
 10
4.268880
 20
3.067240
  0
VERTEX
  8
0
  6
CONTINUOUS
 10
4.214760
 20
3.003000
  0
VERTEX
  8
0
  6
CONTINUOUS
 10
3.582040
 20
2.619320
  0
VERTEX
  8
0
  6
CONTINUOUS
 10
3.636600
 20
2.684000
  0
SEQEND
  8
0
  0
SOLID
  8
0
 62
    15
 10
3.582040
 20
2.619320
 11
4.214760
 21
3.003000
 12
3.541120
 22
2.552440
 13
4.173840
 23
2.936120
  0
POLYLINE
  8
0
  6
CONTINUOUS
 66
     1
 40
0.000000
 41
0.000000
  0
VERTEX
  8
0
  6
CONTINUOUS
 10
3.582040
 20
2.619320
  0
VERTEX
  8
0
  6
CONTINUOUS
 10
4.214760
 20
3.003000
  0
VERTEX
  8
0
  6
CONTINUOUS
 10
4.173840
 20
2.936120
  0
VERTEX
  8
0
  6
CONTINUOUS
 10
3.541120
 20
2.552440
  0
VERTEX
  8
0
  6
CONTINUOUS
 10
3.582040
 20
2.619320
  0
SEQEND
  8
0
  0
SOLID
  8
0
 62
    15
 10
3.541120
 20
2.552440
 11
4.173840
 21
2.936120
 12
3.512960
 22
2.487760
 13
4.145680
 23
2.871440
  0
POLYLINE
  8
0
  6
CONTINUOUS
 66
     1
 40
0.000000
 41
0.000000
  0
VERTEX
  8
0
  6
CONTINUOUS
 10
3.541120
 20
2.552440
  0
VERTEX
  8
0
  6
CONTINUOUS
 10
4.173840
 20
2.936120
  0
VERTEX
  8
0
  6
CONTINUOUS
 10
4.145680
 20
2.871440
  0
VERTEX
  8
0
  6
CONTINUOUS
 10
3.512960
 20
2.487760
  0
VERTEX
  8
0
  6
CONTINUOUS
 10
3.541120
 20
2.552440
  0
SEQEND
  8
0
  0
SOLID
  8
0
 62
    15
 10
3.512960
 20
2.487760
 11
4.145680
 21
2.871440
 12
3.496240
 22
2.429680
 13
4.128960
 23
2.812920
  0
POLYLINE
  8
0
  6
CONTINUOUS
 66
     1
 40
0.000000
 41
0.000000
  0
VERTEX
  8
0
  6
CONTINUOUS
 10
3.512960
 20
2.487760
  0
VERTEX
  8
0
  6
CONTINUOUS
 10
4.145680
 20
2.871440
  0
VERTEX
  8
0
  6
CONTINUOUS
 10
4.128960
 20
2.812920
  0
VERTEX
  8
0
  6
CONTINUOUS
 10
3.496240
 20
2.429680
  0
VERTEX
  8
0
  6
CONTINUOUS
 10
3.512960
 20
2.487760
  0
SEQEND
  8
0
  0
SOLID
  8
0
 62
    15
 10
3.496240
 20
2.429680
 11
4.128960
 21
2.812920
 12
3.490080
 22
2.382160
 13
4.122800
 23
2.765840
  0
POLYLINE
  8
0
  6
CONTINUOUS
 66
     1
 40
0.000000
 41
0.000000
  0
VERTEX
  8
0
  6
CONTINUOUS
 10
3.496240
 20
2.429680
  0
VERTEX
  8
0
  6
CONTINUOUS
 10
4.128960
 20
2.812920
  0
VERTEX
  8
0
  6
CONTINUOUS
 10
4.122800
 20
2.765840
  0
VERTEX
  8
0
  6
CONTINUOUS
 10
3.490080
 20
2.382160
  0
VERTEX
  8
0
  6
CONTINUOUS
 10
3.496240
 20
2.429680
  0
SEQEND
  8
0
  0
SOLID
  8
0
 62
    15
 10
3.490080
 20
2.382160
 11
4.122800
 21
2.765840
 12
3.493600
 22
2.350040
 13
4.126320
 23
2.733720
  0
POLYLINE
  8
0
  6
CONTINUOUS
 66
     1
 40
0.000000
 41
0.000000
  0
VERTEX
  8
0
  6
CONTINUOUS
 10
3.490080
 20
2.382160
  0
VERTEX
  8
0
  6
CONTINUOUS
 10
4.122800
 20
2.765840
  0
VERTEX
  8
0
  6
CONTINUOUS
 10
4.126320
 20
2.733720
  0
VERTEX
  8
0
  6
CONTINUOUS
 10
3.493600
 20
2.350040
  0
VERTEX
  8
0
  6
CONTINUOUS
 10
3.490080
 20
2.382160
  0
SEQEND
  8
0
  0
SOLID
  8
0
 62
    15
 10
3.493600
 20
2.350040
 11
4.126320
 21
2.733720
 12
3.565320
 22
2.163920
 13
4.198040
 23
2.547160
  0
POLYLINE
  8
0
  6
CONTINUOUS
 66
     1
 40
0.000000
 41
0.000000
  0
VERTEX
  8
0
  6
CONTINUOUS
 10
3.493600
 20
2.350040
  0
VERTEX
  8
0
  6
CONTINUOUS
 10
4.126320
 20
2.733720
  0
VERTEX
  8
0
  6
CONTINUOUS
 10
4.198040
 20
2.547160
  0
VERTEX
  8
0
  6
CONTINUOUS
 10
3.565320
 20
2.163920
  0
VERTEX
  8
0
  6
CONTINUOUS
 10
3.493600
 20
2.350040
  0
SEQEND
  8
0
  0
SOLID
  8
0
 62
    15
 10
3.565320
 20
2.163920
 11
4.198040
 21
2.547160
 12
3.599200
 22
2.085160
 13
4.231480
 23
2.468400
  0
POLYLINE
  8
0
  6
CONTINUOUS
 66
     1
 40
0.000000
 41
0.000000
  0
VERTEX
  8
0
  6
CONTINUOUS
 10
3.565320
 20
2.163920
  0
VERTEX
  8
0
  6
CONTINUOUS
 10
4.198040
 20
2.547160
  0
VERTEX
  8
0
  6
CONTINUOUS
 10
4.231480
 20
2.468400
  0
VERTEX
  8
0
  6
CONTINUOUS
 10
3.599200
 20
2.085160
  0
VERTEX
  8
0
  6
CONTINUOUS
 10
3.565320
 20
2.163920
  0
SEQEND
  8
0
  0
SOLID
  8
0
 62
    15
 10
3.599200
 20
2.085160
 11
4.231480
 21
2.468400
 12
3.615040
 22
2.049080
 13
4.247760
 23
2.432320
  0
POLYLINE
  8
0
  6
CONTINUOUS
 66
     1
 40
0.000000
 41
0.000000
  0
VERTEX
  8
0
  6
CONTINUOUS
 10
3.599200
 20
2.085160
  0
VERTEX
  8
0
  6
CONTINUOUS
 10
4.231480
 20
2.468400
  0
VERTEX
  8
0
  6
CONTINUOUS
 10
4.247760
 20
2.432320
  0
VERTEX
  8
0
  6
CONTINUOUS
 10
3.615040
 20
2.049080
  0
VERTEX
  8
0
  6
CONTINUOUS
 10
3.599200
 20
2.085160
  0
SEQEND
  8
0
  0
SOLID
  8
0
 62
    15
 10
3.615040
 20
2.049080
 11
4.247760
 21
2.432320
 12
3.630440
 22
2.015200
 13
4.262720
 23
2.398440
  0
POLYLINE
  8
0
  6
CONTINUOUS
 66
     1
 40
0.000000
 41
0.000000
  0
VERTEX
  8
0
  6
CONTINUOUS
 10
3.615040
 20
2.049080
  0
VERTEX
  8
0
  6
CONTINUOUS
 10
4.247760
 20
2.432320
  0
VERTEX
  8
0
  6
CONTINUOUS
 10
4.262720
 20
2.398440
  0
VERTEX
  8
0
  6
CONTINUOUS
 10
3.630440
 20
2.015200
  0
VERTEX
  8
0
  6
CONTINUOUS
 10
3.615040
 20
2.049080
  0
SEQEND
  8
0
  0
SOLID
  8
0
 62
    15
 10
3.630440
 20
2.015200
 11
4.262720
 21
2.398440
 12
3.680160
 22
1.899480
 13
4.312440
 23
2.283160
  0
POLYLINE
  8
0
  6
CONTINUOUS
 66
     1
 40
0.000000
 41
0.000000
  0
VERTEX
  8
0
  6
CONTINUOUS
 10
3.630440
 20
2.015200
  0
VERTEX
  8
0
  6
CONTINUOUS
 10
4.262720
 20
2.398440
  0
VERTEX
  8
0
  6
CONTINUOUS
 10
4.312440
 20
2.283160
  0
VERTEX
  8
0
  6
CONTINUOUS
 10
3.680160
 20
1.899480
  0
VERTEX
  8
0
  6
CONTINUOUS
 10
3.630440
 20
2.015200
  0
SEQEND
  8
0
  0
SOLID
  8
0
 62
    15
 10
3.680160
 20
1.899480
 11
4.312440
 21
2.283160
 12
3.705680
 22
1.812800
 13
4.338400
 23
2.196480
  0
POLYLINE
  8
0
  6
CONTINUOUS
 66
     1
 40
0.000000
 41
0.000000
  0
VERTEX
  8
0
  6
CONTINUOUS
 10
3.680160
 20
1.899480
  0
VERTEX
  8
0
  6
CONTINUOUS
 10
4.312440
 20
2.283160
  0
VERTEX
  8
0
  6
CONTINUOUS
 10
4.338400
 20
2.196480
  0
VERTEX
  8
0
  6
CONTINUOUS
 10
3.705680
 20
1.812800
  0
VERTEX
  8
0
  6
CONTINUOUS
 10
3.680160
 20
1.899480
  0
SEQEND
  8
0
  0
SOLID
  8
0
 62
    15
 10
3.705680
 20
1.812800
 11
4.338400
 21
2.196480
 12
3.712280
 22
1.774960
 13
4.345000
 23
2.158200
  0
POLYLINE
  8
0
  6
CONTINUOUS
 66
     1
 40
0.000000
 41
0.000000
  0
VERTEX
  8
0
  6
CONTINUOUS
 10
3.705680
 20
1.812800
  0
VERTEX
  8
0
  6
CONTINUOUS
 10
4.338400
 20
2.196480
  0
VERTEX
  8
0
  6
CONTINUOUS
 10
4.345000
 20
2.158200
  0
VERTEX
  8
0
  6
CONTINUOUS
 10
3.712280
 20
1.774960
  0
VERTEX
  8
0
  6
CONTINUOUS
 10
3.705680
 20
1.812800
  0
SEQEND
  8
0
  0
SOLID
  8
0
 62
    15
 10
3.712280
 20
1.774960
 11
4.345000
 21
2.158200
 12
3.729440
 22
1.691800
 13
4.361720
 23
2.075480
  0
POLYLINE
  8
0
  6
CONTINUOUS
 66
     1
 40
0.000000
 41
0.000000
  0
VERTEX
  8
0
  6
CONTINUOUS
 10
3.712280
 20
1.774960
  0
VERTEX
  8
0
  6
CONTINUOUS
 10
4.345000
 20
2.158200
  0
VERTEX
  8
0
  6
CONTINUOUS
 10
4.361720
 20
2.075480
  0
VERTEX
  8
0
  6
CONTINUOUS
 10
3.729440
 20
1.691800
  0
VERTEX
  8
0
  6
CONTINUOUS
 10
3.712280
 20
1.774960
  0
SEQEND
  8
0
  0
SOLID
  8
0
 62
    15
 10
3.729440
 20
1.691800
 11
4.361720
 21
2.075480
 12
3.737800
 22
1.645600
 13
4.370080
 23
2.028840
  0
POLYLINE
  8
0
  6
CONTINUOUS
 66
     1
 40
0.000000
 41
0.000000
  0
VERTEX
  8
0
  6
CONTINUOUS
 10
3.729440
 20
1.691800
  0
VERTEX
  8
0
  6
CONTINUOUS
 10
4.361720
 20
2.075480
  0
VERTEX
  8
0
  6
CONTINUOUS
 10
4.370080
 20
2.028840
  0
VERTEX
  8
0
  6
CONTINUOUS
 10
3.737800
 20
1.645600
  0
VERTEX
  8
0
  6
CONTINUOUS
 10
3.729440
 20
1.691800
  0
SEQEND
  8
0
  0
SOLID
  8
0
 62
    15
 10
3.737800
 20
1.645600
 11
4.370080
 21
2.028840
 12
3.749680
 22
1.538680
 13
4.381960
 23
1.921920
  0
POLYLINE
  8
0
  6
CONTINUOUS
 66
     1
 40
0.000000
 41
0.000000
  0
VERTEX
  8
0
  6
CONTINUOUS
 10
3.737800
 20
1.645600
  0
VERTEX
  8
0
  6
CONTINUOUS
 10
4.370080
 20
2.028840
  0
VERTEX
  8
0
  6
CONTINUOUS
 10
4.381960
 20
1.921920
  0
VERTEX
  8
0
  6
CONTINUOUS
 10
3.749680
 20
1.538680
  0
VERTEX
  8
0
  6
CONTINUOUS
 10
3.737800
 20
1.645600
  0
SEQEND
  8
0
  0
SOLID
  8
0
 62
    15
 10
3.749680
 20
1.538680
 11
4.381960
 21
1.921920
 12
3.748360
 22
1.408880
 13
4.381080
 23
1.792120
  0
POLYLINE
  8
0
  6
CONTINUOUS
 66
     1
 40
0.000000
 41
0.000000
  0
VERTEX
  8
0
  6
CONTINUOUS
 10
3.749680
 20
1.538680
  0
VERTEX
  8
0
  6
CONTINUOUS
 10
4.381960
 20
1.921920
  0
VERTEX
  8
0
  6
CONTINUOUS
 10
4.381080
 20
1.792120
  0
VERTEX
  8
0
  6
CONTINUOUS
 10
3.748360
 20
1.408880
  0
VERTEX
  8
0
  6
CONTINUOUS
 10
3.749680
 20
1.538680
  0
SEQEND
  8
0
  0
SOLID
  8
0
 62
    15
 10
3.748360
 20
1.408880
 11
4.381080
 21
1.792120
 12
3.749680
 22
1.406240
 13
4.382400
 23
1.789480
  0
POLYLINE
  8
0
  6
CONTINUOUS
 66
     1
 40
0.000000
 41
0.000000
  0
VERTEX
  8
0
  6
CONTINUOUS
 10
3.748360
 20
1.408880
  0
VERTEX
  8
0
  6
CONTINUOUS
 10
4.381080
 20
1.792120
  0
VERTEX
  8
0
  6
CONTINUOUS
 10
4.382400
 20
1.789480
  0
VERTEX
  8
0
  6
CONTINUOUS
 10
3.749680
 20
1.406240
  0
VERTEX
  8
0
  6
CONTINUOUS
 10
3.748360
 20
1.408880
  0
SEQEND
  8
0
  0
SOLID
  8
0
 62
    15
 10
3.749680
 20
1.406240
 11
4.382400
 21
1.789480
 12
3.893560
 22
1.406240
 13
4.526280
 23
1.789480
  0
POLYLINE
  8
0
  6
CONTINUOUS
 66
     1
 40
0.000000
 41
0.000000
  0
VERTEX
  8
0
  6
CONTINUOUS
 10
3.749680
 20
1.406240
  0
VERTEX
  8
0
  6
CONTINUOUS
 10
4.382400
 20
1.789480
  0
VERTEX
  8
0
  6
CONTINUOUS
 10
4.526280
 20
1.789480
  0
VERTEX
  8
0
  6
CONTINUOUS
 10
3.893560
 20
1.406240
  0
VERTEX
  8
0
  6
CONTINUOUS
 10
3.749680
 20
1.406240
  0
SEQEND
  8
0
  0
SOLID
  8
0
 62
    15
 10
3.732960
 20
1.067880
 11
4.365240
 21
1.451120
 12
3.679720
 22
0.989120
 13
4.312440
 23
1.372800
  0
POLYLINE
  8
0
  6
CONTINUOUS
 66
     1
 40
0.000000
 41
0.000000
  0
VERTEX
  8
0
  6
CONTINUOUS
 10
3.732960
 20
1.067880
  0
VERTEX
  8
0
  6
CONTINUOUS
 10
4.365240
 20
1.451120
  0
VERTEX
  8
0
  6
CONTINUOUS
 10
4.312440
 20
1.372800
  0
VERTEX
  8
0
  6
CONTINUOUS
 10
3.679720
 20
0.989120
  0
VERTEX
  8
0
  6
CONTINUOUS
 10
3.732960
 20
1.067880
  0
SEQEND
  8
0
  0
SOLID
  8
0
 62
    15
 10
3.804680
 20
1.122000
 11
4.437400
 21
1.505680
 12
3.732960
 22
1.067880
 13
4.365240
 23
1.451120
  0
POLYLINE
  8
0
  6
CONTINUOUS
 66
     1
 40
0.000000
 41
0.000000
  0
VERTEX
  8
0
  6
CONTINUOUS
 10
3.804680
 20
1.122000
  0
VERTEX
  8
0
  6
CONTINUOUS
 10
4.437400
 20
1.505680
  0
VERTEX
  8
0
  6
CONTINUOUS
 10
4.365240
 20
1.451120
  0
VERTEX
  8
0
  6
CONTINUOUS
 10
3.732960
 20
1.067880
  0
VERTEX
  8
0
  6
CONTINUOUS
 10
3.804680
 20
1.122000
  0
SEQEND
  8
0
  0
SOLID
  8
0
 62
    15
 10
3.893560
 20
1.406240
 11
4.526280
 21
1.789480
 12
3.893560
 22
1.151480
 13
4.526280
 23
1.535160
  0
POLYLINE
  8
0
  6
CONTINUOUS
 66
     1
 40
0.000000
 41
0.000000
  0
VERTEX
  8
0
  6
CONTINUOUS
 10
3.893560
 20
1.406240
  0
VERTEX
  8
0
  6
CONTINUOUS
 10
4.526280
 20
1.789480
  0
VERTEX
  8
0
  6
CONTINUOUS
 10
4.526280
 20
1.535160
  0
VERTEX
  8
0
  6
CONTINUOUS
 10
3.893560
 20
1.151480
  0
VERTEX
  8
0
  6
CONTINUOUS
 10
3.893560
 20
1.406240
  0
SEQEND
  8
0
  0
SOLID
  8
0
 62
    15
 10
3.679720
 20
0.989120
 11
4.312440
 21
1.372800
 12
3.647160
 22
0.887480
 13
4.279440
 23
1.271160
  0
POLYLINE
  8
0
  6
CONTINUOUS
 66
     1
 40
0.000000
 41
0.000000
  0
VERTEX
  8
0
  6
CONTINUOUS
 10
3.679720
 20
0.989120
  0
VERTEX
  8
0
  6
CONTINUOUS
 10
4.312440
 20
1.372800
  0
VERTEX
  8
0
  6
CONTINUOUS
 10
4.279440
 20
1.271160
  0
VERTEX
  8
0
  6
CONTINUOUS
 10
3.647160
 20
0.887480
  0
VERTEX
  8
0
  6
CONTINUOUS
 10
3.679720
 20
0.989120
  0
SEQEND
  8
0
  0
SOLID
  8
0
 62
    15
 10
3.647160
 20
0.887480
 11
4.279440
 21
1.271160
 12
3.644520
 22
0.884840
 13
4.276800
 23
1.268520
  0
POLYLINE
  8
0
  6
CONTINUOUS
 66
     1
 40
0.000000
 41
0.000000
  0
VERTEX
  8
0
  6
CONTINUOUS
 10
3.647160
 20
0.887480
  0
VERTEX
  8
0
  6
CONTINUOUS
 10
4.279440
 20
1.271160
  0
VERTEX
  8
0
  6
CONTINUOUS
 10
4.276800
 20
1.268520
  0
VERTEX
  8
0
  6
CONTINUOUS
 10
3.644520
 20
0.884840
  0
VERTEX
  8
0
  6
CONTINUOUS
 10
3.647160
 20
0.887480
  0
SEQEND
  8
0
  0
SOLID
  8
0
 62
    15
 10
2.649680
 20
0.884840
 11
3.282400
 21
1.268520
 12
2.644400
 22
0.879560
 13
3.277120
 23
1.262800
  0
POLYLINE
  8
0
  6
CONTINUOUS
 66
     1
 40
0.000000
 41
0.000000
  0
VERTEX
  8
0
  6
CONTINUOUS
 10
2.649680
 20
0.884840
  0
VERTEX
  8
0
  6
CONTINUOUS
 10
3.282400
 20
1.268520
  0
VERTEX
  8
0
  6
CONTINUOUS
 10
3.277120
 20
1.262800
  0
VERTEX
  8
0
  6
CONTINUOUS
 10
2.644400
 20
0.879560
  0
VERTEX
  8
0
  6
CONTINUOUS
 10
2.649680
 20
0.884840
  0
SEQEND
  8
0
  0
POLYLINE
  8
0
  6
CONTINUOUS
 66
     1
 40
0.000000
 41
0.000000
  0
VERTEX
  8
0
  6
CONTINUOUS
 10
2.644400
 20
0.879560
  0
VERTEX
  8
0
  6
CONTINUOUS
 10
1.649560
 20
0.879560
  0
VERTEX
  8
0
  6
CONTINUOUS
 10
1.644280
 20
0.880880
  0
VERTEX
  8
0
  6
CONTINUOUS
 10
1.611280
 20
0.982520
  0
VERTEX
  8
0
  6
CONTINUOUS
 10
1.557160
 20
1.060840
  0
VERTEX
  8
0
  6
CONTINUOUS
 10
1.484560
 20
1.115400
  0
VERTEX
  8
0
  6
CONTINUOUS
 10
1.395240
 20
1.144880
  0
VERTEX
  8
0
  6
CONTINUOUS
 10
1.395240
 20
1.402280
  0
VERTEX
  8
0
  6
CONTINUOUS
 10
1.541760
 20
1.400960
  0
VERTEX
  8
0
  6
CONTINUOUS
 10
1.543080
 20
1.402280
  0
VERTEX
  8
0
  6
CONTINUOUS
 10
1.542200
 20
1.532080
  0
VERTEX
  8
0
  6
CONTINUOUS
 10
1.554080
 20
1.638560
  0
VERTEX
  8
0
  6
CONTINUOUS
 10
1.585760
 20
1.806200
  0
VERTEX
  8
0
  6
CONTINUOUS
 10
1.611720
 20
1.892880
  0
VERTEX
  8
0
  6
CONTINUOUS
 10
1.726120
 20
2.156880
  0
VERTEX
  8
0
  6
CONTINUOUS
 10
1.797840
 20
2.343440
  0
VERTEX
  8
0
  6
CONTINUOUS
 10
1.801360
 20
2.375560
  0
VERTEX
  8
0
  6
CONTINUOUS
 10
1.795200
 20
2.423080
  0
VERTEX
  8
0
  6
CONTINUOUS
 10
1.778480
 20
2.481160
  0
VERTEX
  8
0
  6
CONTINUOUS
 10
1.750320
 20
2.545840
  0
VERTEX
  8
0
  6
CONTINUOUS
 10
1.709400
 20
2.612720
  0
VERTEX
  8
0
  6
CONTINUOUS
 10
1.655280
 20
2.677400
  0
VERTEX
  8
0
  6
CONTINUOUS
 10
1.586200
 20
2.735480
  0
VERTEX
  8
0
  6
CONTINUOUS
 10
1.500400
 20
2.782120
  0
VERTEX
  8
0
  6
CONTINUOUS
 10
1.528560
 20
2.906200
  0
VERTEX
  8
0
  6
CONTINUOUS
 10
1.529880
 20
2.904880
  0
VERTEX
  8
0
  6
CONTINUOUS
 10
1.489400
 20
2.939640
  0
VERTEX
  8
0
  6
CONTINUOUS
 10
1.452000
 20
2.987160
  0
VERTEX
  8
0
  6
CONTINUOUS
 10
1.396560
 20
3.112120
  0
VERTEX
  8
0
  6
CONTINUOUS
 10
1.382920
 20
3.185600
  0
VERTEX
  8
0
  6
CONTINUOUS
 10
1.382920
 20
3.263920
  0
VERTEX
  8
0
  6
CONTINUOUS
 10
1.397880
 20
3.345320
  0
VERTEX
  8
0
  6
CONTINUOUS
 10
1.430880
 20
3.427600
  0
VERTEX
  8
0
  6
CONTINUOUS
 10
1.484560
 20
3.509000
  0
VERTEX
  8
0
  6
CONTINUOUS
 10
1.561560
 20
3.587760
  0
VERTEX
  8
0
  6
CONTINUOUS
 10
1.663640
 20
3.661240
  0
VERTEX
  8
0
  6
CONTINUOUS
 10
1.793880
 20
3.727680
  0
VERTEX
  8
0
  6
CONTINUOUS
 10
1.954480
 20
3.785760
  0
VERTEX
  8
0
  6
CONTINUOUS
 10
2.148080
 20
3.833280
  0
VERTEX
  8
0
  6
CONTINUOUS
 10
2.377320
 20
3.867600
  0
VERTEX
  8
0
  6
CONTINUOUS
 10
2.644400
 20
3.887400
  0
VERTEX
  8
0
  6
CONTINUOUS
 10
2.640440
 20
3.886080
  0
VERTEX
  8
0
  6
CONTINUOUS
 10
2.907520
 20
3.866280
  0
VERTEX
  8
0
  6
CONTINUOUS
 10
3.136760
 20
3.831960
  0
VERTEX
  8
0
  6
CONTINUOUS
 10
3.330360
 20
3.784440
  0
VERTEX
  8
0
  6
CONTINUOUS
 10
3.490960
 20
3.726360
  0
VERTEX
  8
0
  6
CONTINUOUS
 10
3.621200
 20
3.659920
  0
VERTEX
  8
0
  6
CONTINUOUS
 10
3.723280
 20
3.586440
  0
VERTEX
  8
0
  6
CONTINUOUS
 10
3.799840
 20
3.508120
  0
VERTEX
  8
0
  6
CONTINUOUS
 10
3.853520
 20
3.426280
  0
VERTEX
  8
0
  6
CONTINUOUS
 10
3.886960
 20
3.344000
  0
VERTEX
  8
0
  6
CONTINUOUS
 10
3.901920
 20
3.262600
  0
VERTEX
  8
0
  6
CONTINUOUS
 10
3.901480
 20
3.184280
  0
VERTEX
  8
0
  6
CONTINUOUS
 10
3.888280
 20
3.110800
  0
VERTEX
  8
0
  6
CONTINUOUS
 10
3.832840
 20
2.985840
  0
VERTEX
  8
0
  6
CONTINUOUS
 10
3.795440
 20
2.938320
  0
VERTEX
  8
0
  6
CONTINUOUS
 10
3.754960
 20
2.903560
  0
VERTEX
  8
0
  6
CONTINUOUS
 10
3.789720
 20
2.788720
  0
VERTEX
  8
0
  6
CONTINUOUS
 10
3.705240
 20
2.742080
  0
VERTEX
  8
0
  6
CONTINUOUS
 10
3.636600
 20
2.684000
  0
VERTEX
  8
0
  6
CONTINUOUS
 10
3.582040
 20
2.619320
  0
VERTEX
  8
0
  6
CONTINUOUS
 10
3.541120
 20
2.552440
  0
VERTEX
  8
0
  6
CONTINUOUS
 10
3.512960
 20
2.487760
  0
VERTEX
  8
0
  6
CONTINUOUS
 10
3.496240
 20
2.429680
  0
VERTEX
  8
0
  6
CONTINUOUS
 10
3.490080
 20
2.382160
  0
VERTEX
  8
0
  6
CONTINUOUS
 10
3.493600
 20
2.350040
  0
VERTEX
  8
0
  6
CONTINUOUS
 10
3.565320
 20
2.163920
  0
VERTEX
  8
0
  6
CONTINUOUS
 10
3.680160
 20
1.899480
  0
VERTEX
  8
0
  6
CONTINUOUS
 10
3.705680
 20
1.812800
  0
VERTEX
  8
0
  6
CONTINUOUS
 10
3.737800
 20
1.645600
  0
VERTEX
  8
0
  6
CONTINUOUS
 10
3.749680
 20
1.538680
  0
VERTEX
  8
0
  6
CONTINUOUS
 10
3.748360
 20
1.408880
  0
VERTEX
  8
0
  6
CONTINUOUS
 10
3.749680
 20
1.406240
  0
VERTEX
  8
0
  6
CONTINUOUS
 10
3.893560
 20
1.406240
  0
VERTEX
  8
0
  6
CONTINUOUS
 10
3.893560
 20
1.151480
  0
VERTEX
  8
0
  6
CONTINUOUS
 10
3.804680
 20
1.122000
  0
VERTEX
  8
0
  6
CONTINUOUS
 10
3.732960
 20
1.067880
  0
VERTEX
  8
0
  6
CONTINUOUS
 10
3.679720
 20
0.989120
  0
VERTEX
  8
0
  6
CONTINUOUS
 10
3.647160
 20
0.887480
  0
VERTEX
  8
0
  6
CONTINUOUS
 10
3.644520
 20
0.884840
  0
VERTEX
  8
0
  6
CONTINUOUS
 10
2.649680
 20
0.884840
  0
VERTEX
  8
0
  6
CONTINUOUS
 10
2.644400
 20
0.879560
  0
SEQEND
  8
0
  0
TEXT
  8
0
 10
2.662880
 20
0.608960
 40
0.138218
  1
BA  279
 41
1.000000
  7
SN0
 71
     0
 72
     5
 11
3.253902
 21
0.608960
  0
TEXT
  8
0
 10
2.576640
 20
0.417120
 40
0.138218
  1
3" x 2-1/2"
 41
1.000000
  7
SN0
 71
     0
 72
     5
 11
3.339932
 21
0.417120
  0
TEXT
  8
0
 10
7.461520
 20
4.220920
 40
0.138218
  1
hand rail
 41
1.000000
  7
SN0
 71
     0
 72
     5
 11
8.097876
 21
4.220920
  0
TEXT
  8
0
 10
7.641480
 20
4.029520
 40
0.138218
  1
279
 41
1.000000
  7
SN0
 71
     0
 72
     5
 11
7.918857
 21
4.029520
  0
ENDSEC
  0
EOF
