  0
SECTION
  2
HEADER
  9
$ACADVER
  1
AC1006
  9
$EXTMIN
 10
5.919760
 20
0.399520
  9
$EXTMAX
 10
8.030000
 20
4.554880
  9
$LTSCALE
 40
0.044000
  9
$PDMODE
 70
    35
  9
$PDSIZE
 40
0.035200
  0
ENDSEC
  0
SECTION
  2
TABLES
  0
TABLE
  2
LTYPE
 70
     9
  0
LTYPE
  2
CONTINUOUS
 70
    64
  3
Solid line
 72
    65
 73
     0
 40
0.000000
  0
LTYPE
  2
DASHED
 70
    64
  3
__ __ __ __ __ __ __ __ __ __ __ __ __ __ __
 72
    65
 73
     2
 40
0.000330
 49
0.000220
 49
-0.000110
  0
LTYPE
  2
HIDDEN
 70
    64
  3
 _ _ _ _ _ _ _ _ _ _ _ _ _ _ _ _ _ _ _ _ _ _
 72
    65
 73
     2
 40
0.000165
 49
0.000110
 49
-0.000055
  0
LTYPE
  2
CENTER
 70
    64
  3
____ _ ____ _ ____ _ ____ _ ____ _ ____ _ ____
 72
    65
 73
     4
 40
0.000880
 49
0.000550
 49
-0.000110
 49
0.000110
 49
-0.000110
  0
LTYPE
  2
PHANTOM
 70
    64
  3
_____ _ _ _____ _ _ _____ _ _ _____ _ _ ____
 72
    65
 73
     6
 40
0.001100
 49
0.000550
 49
-0.000110
 49
0.000110
 49
-0.000110
 49
0.000110
 49
-0.000110
  0
LTYPE
  2
DOT
 70
    64
  3
...............................................
 72
    65
 73
     2
 40
0.000110
 49
0.000000
 49
-0.000110
  0
LTYPE
  2
DASHDOT
 70
    64
  3
__ . __ . __ . __ . __ . __ . __ . __ . __ . __
 72
    65
 73
     4
 40
0.000440
 49
0.000220
 49
-0.000110
 49
0.000000
 49
-0.000110
  0
LTYPE
  2
BORDER
 70
    64
  3
__ __ . __ __ . __ __ . __ __ . __ __ . __ __
 72
    65
 73
     6
 40
0.000770
 49
0.000220
 49
-0.000110
 49
0.000220
 49
-0.000110
 49
0.000000
 49
-0.000110
  0
LTYPE
  2
DIVIDE
 70
    64
  3
__ . . __ . . __ . . __ . . __ . . __ . . __
 72
    65
 73
     6
 40
0.000550
 49
0.000220
 49
-0.000110
 49
0.000000
 49
-0.000110
 49
0.000000
 49
-0.000110
  0
LTYPE
  2
DOTDOT
 70
    64
  3
 . .  . .  . .  . .  . .  . . 
 72
    65
 73
     5
 40
0.000242
 49
-0.000110
 49
0.000000
 49
-0.000110
 49
0.000000
 49
-0.000110
  0
ENDTAB
  0
TABLE
  2
STYLE
 70
     2
  0
STYLE
 70
     0
  2
SN0
 40
0.000000
 41
0.000440
 50
0.000000
 71
     0
 42
0.000000
  3
ROMAND
  0
STYLE
 70
    68
  2
SV0
 40
0.000000
 41
0.000440
 50
0.000000
 71
     0
 42
0.000000
  3
ROMAND
  0
ENDTAB
  0
TABLE
  2
LAYER
 70
     3
  0
LAYER
  2
FOREGROUND
 70
    64
 62
     7
  6
CONTINUOUS
  0
LAYER
  2
BACKGROUND
 70
    65
 62
    -7
  6
CONTINUOUS
  0
LAYER
  2
0
 70
    64
 62
     7
  6
CONTINUOUS
  0
ENDTAB
  0
ENDSEC
  0
SECTION
  2
ENTITIES
  0
POLYLINE
  8
FOREGROUND
  6
CONTINUOUS
 66
     1
 40
0.000000
 41
0.000000
  0
VERTEX
  8
FOREGROUND
  6
CONTINUOUS
 10
0.000000
 20
4.954400
  0
VERTEX
  8
FOREGROUND
  6
CONTINUOUS
 10
8.499920
 20
4.954400
  0
VERTEX
  8
FOREGROUND
  6
CONTINUOUS
 10
8.499920
 20
-6.045600
  0
VERTEX
  8
FOREGROUND
  6
CONTINUOUS
 10
0.000000
 20
-6.045600
  0
VERTEX
  8
FOREGROUND
  6
CONTINUOUS
 10
0.000000
 20
4.954400
  0
SEQEND
  8
0
  0
POLYLINE
  8
FOREGROUND
  6
CONTINUOUS
 66
     1
 40
0.000000
 41
0.000000
  0
VERTEX
  8
FOREGROUND
  6
CONTINUOUS
 10
0.000000
 20
4.954400
  0
VERTEX
  8
FOREGROUND
  6
CONTINUOUS
 10
8.499920
 20
4.954400
  0
VERTEX
  8
FOREGROUND
  6
CONTINUOUS
 10
8.499920
 20
-6.045600
  0
VERTEX
  8
FOREGROUND
  6
CONTINUOUS
 10
0.000000
 20
-6.045600
  0
VERTEX
  8
FOREGROUND
  6
CONTINUOUS
 10
0.000000
 20
4.954400
  0
SEQEND
  8
0
  0
POLYLINE
  8
0
  6
CONTINUOUS
 66
     1
 40
0.014080
 41
0.014080
  0
VERTEX
  8
0
  6
CONTINUOUS
 10
6.927360
 20
4.055480
  0
VERTEX
  8
0
  6
CONTINUOUS
 10
6.862680
 20
4.061640
  0
VERTEX
  8
0
  6
CONTINUOUS
 10
6.811200
 20
4.071320
  0
VERTEX
  8
0
  6
CONTINUOUS
 10
6.771600
 20
4.082760
  0
VERTEX
  8
0
  6
CONTINUOUS
 10
6.742120
 20
4.095960
  0
VERTEX
  8
0
  6
CONTINUOUS
 10
6.721440
 20
4.109600
  0
VERTEX
  8
0
  6
CONTINUOUS
 10
6.708240
 20
4.122800
  0
VERTEX
  8
0
  6
CONTINUOUS
 10
6.701200
 20
4.134680
  0
VERTEX
  8
0
  6
CONTINUOUS
 10
6.698120
 20
4.159760
  0
VERTEX
  8
0
  6
CONTINUOUS
 10
6.693280
 20
4.169000
  0
VERTEX
  8
0
  6
CONTINUOUS
 10
6.682280
 20
4.175600
  0
VERTEX
  8
0
  6
CONTINUOUS
 10
6.654560
 20
4.180440
  0
VERTEX
  8
0
  6
CONTINUOUS
 10
6.586800
 20
4.181760
  0
VERTEX
  8
0
  6
CONTINUOUS
 10
6.567000
 20
4.185720
  0
VERTEX
  8
0
  6
CONTINUOUS
 10
6.559080
 20
4.191000
  0
VERTEX
  8
0
  6
CONTINUOUS
 10
6.553800
 20
4.204640
  0
VERTEX
  8
0
  6
CONTINUOUS
 10
6.552480
 20
4.218280
  0
VERTEX
  8
0
  6
CONTINUOUS
 10
6.551160
 20
4.270200
  0
VERTEX
  8
0
  6
CONTINUOUS
 10
6.543240
 20
4.316400
  0
VERTEX
  8
0
  6
CONTINUOUS
 10
6.529160
 20
4.359520
  0
VERTEX
  8
0
  6
CONTINUOUS
 10
6.516400
 20
4.386800
  0
VERTEX
  8
0
  6
CONTINUOUS
 10
6.492640
 20
4.424200
  0
VERTEX
  8
0
  6
CONTINUOUS
 10
6.474160
 20
4.447080
  0
VERTEX
  8
0
  6
CONTINUOUS
 10
6.442480
 20
4.477440
  0
VERTEX
  8
0
  6
CONTINUOUS
 10
6.406400
 20
4.503400
  0
VERTEX
  8
0
  6
CONTINUOUS
 10
6.366800
 20
4.523640
  0
VERTEX
  8
0
  6
CONTINUOUS
 10
6.338640
 20
4.533760
  0
VERTEX
  8
0
  6
CONTINUOUS
 10
6.293320
 20
4.543880
  0
VERTEX
  8
0
  6
CONTINUOUS
 10
6.262080
 20
4.546960
  0
VERTEX
  8
0
  6
CONTINUOUS
 10
6.229520
 20
4.546960
  0
VERTEX
  8
0
  6
CONTINUOUS
 10
6.197840
 20
4.543880
  0
VERTEX
  8
0
  6
CONTINUOUS
 10
6.152080
 20
4.532880
  0
VERTEX
  8
0
  6
CONTINUOUS
 10
6.123040
 20
4.522320
  0
VERTEX
  8
0
  6
CONTINUOUS
 10
6.082120
 20
4.501200
  0
VERTEX
  8
0
  6
CONTINUOUS
 10
6.056600
 20
4.484040
  0
VERTEX
  8
0
  6
CONTINUOUS
 10
6.022280
 20
4.453680
  0
VERTEX
  8
0
  6
CONTINUOUS
 10
5.991920
 20
4.419360
  0
VERTEX
  8
0
  6
CONTINUOUS
 10
5.967280
 20
4.380640
  0
VERTEX
  8
0
  6
CONTINUOUS
 10
5.947920
 20
4.338400
  0
VERTEX
  8
0
  6
CONTINUOUS
 10
5.938680
 20
4.308920
  0
VERTEX
  8
0
  6
CONTINUOUS
 10
5.932080
 20
4.278120
  0
VERTEX
  8
0
  6
CONTINUOUS
 10
5.929000
 20
4.246440
  0
VERTEX
  8
0
  6
CONTINUOUS
 10
5.928560
 20
4.230160
  0
VERTEX
  8
0
  6
CONTINUOUS
 10
5.927240
 20
4.226200
  0
VERTEX
  8
0
  6
CONTINUOUS
 10
5.927240
 20
3.171520
  0
VERTEX
  8
0
  6
CONTINUOUS
 10
6.555120
 20
3.171520
  0
VERTEX
  8
0
  6
CONTINUOUS
 10
6.555120
 20
3.932720
  0
VERTEX
  8
0
  6
CONTINUOUS
 10
6.931320
 20
3.932720
  0
VERTEX
  8
0
  6
CONTINUOUS
 10
6.931320
 20
4.051520
  0
VERTEX
  8
0
  6
CONTINUOUS
 10
6.927360
 20
4.055480
  0
SEQEND
  8
0
  0
SOLID
  8
0
 62
    15
 10
7.410480
 20
1.912680
 11
7.412680
 21
2.662000
 12
7.411800
 22
1.878800
 13
7.414000
 23
2.628120
  0
POLYLINE
  8
0
  6
CONTINUOUS
 66
     1
 40
0.000000
 41
0.000000
  0
VERTEX
  8
0
  6
CONTINUOUS
 10
7.410480
 20
1.912680
  0
VERTEX
  8
0
  6
CONTINUOUS
 10
7.412680
 20
2.662000
  0
VERTEX
  8
0
  6
CONTINUOUS
 10
7.414000
 20
2.628120
  0
VERTEX
  8
0
  6
CONTINUOUS
 10
7.411800
 20
1.878800
  0
VERTEX
  8
0
  6
CONTINUOUS
 10
7.410480
 20
1.912680
  0
SEQEND
  8
0
  0
SOLID
  8
0
 62
    15
 10
7.413120
 20
1.607320
 11
7.415320
 21
2.356640
 12
7.413120
 22
0.846120
 13
7.415320
 23
1.595440
  0
POLYLINE
  8
0
  6
CONTINUOUS
 66
     1
 40
0.000000
 41
0.000000
  0
VERTEX
  8
0
  6
CONTINUOUS
 10
7.413120
 20
1.607320
  0
VERTEX
  8
0
  6
CONTINUOUS
 10
7.415320
 20
2.356640
  0
VERTEX
  8
0
  6
CONTINUOUS
 10
7.415320
 20
1.595440
  0
VERTEX
  8
0
  6
CONTINUOUS
 10
7.413120
 20
0.846120
  0
VERTEX
  8
0
  6
CONTINUOUS
 10
7.413120
 20
1.607320
  0
SEQEND
  8
0
  0
SOLID
  8
0
 62
    15
 10
6.785240
 20
1.900800
 11
6.787000
 21
2.650120
 12
6.786560
 22
1.904760
 13
6.788760
 23
2.654080
  0
POLYLINE
  8
0
  6
CONTINUOUS
 66
     1
 40
0.000000
 41
0.000000
  0
VERTEX
  8
0
  6
CONTINUOUS
 10
6.785240
 20
1.900800
  0
VERTEX
  8
0
  6
CONTINUOUS
 10
6.787000
 20
2.650120
  0
VERTEX
  8
0
  6
CONTINUOUS
 10
6.788760
 20
2.654080
  0
VERTEX
  8
0
  6
CONTINUOUS
 10
6.786560
 20
1.904760
  0
VERTEX
  8
0
  6
CONTINUOUS
 10
6.785240
 20
1.900800
  0
SEQEND
  8
0
  0
SOLID
  8
0
 62
    15
 10
6.786560
 20
1.904760
 11
6.788760
 21
2.654080
 12
6.793160
 22
1.968120
 13
6.794920
 23
2.717440
  0
POLYLINE
  8
0
  6
CONTINUOUS
 66
     1
 40
0.000000
 41
0.000000
  0
VERTEX
  8
0
  6
CONTINUOUS
 10
6.786560
 20
1.904760
  0
VERTEX
  8
0
  6
CONTINUOUS
 10
6.788760
 20
2.654080
  0
VERTEX
  8
0
  6
CONTINUOUS
 10
6.794920
 20
2.717440
  0
VERTEX
  8
0
  6
CONTINUOUS
 10
6.793160
 20
1.968120
  0
VERTEX
  8
0
  6
CONTINUOUS
 10
6.786560
 20
1.904760
  0
SEQEND
  8
0
  0
SOLID
  8
0
 62
    15
 10
6.793160
 20
1.968120
 11
6.794920
 21
2.717440
 12
6.811640
 22
2.027520
 13
6.813840
 23
2.776840
  0
POLYLINE
  8
0
  6
CONTINUOUS
 66
     1
 40
0.000000
 41
0.000000
  0
VERTEX
  8
0
  6
CONTINUOUS
 10
6.793160
 20
1.968120
  0
VERTEX
  8
0
  6
CONTINUOUS
 10
6.794920
 20
2.717440
  0
VERTEX
  8
0
  6
CONTINUOUS
 10
6.813840
 20
2.776840
  0
VERTEX
  8
0
  6
CONTINUOUS
 10
6.811640
 20
2.027520
  0
VERTEX
  8
0
  6
CONTINUOUS
 10
6.793160
 20
1.968120
  0
SEQEND
  8
0
  0
SOLID
  8
0
 62
    15
 10
6.811640
 20
2.027520
 11
6.813840
 21
2.776840
 12
6.841120
 22
2.081200
 13
6.843320
 23
2.830520
  0
POLYLINE
  8
0
  6
CONTINUOUS
 66
     1
 40
0.000000
 41
0.000000
  0
VERTEX
  8
0
  6
CONTINUOUS
 10
6.811640
 20
2.027520
  0
VERTEX
  8
0
  6
CONTINUOUS
 10
6.813840
 20
2.776840
  0
VERTEX
  8
0
  6
CONTINUOUS
 10
6.843320
 20
2.830520
  0
VERTEX
  8
0
  6
CONTINUOUS
 10
6.841120
 20
2.081200
  0
VERTEX
  8
0
  6
CONTINUOUS
 10
6.811640
 20
2.027520
  0
SEQEND
  8
0
  0
SOLID
  8
0
 62
    15
 10
6.841120
 20
2.081200
 11
6.843320
 21
2.830520
 12
6.880280
 22
2.128280
 13
6.882040
 23
2.877600
  0
POLYLINE
  8
0
  6
CONTINUOUS
 66
     1
 40
0.000000
 41
0.000000
  0
VERTEX
  8
0
  6
CONTINUOUS
 10
6.841120
 20
2.081200
  0
VERTEX
  8
0
  6
CONTINUOUS
 10
6.843320
 20
2.830520
  0
VERTEX
  8
0
  6
CONTINUOUS
 10
6.882040
 20
2.877600
  0
VERTEX
  8
0
  6
CONTINUOUS
 10
6.880280
 20
2.128280
  0
VERTEX
  8
0
  6
CONTINUOUS
 10
6.841120
 20
2.081200
  0
SEQEND
  8
0
  0
SOLID
  8
0
 62
    15
 10
6.880280
 20
2.128280
 11
6.882040
 21
2.877600
 12
6.927360
 22
2.167440
 13
6.929120
 23
2.916760
  0
POLYLINE
  8
0
  6
CONTINUOUS
 66
     1
 40
0.000000
 41
0.000000
  0
VERTEX
  8
0
  6
CONTINUOUS
 10
6.880280
 20
2.128280
  0
VERTEX
  8
0
  6
CONTINUOUS
 10
6.882040
 20
2.877600
  0
VERTEX
  8
0
  6
CONTINUOUS
 10
6.929120
 20
2.916760
  0
VERTEX
  8
0
  6
CONTINUOUS
 10
6.927360
 20
2.167440
  0
VERTEX
  8
0
  6
CONTINUOUS
 10
6.880280
 20
2.128280
  0
SEQEND
  8
0
  0
SOLID
  8
0
 62
    15
 10
6.927360
 20
2.167440
 11
6.929120
 21
2.916760
 12
6.981040
 22
2.196920
 13
6.983240
 23
2.946240
  0
POLYLINE
  8
0
  6
CONTINUOUS
 66
     1
 40
0.000000
 41
0.000000
  0
VERTEX
  8
0
  6
CONTINUOUS
 10
6.927360
 20
2.167440
  0
VERTEX
  8
0
  6
CONTINUOUS
 10
6.929120
 20
2.916760
  0
VERTEX
  8
0
  6
CONTINUOUS
 10
6.983240
 20
2.946240
  0
VERTEX
  8
0
  6
CONTINUOUS
 10
6.981040
 20
2.196920
  0
VERTEX
  8
0
  6
CONTINUOUS
 10
6.927360
 20
2.167440
  0
SEQEND
  8
0
  0
SOLID
  8
0
 62
    15
 10
6.981040
 20
2.196920
 11
6.983240
 21
2.946240
 12
7.040440
 22
2.215400
 13
7.042640
 23
2.964720
  0
POLYLINE
  8
0
  6
CONTINUOUS
 66
     1
 40
0.000000
 41
0.000000
  0
VERTEX
  8
0
  6
CONTINUOUS
 10
6.981040
 20
2.196920
  0
VERTEX
  8
0
  6
CONTINUOUS
 10
6.983240
 20
2.946240
  0
VERTEX
  8
0
  6
CONTINUOUS
 10
7.042640
 20
2.964720
  0
VERTEX
  8
0
  6
CONTINUOUS
 10
7.040440
 20
2.215400
  0
VERTEX
  8
0
  6
CONTINUOUS
 10
6.981040
 20
2.196920
  0
SEQEND
  8
0
  0
SOLID
  8
0
 62
    15
 10
7.040440
 20
2.215400
 11
7.042640
 21
2.964720
 12
7.103800
 22
2.222000
 13
7.106000
 23
2.971320
  0
POLYLINE
  8
0
  6
CONTINUOUS
 66
     1
 40
0.000000
 41
0.000000
  0
VERTEX
  8
0
  6
CONTINUOUS
 10
7.040440
 20
2.215400
  0
VERTEX
  8
0
  6
CONTINUOUS
 10
7.042640
 20
2.964720
  0
VERTEX
  8
0
  6
CONTINUOUS
 10
7.106000
 20
2.971320
  0
VERTEX
  8
0
  6
CONTINUOUS
 10
7.103800
 20
2.222000
  0
VERTEX
  8
0
  6
CONTINUOUS
 10
7.040440
 20
2.215400
  0
SEQEND
  8
0
  0
SOLID
  8
0
 62
    15
 10
7.103800
 20
2.222000
 11
7.106000
 21
2.971320
 12
7.166720
 22
2.215840
 13
7.168920
 23
2.965160
  0
POLYLINE
  8
0
  6
CONTINUOUS
 66
     1
 40
0.000000
 41
0.000000
  0
VERTEX
  8
0
  6
CONTINUOUS
 10
7.103800
 20
2.222000
  0
VERTEX
  8
0
  6
CONTINUOUS
 10
7.106000
 20
2.971320
  0
VERTEX
  8
0
  6
CONTINUOUS
 10
7.168920
 20
2.965160
  0
VERTEX
  8
0
  6
CONTINUOUS
 10
7.166720
 20
2.215840
  0
VERTEX
  8
0
  6
CONTINUOUS
 10
7.103800
 20
2.222000
  0
SEQEND
  8
0
  0
SOLID
  8
0
 62
     7
 10
7.166720
 20
2.215840
 11
7.168920
 21
2.965160
 12
7.224800
 22
2.198240
 13
7.227000
 23
2.947560
  0
POLYLINE
  8
0
  6
CONTINUOUS
 66
     1
 40
0.000000
 41
0.000000
  0
VERTEX
  8
0
  6
CONTINUOUS
 10
7.166720
 20
2.215840
  0
VERTEX
  8
0
  6
CONTINUOUS
 10
7.168920
 20
2.965160
  0
VERTEX
  8
0
  6
CONTINUOUS
 10
7.227000
 20
2.947560
  0
VERTEX
  8
0
  6
CONTINUOUS
 10
7.224800
 20
2.198240
  0
VERTEX
  8
0
  6
CONTINUOUS
 10
7.166720
 20
2.215840
  0
SEQEND
  8
0
  0
SOLID
  8
0
 62
     7
 10
7.224800
 20
2.198240
 11
7.227000
 21
2.947560
 12
7.277160
 22
2.170080
 13
7.278920
 23
2.919400
  0
POLYLINE
  8
0
  6
CONTINUOUS
 66
     1
 40
0.000000
 41
0.000000
  0
VERTEX
  8
0
  6
CONTINUOUS
 10
7.224800
 20
2.198240
  0
VERTEX
  8
0
  6
CONTINUOUS
 10
7.227000
 20
2.947560
  0
VERTEX
  8
0
  6
CONTINUOUS
 10
7.278920
 20
2.919400
  0
VERTEX
  8
0
  6
CONTINUOUS
 10
7.277160
 20
2.170080
  0
VERTEX
  8
0
  6
CONTINUOUS
 10
7.224800
 20
2.198240
  0
SEQEND
  8
0
  0
SOLID
  8
0
 62
    15
 10
7.277160
 20
2.170080
 11
7.278920
 21
2.919400
 12
7.322040
 22
2.132240
 13
7.324240
 23
2.881560
  0
POLYLINE
  8
0
  6
CONTINUOUS
 66
     1
 40
0.000000
 41
0.000000
  0
VERTEX
  8
0
  6
CONTINUOUS
 10
7.277160
 20
2.170080
  0
VERTEX
  8
0
  6
CONTINUOUS
 10
7.278920
 20
2.919400
  0
VERTEX
  8
0
  6
CONTINUOUS
 10
7.324240
 20
2.881560
  0
VERTEX
  8
0
  6
CONTINUOUS
 10
7.322040
 20
2.132240
  0
VERTEX
  8
0
  6
CONTINUOUS
 10
7.277160
 20
2.170080
  0
SEQEND
  8
0
  0
SOLID
  8
0
 62
    15
 10
7.322040
 20
2.132240
 11
7.324240
 21
2.881560
 12
7.359000
 22
2.086920
 13
7.361200
 23
2.836240
  0
POLYLINE
  8
0
  6
CONTINUOUS
 66
     1
 40
0.000000
 41
0.000000
  0
VERTEX
  8
0
  6
CONTINUOUS
 10
7.322040
 20
2.132240
  0
VERTEX
  8
0
  6
CONTINUOUS
 10
7.324240
 20
2.881560
  0
VERTEX
  8
0
  6
CONTINUOUS
 10
7.361200
 20
2.836240
  0
VERTEX
  8
0
  6
CONTINUOUS
 10
7.359000
 20
2.086920
  0
VERTEX
  8
0
  6
CONTINUOUS
 10
7.322040
 20
2.132240
  0
SEQEND
  8
0
  0
SOLID
  8
0
 62
    15
 10
7.359000
 20
2.086920
 11
7.361200
 21
2.836240
 12
7.387160
 22
2.034120
 13
7.388920
 23
2.783440
  0
POLYLINE
  8
0
  6
CONTINUOUS
 66
     1
 40
0.000000
 41
0.000000
  0
VERTEX
  8
0
  6
CONTINUOUS
 10
7.359000
 20
2.086920
  0
VERTEX
  8
0
  6
CONTINUOUS
 10
7.361200
 20
2.836240
  0
VERTEX
  8
0
  6
CONTINUOUS
 10
7.388920
 20
2.783440
  0
VERTEX
  8
0
  6
CONTINUOUS
 10
7.387160
 20
2.034120
  0
VERTEX
  8
0
  6
CONTINUOUS
 10
7.359000
 20
2.086920
  0
SEQEND
  8
0
  0
SOLID
  8
0
 62
    15
 10
7.387160
 20
2.034120
 11
7.388920
 21
2.783440
 12
7.404320
 22
1.975600
 13
7.406520
 23
2.724920
  0
POLYLINE
  8
0
  6
CONTINUOUS
 66
     1
 40
0.000000
 41
0.000000
  0
VERTEX
  8
0
  6
CONTINUOUS
 10
7.387160
 20
2.034120
  0
VERTEX
  8
0
  6
CONTINUOUS
 10
7.388920
 20
2.783440
  0
VERTEX
  8
0
  6
CONTINUOUS
 10
7.406520
 20
2.724920
  0
VERTEX
  8
0
  6
CONTINUOUS
 10
7.404320
 20
1.975600
  0
VERTEX
  8
0
  6
CONTINUOUS
 10
7.387160
 20
2.034120
  0
SEQEND
  8
0
  0
SOLID
  8
0
 62
    15
 10
7.404320
 20
1.975600
 11
7.406520
 21
2.724920
 12
7.410480
 22
1.912680
 13
7.412680
 23
2.662000
  0
POLYLINE
  8
0
  6
CONTINUOUS
 66
     1
 40
0.000000
 41
0.000000
  0
VERTEX
  8
0
  6
CONTINUOUS
 10
7.404320
 20
1.975600
  0
VERTEX
  8
0
  6
CONTINUOUS
 10
7.406520
 20
2.724920
  0
VERTEX
  8
0
  6
CONTINUOUS
 10
7.412680
 20
2.662000
  0
VERTEX
  8
0
  6
CONTINUOUS
 10
7.410480
 20
1.912680
  0
VERTEX
  8
0
  6
CONTINUOUS
 10
7.404320
 20
1.975600
  0
SEQEND
  8
0
  0
SOLID
  8
0
 62
    15
 10
7.789320
 20
1.726120
 11
7.791080
 21
2.475440
 12
7.789320
 22
1.607320
 13
7.791080
 23
2.356640
  0
POLYLINE
  8
0
  6
CONTINUOUS
 66
     1
 40
0.000000
 41
0.000000
  0
VERTEX
  8
0
  6
CONTINUOUS
 10
7.789320
 20
1.726120
  0
VERTEX
  8
0
  6
CONTINUOUS
 10
7.791080
 20
2.475440
  0
VERTEX
  8
0
  6
CONTINUOUS
 10
7.791080
 20
2.356640
  0
VERTEX
  8
0
  6
CONTINUOUS
 10
7.789320
 20
1.607320
  0
VERTEX
  8
0
  6
CONTINUOUS
 10
7.789320
 20
1.726120
  0
SEQEND
  8
0
  0
SOLID
  8
0
 62
    15
 10
7.411800
 20
1.878800
 11
7.414000
 21
2.628120
 12
7.420600
 22
1.862520
 13
7.422800
 23
2.611840
  0
POLYLINE
  8
0
  6
CONTINUOUS
 66
     1
 40
0.000000
 41
0.000000
  0
VERTEX
  8
0
  6
CONTINUOUS
 10
7.411800
 20
1.878800
  0
VERTEX
  8
0
  6
CONTINUOUS
 10
7.414000
 20
2.628120
  0
VERTEX
  8
0
  6
CONTINUOUS
 10
7.422800
 20
2.611840
  0
VERTEX
  8
0
  6
CONTINUOUS
 10
7.420600
 20
1.862520
  0
VERTEX
  8
0
  6
CONTINUOUS
 10
7.411800
 20
1.878800
  0
SEQEND
  8
0
  0
SOLID
  8
0
 62
     7
 10
7.420600
 20
1.862520
 11
7.422800
 21
2.611840
 12
7.430280
 22
1.858120
 13
7.432480
 23
2.607880
  0
POLYLINE
  8
0
  6
CONTINUOUS
 66
     1
 40
0.000000
 41
0.000000
  0
VERTEX
  8
0
  6
CONTINUOUS
 10
7.420600
 20
1.862520
  0
VERTEX
  8
0
  6
CONTINUOUS
 10
7.422800
 20
2.611840
  0
VERTEX
  8
0
  6
CONTINUOUS
 10
7.432480
 20
2.607880
  0
VERTEX
  8
0
  6
CONTINUOUS
 10
7.430280
 20
1.858120
  0
VERTEX
  8
0
  6
CONTINUOUS
 10
7.420600
 20
1.862520
  0
SEQEND
  8
0
  0
SOLID
  8
0
 62
     7
 10
7.430280
 20
1.858120
 11
7.432480
 21
2.607880
 12
7.444800
 22
1.856360
 13
7.447000
 23
2.605680
  0
POLYLINE
  8
0
  6
CONTINUOUS
 66
     1
 40
0.000000
 41
0.000000
  0
VERTEX
  8
0
  6
CONTINUOUS
 10
7.430280
 20
1.858120
  0
VERTEX
  8
0
  6
CONTINUOUS
 10
7.432480
 20
2.607880
  0
VERTEX
  8
0
  6
CONTINUOUS
 10
7.447000
 20
2.605680
  0
VERTEX
  8
0
  6
CONTINUOUS
 10
7.444800
 20
1.856360
  0
VERTEX
  8
0
  6
CONTINUOUS
 10
7.430280
 20
1.858120
  0
SEQEND
  8
0
  0
SOLID
  8
0
 62
     7
 10
7.444800
 20
1.856360
 11
7.447000
 21
2.605680
 12
7.465040
 22
1.855480
 13
7.466800
 23
2.604800
  0
POLYLINE
  8
0
  6
CONTINUOUS
 66
     1
 40
0.000000
 41
0.000000
  0
VERTEX
  8
0
  6
CONTINUOUS
 10
7.444800
 20
1.856360
  0
VERTEX
  8
0
  6
CONTINUOUS
 10
7.447000
 20
2.605680
  0
VERTEX
  8
0
  6
CONTINUOUS
 10
7.466800
 20
2.604800
  0
VERTEX
  8
0
  6
CONTINUOUS
 10
7.465040
 20
1.855480
  0
VERTEX
  8
0
  6
CONTINUOUS
 10
7.444800
 20
1.856360
  0
SEQEND
  8
0
  0
SOLID
  8
0
 62
     7
 10
7.465040
 20
1.855480
 11
7.466800
 21
2.604800
 12
7.491880
 22
1.855480
 13
7.493640
 23
2.604800
  0
POLYLINE
  8
0
  6
CONTINUOUS
 66
     1
 40
0.000000
 41
0.000000
  0
VERTEX
  8
0
  6
CONTINUOUS
 10
7.465040
 20
1.855480
  0
VERTEX
  8
0
  6
CONTINUOUS
 10
7.466800
 20
2.604800
  0
VERTEX
  8
0
  6
CONTINUOUS
 10
7.493640
 20
2.604800
  0
VERTEX
  8
0
  6
CONTINUOUS
 10
7.491880
 20
1.855480
  0
VERTEX
  8
0
  6
CONTINUOUS
 10
7.465040
 20
1.855480
  0
SEQEND
  8
0
  0
SOLID
  8
0
 62
     7
 10
7.491880
 20
1.855480
 11
7.493640
 21
2.604800
 12
7.512560
 22
1.854600
 13
7.514760
 23
2.603920
  0
POLYLINE
  8
0
  6
CONTINUOUS
 66
     1
 40
0.000000
 41
0.000000
  0
VERTEX
  8
0
  6
CONTINUOUS
 10
7.491880
 20
1.855480
  0
VERTEX
  8
0
  6
CONTINUOUS
 10
7.493640
 20
2.604800
  0
VERTEX
  8
0
  6
CONTINUOUS
 10
7.514760
 20
2.603920
  0
VERTEX
  8
0
  6
CONTINUOUS
 10
7.512560
 20
1.854600
  0
VERTEX
  8
0
  6
CONTINUOUS
 10
7.491880
 20
1.855480
  0
SEQEND
  8
0
  0
SOLID
  8
0
 62
     7
 10
7.512560
 20
1.854600
 11
7.514760
 21
2.603920
 12
7.528400
 22
1.852840
 13
7.530600
 23
2.602160
  0
POLYLINE
  8
0
  6
CONTINUOUS
 66
     1
 40
0.000000
 41
0.000000
  0
VERTEX
  8
0
  6
CONTINUOUS
 10
7.512560
 20
1.854600
  0
VERTEX
  8
0
  6
CONTINUOUS
 10
7.514760
 20
2.603920
  0
VERTEX
  8
0
  6
CONTINUOUS
 10
7.530600
 20
2.602160
  0
VERTEX
  8
0
  6
CONTINUOUS
 10
7.528400
 20
1.852840
  0
VERTEX
  8
0
  6
CONTINUOUS
 10
7.512560
 20
1.854600
  0
SEQEND
  8
0
  0
SOLID
  8
0
 62
     7
 10
7.528400
 20
1.852840
 11
7.530600
 21
2.602160
 12
7.548200
 22
1.845800
 13
7.549960
 23
2.595120
  0
POLYLINE
  8
0
  6
CONTINUOUS
 66
     1
 40
0.000000
 41
0.000000
  0
VERTEX
  8
0
  6
CONTINUOUS
 10
7.528400
 20
1.852840
  0
VERTEX
  8
0
  6
CONTINUOUS
 10
7.530600
 20
2.602160
  0
VERTEX
  8
0
  6
CONTINUOUS
 10
7.549960
 20
2.595120
  0
VERTEX
  8
0
  6
CONTINUOUS
 10
7.548200
 20
1.845800
  0
VERTEX
  8
0
  6
CONTINUOUS
 10
7.528400
 20
1.852840
  0
SEQEND
  8
0
  0
SOLID
  8
0
 62
    15
 10
7.548200
 20
1.845800
 11
7.549960
 21
2.595120
 12
7.555680
 22
1.834360
 13
7.557880
 23
2.583680
  0
POLYLINE
  8
0
  6
CONTINUOUS
 66
     1
 40
0.000000
 41
0.000000
  0
VERTEX
  8
0
  6
CONTINUOUS
 10
7.548200
 20
1.845800
  0
VERTEX
  8
0
  6
CONTINUOUS
 10
7.549960
 20
2.595120
  0
VERTEX
  8
0
  6
CONTINUOUS
 10
7.557880
 20
2.583680
  0
VERTEX
  8
0
  6
CONTINUOUS
 10
7.555680
 20
1.834360
  0
VERTEX
  8
0
  6
CONTINUOUS
 10
7.548200
 20
1.845800
  0
SEQEND
  8
0
  0
SOLID
  8
0
 62
    15
 10
7.555680
 20
1.834360
 11
7.557880
 21
2.583680
 12
7.557000
 22
1.819400
 13
7.559200
 23
2.568720
  0
POLYLINE
  8
0
  6
CONTINUOUS
 66
     1
 40
0.000000
 41
0.000000
  0
VERTEX
  8
0
  6
CONTINUOUS
 10
7.555680
 20
1.834360
  0
VERTEX
  8
0
  6
CONTINUOUS
 10
7.557880
 20
2.583680
  0
VERTEX
  8
0
  6
CONTINUOUS
 10
7.559200
 20
2.568720
  0
VERTEX
  8
0
  6
CONTINUOUS
 10
7.557000
 20
1.819400
  0
VERTEX
  8
0
  6
CONTINUOUS
 10
7.555680
 20
1.834360
  0
SEQEND
  8
0
  0
SOLID
  8
0
 62
    15
 10
7.557000
 20
1.819400
 11
7.559200
 21
2.568720
 12
7.559200
 22
1.809720
 13
7.561400
 23
2.559040
  0
POLYLINE
  8
0
  6
CONTINUOUS
 66
     1
 40
0.000000
 41
0.000000
  0
VERTEX
  8
0
  6
CONTINUOUS
 10
7.557000
 20
1.819400
  0
VERTEX
  8
0
  6
CONTINUOUS
 10
7.559200
 20
2.568720
  0
VERTEX
  8
0
  6
CONTINUOUS
 10
7.561400
 20
2.559040
  0
VERTEX
  8
0
  6
CONTINUOUS
 10
7.559200
 20
1.809720
  0
VERTEX
  8
0
  6
CONTINUOUS
 10
7.557000
 20
1.819400
  0
SEQEND
  8
0
  0
SOLID
  8
0
 62
    15
 10
7.559200
 20
1.809720
 11
7.561400
 21
2.559040
 12
7.566240
 22
1.797400
 13
7.568000
 23
2.546720
  0
POLYLINE
  8
0
  6
CONTINUOUS
 66
     1
 40
0.000000
 41
0.000000
  0
VERTEX
  8
0
  6
CONTINUOUS
 10
7.559200
 20
1.809720
  0
VERTEX
  8
0
  6
CONTINUOUS
 10
7.561400
 20
2.559040
  0
VERTEX
  8
0
  6
CONTINUOUS
 10
7.568000
 20
2.546720
  0
VERTEX
  8
0
  6
CONTINUOUS
 10
7.566240
 20
1.797400
  0
VERTEX
  8
0
  6
CONTINUOUS
 10
7.559200
 20
1.809720
  0
SEQEND
  8
0
  0
SOLID
  8
0
 62
    15
 10
7.566240
 20
1.797400
 11
7.568000
 21
2.546720
 12
7.579000
 22
1.784200
 13
7.581200
 23
2.533520
  0
POLYLINE
  8
0
  6
CONTINUOUS
 66
     1
 40
0.000000
 41
0.000000
  0
VERTEX
  8
0
  6
CONTINUOUS
 10
7.566240
 20
1.797400
  0
VERTEX
  8
0
  6
CONTINUOUS
 10
7.568000
 20
2.546720
  0
VERTEX
  8
0
  6
CONTINUOUS
 10
7.581200
 20
2.533520
  0
VERTEX
  8
0
  6
CONTINUOUS
 10
7.579000
 20
1.784200
  0
VERTEX
  8
0
  6
CONTINUOUS
 10
7.566240
 20
1.797400
  0
SEQEND
  8
0
  0
SOLID
  8
0
 62
     7
 10
7.579000
 20
1.784200
 11
7.581200
 21
2.533520
 12
7.599680
 22
1.770560
 13
7.601880
 23
2.519880
  0
POLYLINE
  8
0
  6
CONTINUOUS
 66
     1
 40
0.000000
 41
0.000000
  0
VERTEX
  8
0
  6
CONTINUOUS
 10
7.579000
 20
1.784200
  0
VERTEX
  8
0
  6
CONTINUOUS
 10
7.581200
 20
2.533520
  0
VERTEX
  8
0
  6
CONTINUOUS
 10
7.601880
 20
2.519880
  0
VERTEX
  8
0
  6
CONTINUOUS
 10
7.599680
 20
1.770560
  0
VERTEX
  8
0
  6
CONTINUOUS
 10
7.579000
 20
1.784200
  0
SEQEND
  8
0
  0
SOLID
  8
0
 62
     7
 10
7.599680
 20
1.770560
 11
7.601880
 21
2.519880
 12
7.629160
 22
1.757800
 13
7.631360
 23
2.507120
  0
POLYLINE
  8
0
  6
CONTINUOUS
 66
     1
 40
0.000000
 41
0.000000
  0
VERTEX
  8
0
  6
CONTINUOUS
 10
7.599680
 20
1.770560
  0
VERTEX
  8
0
  6
CONTINUOUS
 10
7.601880
 20
2.519880
  0
VERTEX
  8
0
  6
CONTINUOUS
 10
7.631360
 20
2.507120
  0
VERTEX
  8
0
  6
CONTINUOUS
 10
7.629160
 20
1.757800
  0
VERTEX
  8
0
  6
CONTINUOUS
 10
7.599680
 20
1.770560
  0
SEQEND
  8
0
  0
SOLID
  8
0
 62
     7
 10
7.629160
 20
1.757800
 11
7.631360
 21
2.507120
 12
7.669200
 22
1.745920
 13
7.670960
 23
2.495240
  0
POLYLINE
  8
0
  6
CONTINUOUS
 66
     1
 40
0.000000
 41
0.000000
  0
VERTEX
  8
0
  6
CONTINUOUS
 10
7.629160
 20
1.757800
  0
VERTEX
  8
0
  6
CONTINUOUS
 10
7.631360
 20
2.507120
  0
VERTEX
  8
0
  6
CONTINUOUS
 10
7.670960
 20
2.495240
  0
VERTEX
  8
0
  6
CONTINUOUS
 10
7.669200
 20
1.745920
  0
VERTEX
  8
0
  6
CONTINUOUS
 10
7.629160
 20
1.757800
  0
SEQEND
  8
0
  0
SOLID
  8
0
 62
     7
 10
7.669200
 20
1.745920
 11
7.670960
 21
2.495240
 12
7.720680
 22
1.736240
 13
7.722880
 23
2.485560
  0
POLYLINE
  8
0
  6
CONTINUOUS
 66
     1
 40
0.000000
 41
0.000000
  0
VERTEX
  8
0
  6
CONTINUOUS
 10
7.669200
 20
1.745920
  0
VERTEX
  8
0
  6
CONTINUOUS
 10
7.670960
 20
2.495240
  0
VERTEX
  8
0
  6
CONTINUOUS
 10
7.722880
 20
2.485560
  0
VERTEX
  8
0
  6
CONTINUOUS
 10
7.720680
 20
1.736240
  0
VERTEX
  8
0
  6
CONTINUOUS
 10
7.669200
 20
1.745920
  0
SEQEND
  8
0
  0
SOLID
  8
0
 62
     7
 10
7.720680
 20
1.736240
 11
7.722880
 21
2.485560
 12
7.785360
 22
1.730080
 13
7.787120
 23
2.479400
  0
POLYLINE
  8
0
  6
CONTINUOUS
 66
     1
 40
0.000000
 41
0.000000
  0
VERTEX
  8
0
  6
CONTINUOUS
 10
7.720680
 20
1.736240
  0
VERTEX
  8
0
  6
CONTINUOUS
 10
7.722880
 20
2.485560
  0
VERTEX
  8
0
  6
CONTINUOUS
 10
7.787120
 20
2.479400
  0
VERTEX
  8
0
  6
CONTINUOUS
 10
7.785360
 20
1.730080
  0
VERTEX
  8
0
  6
CONTINUOUS
 10
7.720680
 20
1.736240
  0
SEQEND
  8
0
  0
SOLID
  8
0
 62
    15
 10
7.785360
 20
1.730080
 11
7.787120
 21
2.479400
 12
7.789320
 22
1.726120
 13
7.791080
 23
2.475440
  0
POLYLINE
  8
0
  6
CONTINUOUS
 66
     1
 40
0.000000
 41
0.000000
  0
VERTEX
  8
0
  6
CONTINUOUS
 10
7.785360
 20
1.730080
  0
VERTEX
  8
0
  6
CONTINUOUS
 10
7.787120
 20
2.479400
  0
VERTEX
  8
0
  6
CONTINUOUS
 10
7.791080
 20
2.475440
  0
VERTEX
  8
0
  6
CONTINUOUS
 10
7.789320
 20
1.726120
  0
VERTEX
  8
0
  6
CONTINUOUS
 10
7.785360
 20
1.730080
  0
SEQEND
  8
0
  0
POLYLINE
  8
0
  6
CONTINUOUS
 66
     1
 40
0.000000
 41
0.000000
  0
VERTEX
  8
0
  6
CONTINUOUS
 10
7.789320
 20
1.726120
  0
VERTEX
  8
0
  6
CONTINUOUS
 10
7.789320
 20
1.607320
  0
VERTEX
  8
0
  6
CONTINUOUS
 10
7.413120
 20
1.607320
  0
VERTEX
  8
0
  6
CONTINUOUS
 10
7.413120
 20
0.846120
  0
VERTEX
  8
0
  6
CONTINUOUS
 10
6.785240
 20
0.846120
  0
VERTEX
  8
0
  6
CONTINUOUS
 10
6.785240
 20
1.900800
  0
VERTEX
  8
0
  6
CONTINUOUS
 10
6.786560
 20
1.904760
  0
VERTEX
  8
0
  6
CONTINUOUS
 10
6.793160
 20
1.968120
  0
VERTEX
  8
0
  6
CONTINUOUS
 10
6.811640
 20
2.027520
  0
VERTEX
  8
0
  6
CONTINUOUS
 10
6.841120
 20
2.081200
  0
VERTEX
  8
0
  6
CONTINUOUS
 10
6.880280
 20
2.128280
  0
VERTEX
  8
0
  6
CONTINUOUS
 10
6.927360
 20
2.167440
  0
VERTEX
  8
0
  6
CONTINUOUS
 10
6.981040
 20
2.196920
  0
VERTEX
  8
0
  6
CONTINUOUS
 10
7.040440
 20
2.215400
  0
VERTEX
  8
0
  6
CONTINUOUS
 10
7.103800
 20
2.222000
  0
VERTEX
  8
0
  6
CONTINUOUS
 10
7.166720
 20
2.215840
  0
VERTEX
  8
0
  6
CONTINUOUS
 10
7.224800
 20
2.198240
  0
VERTEX
  8
0
  6
CONTINUOUS
 10
7.277160
 20
2.170080
  0
VERTEX
  8
0
  6
CONTINUOUS
 10
7.322040
 20
2.132240
  0
VERTEX
  8
0
  6
CONTINUOUS
 10
7.359000
 20
2.086920
  0
VERTEX
  8
0
  6
CONTINUOUS
 10
7.387160
 20
2.034120
  0
VERTEX
  8
0
  6
CONTINUOUS
 10
7.404320
 20
1.975600
  0
VERTEX
  8
0
  6
CONTINUOUS
 10
7.410480
 20
1.912680
  0
VERTEX
  8
0
  6
CONTINUOUS
 10
7.411800
 20
1.878800
  0
VERTEX
  8
0
  6
CONTINUOUS
 10
7.420600
 20
1.862520
  0
VERTEX
  8
0
  6
CONTINUOUS
 10
7.430280
 20
1.858120
  0
VERTEX
  8
0
  6
CONTINUOUS
 10
7.444800
 20
1.856360
  0
VERTEX
  8
0
  6
CONTINUOUS
 10
7.465040
 20
1.855480
  0
VERTEX
  8
0
  6
CONTINUOUS
 10
7.491880
 20
1.855480
  0
VERTEX
  8
0
  6
CONTINUOUS
 10
7.512560
 20
1.854600
  0
VERTEX
  8
0
  6
CONTINUOUS
 10
7.528400
 20
1.852840
  0
VERTEX
  8
0
  6
CONTINUOUS
 10
7.548200
 20
1.845800
  0
VERTEX
  8
0
  6
CONTINUOUS
 10
7.555680
 20
1.834360
  0
VERTEX
  8
0
  6
CONTINUOUS
 10
7.557000
 20
1.819400
  0
VERTEX
  8
0
  6
CONTINUOUS
 10
7.559200
 20
1.809720
  0
VERTEX
  8
0
  6
CONTINUOUS
 10
7.566240
 20
1.797400
  0
VERTEX
  8
0
  6
CONTINUOUS
 10
7.579000
 20
1.784200
  0
VERTEX
  8
0
  6
CONTINUOUS
 10
7.599680
 20
1.770560
  0
VERTEX
  8
0
  6
CONTINUOUS
 10
7.629160
 20
1.757800
  0
VERTEX
  8
0
  6
CONTINUOUS
 10
7.669200
 20
1.745920
  0
VERTEX
  8
0
  6
CONTINUOUS
 10
7.720680
 20
1.736240
  0
VERTEX
  8
0
  6
CONTINUOUS
 10
7.785360
 20
1.730080
  0
VERTEX
  8
0
  6
CONTINUOUS
 10
7.789320
 20
1.726120
  0
SEQEND
  8
0
  0
TEXT
  8
0
 10
6.822640
 20
0.634920
 40
0.138084
  1
BA  278
 41
1.000000
  7
SN0
 71
     0
 72
     5
 11
7.412078
 21
0.634920
  0
TEXT
  8
0
 10
6.735960
 20
0.443520
 40
0.138084
  1
1" x 1-3/8"
 41
1.000000
  7
SN0
 71
     0
 72
     5
 11
7.497430
 21
0.443520
  0
TEXT
  8
0
 10
7.263960
 20
4.359960
 40
0.138084
  1
back band
 41
1.000000
  7
SN0
 71
     0
 72
     5
 11
8.028338
 21
4.359960
  0
TEXT
  8
0
 10
7.508160
 20
4.168120
 40
0.138084
  1
278
 41
1.000000
  7
SN0
 71
     0
 72
     5
 11
7.784699
 21
4.168120
  0
ENDSEC
  0
EOF
