  0
SECTION
  2
HEADER
  9
$ACADVER
  1
AC1006
  9
$EXTMIN
 10
2.260280
 20
0.359920
  9
$EXTMAX
 10
8.073120
 20
3.756280
  9
$LTSCALE
 40
0.044000
  9
$PDMODE
 70
    35
  9
$PDSIZE
 40
0.035200
  0
ENDSEC
  0
SECTION
  2
TABLES
  0
TABLE
  2
LTYPE
 70
     9
  0
LTYPE
  2
CONTINUOUS
 70
    64
  3
Solid line
 72
    65
 73
     0
 40
0.000000
  0
LTYPE
  2
DASHED
 70
    64
  3
__ __ __ __ __ __ __ __ __ __ __ __ __ __ __
 72
    65
 73
     2
 40
0.000330
 49
0.000220
 49
-0.000110
  0
LTYPE
  2
HIDDEN
 70
    64
  3
 _ _ _ _ _ _ _ _ _ _ _ _ _ _ _ _ _ _ _ _ _ _
 72
    65
 73
     2
 40
0.000165
 49
0.000110
 49
-0.000055
  0
LTYPE
  2
CENTER
 70
    64
  3
____ _ ____ _ ____ _ ____ _ ____ _ ____ _ ____
 72
    65
 73
     4
 40
0.000880
 49
0.000550
 49
-0.000110
 49
0.000110
 49
-0.000110
  0
LTYPE
  2
PHANTOM
 70
    64
  3
_____ _ _ _____ _ _ _____ _ _ _____ _ _ ____
 72
    65
 73
     6
 40
0.001100
 49
0.000550
 49
-0.000110
 49
0.000110
 49
-0.000110
 49
0.000110
 49
-0.000110
  0
LTYPE
  2
DOT
 70
    64
  3
...............................................
 72
    65
 73
     2
 40
0.000110
 49
0.000000
 49
-0.000110
  0
LTYPE
  2
DASHDOT
 70
    64
  3
__ . __ . __ . __ . __ . __ . __ . __ . __ . __
 72
    65
 73
     4
 40
0.000440
 49
0.000220
 49
-0.000110
 49
0.000000
 49
-0.000110
  0
LTYPE
  2
BORDER
 70
    64
  3
__ __ . __ __ . __ __ . __ __ . __ __ . __ __
 72
    65
 73
     6
 40
0.000770
 49
0.000220
 49
-0.000110
 49
0.000220
 49
-0.000110
 49
0.000000
 49
-0.000110
  0
LTYPE
  2
DIVIDE
 70
    64
  3
__ . . __ . . __ . . __ . . __ . . __ . . __
 72
    65
 73
     6
 40
0.000550
 49
0.000220
 49
-0.000110
 49
0.000000
 49
-0.000110
 49
0.000000
 49
-0.000110
  0
LTYPE
  2
DOTDOT
 70
    64
  3
 . .  . .  . .  . .  . .  . . 
 72
    65
 73
     5
 40
0.000242
 49
-0.000110
 49
0.000000
 49
-0.000110
 49
0.000000
 49
-0.000110
  0
ENDTAB
  0
TABLE
  2
STYLE
 70
     2
  0
STYLE
 70
     0
  2
SN0
 40
0.000000
 41
0.000440
 50
0.000000
 71
     0
 42
0.000000
  3
ROMAND
  0
STYLE
 70
    68
  2
SV0
 40
0.000000
 41
0.000440
 50
0.000000
 71
     0
 42
0.000000
  3
ROMAND
  0
ENDTAB
  0
TABLE
  2
LAYER
 70
     3
  0
LAYER
  2
FOREGROUND
 70
    64
 62
     7
  6
CONTINUOUS
  0
LAYER
  2
BACKGROUND
 70
    65
 62
    -7
  6
CONTINUOUS
  0
LAYER
  2
0
 70
    64
 62
     7
  6
CONTINUOUS
  0
ENDTAB
  0
ENDSEC
  0
SECTION
  2
ENTITIES
  0
POLYLINE
  8
FOREGROUND
  6
CONTINUOUS
 66
     1
 40
0.000000
 41
0.000000
  0
VERTEX
  8
FOREGROUND
  6
CONTINUOUS
 10
0.000000
 20
4.116200
  0
VERTEX
  8
FOREGROUND
  6
CONTINUOUS
 10
8.499920
 20
4.116200
  0
VERTEX
  8
FOREGROUND
  6
CONTINUOUS
 10
8.499920
 20
-6.883800
  0
VERTEX
  8
FOREGROUND
  6
CONTINUOUS
 10
0.000000
 20
-6.883800
  0
VERTEX
  8
FOREGROUND
  6
CONTINUOUS
 10
0.000000
 20
4.116200
  0
SEQEND
  8
0
  0
POLYLINE
  8
FOREGROUND
  6
CONTINUOUS
 66
     1
 40
0.000000
 41
0.000000
  0
VERTEX
  8
FOREGROUND
  6
CONTINUOUS
 10
0.000000
 20
4.116200
  0
VERTEX
  8
FOREGROUND
  6
CONTINUOUS
 10
8.499920
 20
4.116200
  0
VERTEX
  8
FOREGROUND
  6
CONTINUOUS
 10
8.499920
 20
-6.883800
  0
VERTEX
  8
FOREGROUND
  6
CONTINUOUS
 10
0.000000
 20
-6.883800
  0
VERTEX
  8
FOREGROUND
  6
CONTINUOUS
 10
0.000000
 20
4.116200
  0
SEQEND
  8
0
  0
POLYLINE
  8
0
  6
CONTINUOUS
 66
     1
 40
0.014080
 41
0.014080
  0
VERTEX
  8
0
  6
CONTINUOUS
 10
3.018400
 20
3.523520
  0
VERTEX
  8
0
  6
CONTINUOUS
 10
3.051400
 20
3.520000
  0
VERTEX
  8
0
  6
CONTINUOUS
 10
3.077800
 20
3.511640
  0
VERTEX
  8
0
  6
CONTINUOUS
 10
3.092320
 20
3.504160
  0
VERTEX
  8
0
  6
CONTINUOUS
 10
3.116520
 20
3.485680
  0
VERTEX
  8
0
  6
CONTINUOUS
 10
3.166680
 20
3.435520
  0
VERTEX
  8
0
  6
CONTINUOUS
 10
3.178120
 20
3.427160
  0
VERTEX
  8
0
  6
CONTINUOUS
 10
3.198360
 20
3.417040
  0
VERTEX
  8
0
  6
CONTINUOUS
 10
3.223440
 20
3.411320
  0
VERTEX
  8
0
  6
CONTINUOUS
 10
3.266120
 20
3.409120
  0
VERTEX
  8
0
  6
CONTINUOUS
 10
3.287240
 20
3.406040
  0
VERTEX
  8
0
  6
CONTINUOUS
 10
3.306600
 20
3.401200
  0
VERTEX
  8
0
  6
CONTINUOUS
 10
3.340920
 20
3.387560
  0
VERTEX
  8
0
  6
CONTINUOUS
 10
3.370400
 20
3.369960
  0
VERTEX
  8
0
  6
CONTINUOUS
 10
3.407800
 20
3.340480
  0
VERTEX
  8
0
  6
CONTINUOUS
 10
3.450920
 20
3.304400
  0
VERTEX
  8
0
  6
CONTINUOUS
 10
3.471600
 20
3.292520
  0
VERTEX
  8
0
  6
CONTINUOUS
 10
3.495360
 20
3.284160
  0
VERTEX
  8
0
  6
CONTINUOUS
 10
3.545520
 20
3.274920
  0
VERTEX
  8
0
  6
CONTINUOUS
 10
3.599640
 20
3.268320
  0
VERTEX
  8
0
  6
CONTINUOUS
 10
3.641880
 20
3.260400
  0
VERTEX
  8
0
  6
CONTINUOUS
 10
3.671360
 20
3.251600
  0
VERTEX
  8
0
  6
CONTINUOUS
 10
3.690280
 20
3.244560
  0
VERTEX
  8
0
  6
CONTINUOUS
 10
3.719320
 20
3.226960
  0
VERTEX
  8
0
  6
CONTINUOUS
 10
3.745280
 20
3.207600
  0
VERTEX
  8
0
  6
CONTINUOUS
 10
3.805560
 20
3.158760
  0
VERTEX
  8
0
  6
CONTINUOUS
 10
3.832840
 20
3.142480
  0
VERTEX
  8
0
  6
CONTINUOUS
 10
3.864520
 20
3.130160
  0
VERTEX
  8
0
  6
CONTINUOUS
 10
3.882560
 20
3.126200
  0
VERTEX
  8
0
  6
CONTINUOUS
 10
3.912920
 20
3.122680
  0
VERTEX
  8
0
  6
CONTINUOUS
 10
5.614840
 20
3.122680
  0
VERTEX
  8
0
  6
CONTINUOUS
 10
5.644760
 20
3.125760
  0
VERTEX
  8
0
  6
CONTINUOUS
 10
5.678200
 20
3.134560
  0
VERTEX
  8
0
  6
CONTINUOUS
 10
5.705480
 20
3.147760
  0
VERTEX
  8
0
  6
CONTINUOUS
 10
5.729240
 20
3.164040
  0
VERTEX
  8
0
  6
CONTINUOUS
 10
5.785120
 20
3.210240
  0
VERTEX
  8
0
  6
CONTINUOUS
 10
5.811520
 20
3.228280
  0
VERTEX
  8
0
  6
CONTINUOUS
 10
5.830440
 20
3.237960
  0
VERTEX
  8
0
  6
CONTINUOUS
 10
5.859920
 20
3.248520
  0
VERTEX
  8
0
  6
CONTINUOUS
 10
5.888960
 20
3.255560
  0
VERTEX
  8
0
  6
CONTINUOUS
 10
5.944840
 20
3.263920
  0
VERTEX
  8
0
  6
CONTINUOUS
 10
5.996760
 20
3.270960
  0
VERTEX
  8
0
  6
CONTINUOUS
 10
6.021400
 20
3.276240
  0
VERTEX
  8
0
  6
CONTINUOUS
 10
6.045160
 20
3.284600
  0
VERTEX
  8
0
  6
CONTINUOUS
 10
6.065840
 20
3.296480
  0
VERTEX
  8
0
  6
CONTINUOUS
 10
6.133160
 20
3.352360
  0
VERTEX
  8
0
  6
CONTINUOUS
 10
6.160440
 20
3.371280
  0
VERTEX
  8
0
  6
CONTINUOUS
 10
6.192560
 20
3.387120
  0
VERTEX
  8
0
  6
CONTINUOUS
 10
6.210160
 20
3.393280
  0
VERTEX
  8
0
  6
CONTINUOUS
 10
6.229520
 20
3.398120
  0
VERTEX
  8
0
  6
CONTINUOUS
 10
6.250640
 20
3.401200
  0
VERTEX
  8
0
  6
CONTINUOUS
 10
6.293320
 20
3.403400
  0
VERTEX
  8
0
  6
CONTINUOUS
 10
6.319280
 20
3.410000
  0
VERTEX
  8
0
  6
CONTINUOUS
 10
6.340840
 20
3.420560
  0
VERTEX
  8
0
  6
CONTINUOUS
 10
6.365040
 20
3.439920
  0
VERTEX
  8
0
  6
CONTINUOUS
 10
6.408600
 20
3.484360
  0
VERTEX
  8
0
  6
CONTINUOUS
 10
6.434560
 20
3.504160
  0
VERTEX
  8
0
  6
CONTINUOUS
 10
6.458760
 20
3.515600
  0
VERTEX
  8
0
  6
CONTINUOUS
 10
6.487800
 20
3.522640
  0
VERTEX
  8
0
  6
CONTINUOUS
 10
6.513320
 20
3.524840
  0
VERTEX
  8
0
  6
CONTINUOUS
 10
7.265280
 20
3.524840
  0
VERTEX
  8
0
  6
CONTINUOUS
 10
7.265280
 20
2.775520
  0
VERTEX
  8
0
  6
CONTINUOUS
 10
7.263960
 20
2.772880
  0
VERTEX
  8
0
  6
CONTINUOUS
 10
2.267760
 20
2.772880
  0
VERTEX
  8
0
  6
CONTINUOUS
 10
2.267760
 20
3.523520
  0
VERTEX
  8
0
  6
CONTINUOUS
 10
3.023680
 20
3.523520
  0
VERTEX
  8
0
  6
CONTINUOUS
 10
3.018400
 20
3.523520
  0
SEQEND
  8
0
  0
SOLID
  8
0
 62
    15
 10
6.079040
 20
1.205600
 11
6.083880
 21
1.942600
 12
6.112480
 22
1.214400
 13
6.117320
 23
1.951400
  0
POLYLINE
  8
0
  6
CONTINUOUS
 66
     1
 40
0.000000
 41
0.000000
  0
VERTEX
  8
0
  6
CONTINUOUS
 10
6.079040
 20
1.205600
  0
VERTEX
  8
0
  6
CONTINUOUS
 10
6.083880
 20
1.942600
  0
VERTEX
  8
0
  6
CONTINUOUS
 10
6.117320
 20
1.951400
  0
VERTEX
  8
0
  6
CONTINUOUS
 10
6.112480
 20
1.214400
  0
VERTEX
  8
0
  6
CONTINUOUS
 10
6.079040
 20
1.205600
  0
SEQEND
  8
0
  0
SOLID
  8
0
 62
    15
 10
3.475560
 20
1.601600
 11
3.480400
 21
2.338160
 12
3.495360
 22
1.597640
 13
3.500200
 23
2.334200
  0
POLYLINE
  8
0
  6
CONTINUOUS
 66
     1
 40
0.000000
 41
0.000000
  0
VERTEX
  8
0
  6
CONTINUOUS
 10
3.475560
 20
1.601600
  0
VERTEX
  8
0
  6
CONTINUOUS
 10
3.480400
 20
2.338160
  0
VERTEX
  8
0
  6
CONTINUOUS
 10
3.500200
 20
2.334200
  0
VERTEX
  8
0
  6
CONTINUOUS
 10
3.495360
 20
1.597640
  0
VERTEX
  8
0
  6
CONTINUOUS
 10
3.475560
 20
1.601600
  0
SEQEND
  8
0
  0
SOLID
  8
0
 62
    15
 10
3.495360
 20
1.597640
 11
3.500200
 21
2.334200
 12
3.527040
 22
1.584000
 13
3.531880
 23
2.321000
  0
POLYLINE
  8
0
  6
CONTINUOUS
 66
     1
 40
0.000000
 41
0.000000
  0
VERTEX
  8
0
  6
CONTINUOUS
 10
3.495360
 20
1.597640
  0
VERTEX
  8
0
  6
CONTINUOUS
 10
3.500200
 20
2.334200
  0
VERTEX
  8
0
  6
CONTINUOUS
 10
3.531880
 20
2.321000
  0
VERTEX
  8
0
  6
CONTINUOUS
 10
3.527040
 20
1.584000
  0
VERTEX
  8
0
  6
CONTINUOUS
 10
3.495360
 20
1.597640
  0
SEQEND
  8
0
  0
SOLID
  8
0
 62
    15
 10
3.527040
 20
1.584000
 11
3.531880
 21
2.321000
 12
3.551240
 22
1.565960
 13
3.555640
 23
2.302520
  0
POLYLINE
  8
0
  6
CONTINUOUS
 66
     1
 40
0.000000
 41
0.000000
  0
VERTEX
  8
0
  6
CONTINUOUS
 10
3.527040
 20
1.584000
  0
VERTEX
  8
0
  6
CONTINUOUS
 10
3.531880
 20
2.321000
  0
VERTEX
  8
0
  6
CONTINUOUS
 10
3.555640
 20
2.302520
  0
VERTEX
  8
0
  6
CONTINUOUS
 10
3.551240
 20
1.565960
  0
VERTEX
  8
0
  6
CONTINUOUS
 10
3.527040
 20
1.584000
  0
SEQEND
  8
0
  0
SOLID
  8
0
 62
    15
 10
3.551240
 20
1.565960
 11
3.555640
 21
2.302520
 12
3.571040
 22
1.545280
 13
3.575880
 23
2.282280
  0
POLYLINE
  8
0
  6
CONTINUOUS
 66
     1
 40
0.000000
 41
0.000000
  0
VERTEX
  8
0
  6
CONTINUOUS
 10
3.551240
 20
1.565960
  0
VERTEX
  8
0
  6
CONTINUOUS
 10
3.555640
 20
2.302520
  0
VERTEX
  8
0
  6
CONTINUOUS
 10
3.575880
 20
2.282280
  0
VERTEX
  8
0
  6
CONTINUOUS
 10
3.571040
 20
1.545280
  0
VERTEX
  8
0
  6
CONTINUOUS
 10
3.551240
 20
1.565960
  0
SEQEND
  8
0
  0
SOLID
  8
0
 62
    15
 10
3.571040
 20
1.545280
 11
3.575880
 21
2.282280
 12
3.590400
 22
1.525040
 13
3.595240
 23
2.261600
  0
POLYLINE
  8
0
  6
CONTINUOUS
 66
     1
 40
0.000000
 41
0.000000
  0
VERTEX
  8
0
  6
CONTINUOUS
 10
3.571040
 20
1.545280
  0
VERTEX
  8
0
  6
CONTINUOUS
 10
3.575880
 20
2.282280
  0
VERTEX
  8
0
  6
CONTINUOUS
 10
3.595240
 20
2.261600
  0
VERTEX
  8
0
  6
CONTINUOUS
 10
3.590400
 20
1.525040
  0
VERTEX
  8
0
  6
CONTINUOUS
 10
3.571040
 20
1.545280
  0
SEQEND
  8
0
  0
SOLID
  8
0
 62
    15
 10
3.590400
 20
1.525040
 11
3.595240
 21
2.261600
 12
3.612400
 22
1.507440
 13
3.617240
 23
2.244000
  0
POLYLINE
  8
0
  6
CONTINUOUS
 66
     1
 40
0.000000
 41
0.000000
  0
VERTEX
  8
0
  6
CONTINUOUS
 10
3.590400
 20
1.525040
  0
VERTEX
  8
0
  6
CONTINUOUS
 10
3.595240
 20
2.261600
  0
VERTEX
  8
0
  6
CONTINUOUS
 10
3.617240
 20
2.244000
  0
VERTEX
  8
0
  6
CONTINUOUS
 10
3.612400
 20
1.507440
  0
VERTEX
  8
0
  6
CONTINUOUS
 10
3.590400
 20
1.525040
  0
SEQEND
  8
0
  0
SOLID
  8
0
 62
    15
 10
3.612400
 20
1.507440
 11
3.617240
 21
2.244000
 12
3.640560
 22
1.494680
 13
3.645400
 23
2.231680
  0
POLYLINE
  8
0
  6
CONTINUOUS
 66
     1
 40
0.000000
 41
0.000000
  0
VERTEX
  8
0
  6
CONTINUOUS
 10
3.612400
 20
1.507440
  0
VERTEX
  8
0
  6
CONTINUOUS
 10
3.617240
 20
2.244000
  0
VERTEX
  8
0
  6
CONTINUOUS
 10
3.645400
 20
2.231680
  0
VERTEX
  8
0
  6
CONTINUOUS
 10
3.640560
 20
1.494680
  0
VERTEX
  8
0
  6
CONTINUOUS
 10
3.612400
 20
1.507440
  0
SEQEND
  8
0
  0
SOLID
  8
0
 62
    15
 10
3.640560
 20
1.494680
 11
3.645400
 21
2.231680
 12
3.658160
 22
1.491160
 13
3.663000
 23
2.228160
  0
POLYLINE
  8
0
  6
CONTINUOUS
 66
     1
 40
0.000000
 41
0.000000
  0
VERTEX
  8
0
  6
CONTINUOUS
 10
3.640560
 20
1.494680
  0
VERTEX
  8
0
  6
CONTINUOUS
 10
3.645400
 20
2.231680
  0
VERTEX
  8
0
  6
CONTINUOUS
 10
3.663000
 20
2.228160
  0
VERTEX
  8
0
  6
CONTINUOUS
 10
3.658160
 20
1.491160
  0
VERTEX
  8
0
  6
CONTINUOUS
 10
3.640560
 20
1.494680
  0
SEQEND
  8
0
  0
SOLID
  8
0
 62
    15
 10
3.658160
 20
1.491160
 11
3.663000
 21
2.228160
 12
3.678400
 22
1.490280
 13
3.683240
 23
2.226840
  0
POLYLINE
  8
0
  6
CONTINUOUS
 66
     1
 40
0.000000
 41
0.000000
  0
VERTEX
  8
0
  6
CONTINUOUS
 10
3.658160
 20
1.491160
  0
VERTEX
  8
0
  6
CONTINUOUS
 10
3.663000
 20
2.228160
  0
VERTEX
  8
0
  6
CONTINUOUS
 10
3.683240
 20
2.226840
  0
VERTEX
  8
0
  6
CONTINUOUS
 10
3.678400
 20
1.490280
  0
VERTEX
  8
0
  6
CONTINUOUS
 10
3.658160
 20
1.491160
  0
SEQEND
  8
0
  0
SOLID
  8
0
 62
    15
 10
3.678400
 20
1.490280
 11
3.683240
 21
2.226840
 12
3.721520
 22
1.485880
 13
3.726360
 23
2.222880
  0
POLYLINE
  8
0
  6
CONTINUOUS
 66
     1
 40
0.000000
 41
0.000000
  0
VERTEX
  8
0
  6
CONTINUOUS
 10
3.678400
 20
1.490280
  0
VERTEX
  8
0
  6
CONTINUOUS
 10
3.683240
 20
2.226840
  0
VERTEX
  8
0
  6
CONTINUOUS
 10
3.726360
 20
2.222880
  0
VERTEX
  8
0
  6
CONTINUOUS
 10
3.721520
 20
1.485880
  0
VERTEX
  8
0
  6
CONTINUOUS
 10
3.678400
 20
1.490280
  0
SEQEND
  8
0
  0
SOLID
  8
0
 62
    15
 10
3.721520
 20
1.485880
 11
3.726360
 21
2.222880
 12
3.758920
 22
1.475320
 13
3.763760
 23
2.211880
  0
POLYLINE
  8
0
  6
CONTINUOUS
 66
     1
 40
0.000000
 41
0.000000
  0
VERTEX
  8
0
  6
CONTINUOUS
 10
3.721520
 20
1.485880
  0
VERTEX
  8
0
  6
CONTINUOUS
 10
3.726360
 20
2.222880
  0
VERTEX
  8
0
  6
CONTINUOUS
 10
3.763760
 20
2.211880
  0
VERTEX
  8
0
  6
CONTINUOUS
 10
3.758920
 20
1.475320
  0
VERTEX
  8
0
  6
CONTINUOUS
 10
3.721520
 20
1.485880
  0
SEQEND
  8
0
  0
SOLID
  8
0
 62
    15
 10
3.758920
 20
1.475320
 11
3.763760
 21
2.211880
 12
3.790600
 22
1.459480
 13
3.795440
 23
2.196040
  0
POLYLINE
  8
0
  6
CONTINUOUS
 66
     1
 40
0.000000
 41
0.000000
  0
VERTEX
  8
0
  6
CONTINUOUS
 10
3.758920
 20
1.475320
  0
VERTEX
  8
0
  6
CONTINUOUS
 10
3.763760
 20
2.211880
  0
VERTEX
  8
0
  6
CONTINUOUS
 10
3.795440
 20
2.196040
  0
VERTEX
  8
0
  6
CONTINUOUS
 10
3.790600
 20
1.459480
  0
VERTEX
  8
0
  6
CONTINUOUS
 10
3.758920
 20
1.475320
  0
SEQEND
  8
0
  0
SOLID
  8
0
 62
    15
 10
3.790600
 20
1.459480
 11
3.795440
 21
2.196040
 12
3.818320
 22
1.440560
 13
3.823160
 23
2.177120
  0
POLYLINE
  8
0
  6
CONTINUOUS
 66
     1
 40
0.000000
 41
0.000000
  0
VERTEX
  8
0
  6
CONTINUOUS
 10
3.790600
 20
1.459480
  0
VERTEX
  8
0
  6
CONTINUOUS
 10
3.795440
 20
2.196040
  0
VERTEX
  8
0
  6
CONTINUOUS
 10
3.823160
 20
2.177120
  0
VERTEX
  8
0
  6
CONTINUOUS
 10
3.818320
 20
1.440560
  0
VERTEX
  8
0
  6
CONTINUOUS
 10
3.790600
 20
1.459480
  0
SEQEND
  8
0
  0
SOLID
  8
0
 62
    15
 10
3.818320
 20
1.440560
 11
3.823160
 21
2.177120
 12
3.864520
 22
1.401400
 13
3.869360
 23
2.137960
  0
POLYLINE
  8
0
  6
CONTINUOUS
 66
     1
 40
0.000000
 41
0.000000
  0
VERTEX
  8
0
  6
CONTINUOUS
 10
3.818320
 20
1.440560
  0
VERTEX
  8
0
  6
CONTINUOUS
 10
3.823160
 20
2.177120
  0
VERTEX
  8
0
  6
CONTINUOUS
 10
3.869360
 20
2.137960
  0
VERTEX
  8
0
  6
CONTINUOUS
 10
3.864520
 20
1.401400
  0
VERTEX
  8
0
  6
CONTINUOUS
 10
3.818320
 20
1.440560
  0
SEQEND
  8
0
  0
SOLID
  8
0
 62
    15
 10
3.864520
 20
1.401400
 11
3.869360
 21
2.137960
 12
3.885640
 22
1.384680
 13
3.890480
 23
2.121680
  0
POLYLINE
  8
0
  6
CONTINUOUS
 66
     1
 40
0.000000
 41
0.000000
  0
VERTEX
  8
0
  6
CONTINUOUS
 10
3.864520
 20
1.401400
  0
VERTEX
  8
0
  6
CONTINUOUS
 10
3.869360
 20
2.137960
  0
VERTEX
  8
0
  6
CONTINUOUS
 10
3.890480
 20
2.121680
  0
VERTEX
  8
0
  6
CONTINUOUS
 10
3.885640
 20
1.384680
  0
VERTEX
  8
0
  6
CONTINUOUS
 10
3.864520
 20
1.401400
  0
SEQEND
  8
0
  0
SOLID
  8
0
 62
    15
 10
3.885640
 20
1.384680
 11
3.890480
 21
2.121680
 12
3.906320
 22
1.372800
 13
3.911160
 23
2.109800
  0
POLYLINE
  8
0
  6
CONTINUOUS
 66
     1
 40
0.000000
 41
0.000000
  0
VERTEX
  8
0
  6
CONTINUOUS
 10
3.885640
 20
1.384680
  0
VERTEX
  8
0
  6
CONTINUOUS
 10
3.890480
 20
2.121680
  0
VERTEX
  8
0
  6
CONTINUOUS
 10
3.911160
 20
2.109800
  0
VERTEX
  8
0
  6
CONTINUOUS
 10
3.906320
 20
1.372800
  0
VERTEX
  8
0
  6
CONTINUOUS
 10
3.885640
 20
1.384680
  0
SEQEND
  8
0
  0
SOLID
  8
0
 62
    15
 10
3.906320
 20
1.372800
 11
3.911160
 21
2.109800
 12
3.954280
 22
1.359160
 13
3.959120
 23
2.095720
  0
POLYLINE
  8
0
  6
CONTINUOUS
 66
     1
 40
0.000000
 41
0.000000
  0
VERTEX
  8
0
  6
CONTINUOUS
 10
3.906320
 20
1.372800
  0
VERTEX
  8
0
  6
CONTINUOUS
 10
3.911160
 20
2.109800
  0
VERTEX
  8
0
  6
CONTINUOUS
 10
3.959120
 20
2.095720
  0
VERTEX
  8
0
  6
CONTINUOUS
 10
3.954280
 20
1.359160
  0
VERTEX
  8
0
  6
CONTINUOUS
 10
3.906320
 20
1.372800
  0
SEQEND
  8
0
  0
SOLID
  8
0
 62
    15
 10
3.954280
 20
1.359160
 11
3.959120
 21
2.095720
 12
4.006640
 22
1.352120
 13
4.011480
 23
2.088680
  0
POLYLINE
  8
0
  6
CONTINUOUS
 66
     1
 40
0.000000
 41
0.000000
  0
VERTEX
  8
0
  6
CONTINUOUS
 10
3.954280
 20
1.359160
  0
VERTEX
  8
0
  6
CONTINUOUS
 10
3.959120
 20
2.095720
  0
VERTEX
  8
0
  6
CONTINUOUS
 10
4.011480
 20
2.088680
  0
VERTEX
  8
0
  6
CONTINUOUS
 10
4.006640
 20
1.352120
  0
VERTEX
  8
0
  6
CONTINUOUS
 10
3.954280
 20
1.359160
  0
SEQEND
  8
0
  0
SOLID
  8
0
 62
    15
 10
4.006640
 20
1.352120
 11
4.011480
 21
2.088680
 12
4.062080
 22
1.343760
 13
4.066920
 23
2.080320
  0
POLYLINE
  8
0
  6
CONTINUOUS
 66
     1
 40
0.000000
 41
0.000000
  0
VERTEX
  8
0
  6
CONTINUOUS
 10
4.006640
 20
1.352120
  0
VERTEX
  8
0
  6
CONTINUOUS
 10
4.011480
 20
2.088680
  0
VERTEX
  8
0
  6
CONTINUOUS
 10
4.066920
 20
2.080320
  0
VERTEX
  8
0
  6
CONTINUOUS
 10
4.062080
 20
1.343760
  0
VERTEX
  8
0
  6
CONTINUOUS
 10
4.006640
 20
1.352120
  0
SEQEND
  8
0
  0
SOLID
  8
0
 62
    15
 10
4.062080
 20
1.343760
 11
4.066920
 21
2.080320
 12
4.121040
 22
1.326160
 13
4.125880
 23
2.062720
  0
POLYLINE
  8
0
  6
CONTINUOUS
 66
     1
 40
0.000000
 41
0.000000
  0
VERTEX
  8
0
  6
CONTINUOUS
 10
4.062080
 20
1.343760
  0
VERTEX
  8
0
  6
CONTINUOUS
 10
4.066920
 20
2.080320
  0
VERTEX
  8
0
  6
CONTINUOUS
 10
4.125880
 20
2.062720
  0
VERTEX
  8
0
  6
CONTINUOUS
 10
4.121040
 20
1.326160
  0
VERTEX
  8
0
  6
CONTINUOUS
 10
4.062080
 20
1.343760
  0
SEQEND
  8
0
  0
SOLID
  8
0
 62
    15
 10
4.121040
 20
1.326160
 11
4.125880
 21
2.062720
 12
4.125000
 22
1.324840
 13
4.129840
 23
2.061400
  0
POLYLINE
  8
0
  6
CONTINUOUS
 66
     1
 40
0.000000
 41
0.000000
  0
VERTEX
  8
0
  6
CONTINUOUS
 10
4.121040
 20
1.326160
  0
VERTEX
  8
0
  6
CONTINUOUS
 10
4.125880
 20
2.062720
  0
VERTEX
  8
0
  6
CONTINUOUS
 10
4.129840
 20
2.061400
  0
VERTEX
  8
0
  6
CONTINUOUS
 10
4.125000
 20
1.324840
  0
VERTEX
  8
0
  6
CONTINUOUS
 10
4.121040
 20
1.326160
  0
SEQEND
  8
0
  0
SOLID
  8
0
 62
    15
 10
4.125000
 20
1.324840
 11
4.129840
 21
2.061400
 12
4.154040
 22
1.307240
 13
4.158880
 23
2.044240
  0
POLYLINE
  8
0
  6
CONTINUOUS
 66
     1
 40
0.000000
 41
0.000000
  0
VERTEX
  8
0
  6
CONTINUOUS
 10
4.125000
 20
1.324840
  0
VERTEX
  8
0
  6
CONTINUOUS
 10
4.129840
 20
2.061400
  0
VERTEX
  8
0
  6
CONTINUOUS
 10
4.158880
 20
2.044240
  0
VERTEX
  8
0
  6
CONTINUOUS
 10
4.154040
 20
1.307240
  0
VERTEX
  8
0
  6
CONTINUOUS
 10
4.125000
 20
1.324840
  0
SEQEND
  8
0
  0
SOLID
  8
0
 62
    15
 10
4.154040
 20
1.307240
 11
4.158880
 21
2.044240
 12
4.179560
 22
1.287880
 13
4.184400
 23
2.024440
  0
POLYLINE
  8
0
  6
CONTINUOUS
 66
     1
 40
0.000000
 41
0.000000
  0
VERTEX
  8
0
  6
CONTINUOUS
 10
4.154040
 20
1.307240
  0
VERTEX
  8
0
  6
CONTINUOUS
 10
4.158880
 20
2.044240
  0
VERTEX
  8
0
  6
CONTINUOUS
 10
4.184400
 20
2.024440
  0
VERTEX
  8
0
  6
CONTINUOUS
 10
4.179560
 20
1.287880
  0
VERTEX
  8
0
  6
CONTINUOUS
 10
4.154040
 20
1.307240
  0
SEQEND
  8
0
  0
SOLID
  8
0
 62
    15
 10
4.179560
 20
1.287880
 11
4.184400
 21
2.024440
 12
4.191880
 22
1.277760
 13
4.196720
 23
2.014320
  0
POLYLINE
  8
0
  6
CONTINUOUS
 66
     1
 40
0.000000
 41
0.000000
  0
VERTEX
  8
0
  6
CONTINUOUS
 10
4.179560
 20
1.287880
  0
VERTEX
  8
0
  6
CONTINUOUS
 10
4.184400
 20
2.024440
  0
VERTEX
  8
0
  6
CONTINUOUS
 10
4.196720
 20
2.014320
  0
VERTEX
  8
0
  6
CONTINUOUS
 10
4.191880
 20
1.277760
  0
VERTEX
  8
0
  6
CONTINUOUS
 10
4.179560
 20
1.287880
  0
SEQEND
  8
0
  0
SOLID
  8
0
 62
    15
 10
4.191880
 20
1.277760
 11
4.196720
 21
2.014320
 12
4.203760
 22
1.267640
 13
4.208600
 23
2.004200
  0
POLYLINE
  8
0
  6
CONTINUOUS
 66
     1
 40
0.000000
 41
0.000000
  0
VERTEX
  8
0
  6
CONTINUOUS
 10
4.191880
 20
1.277760
  0
VERTEX
  8
0
  6
CONTINUOUS
 10
4.196720
 20
2.014320
  0
VERTEX
  8
0
  6
CONTINUOUS
 10
4.208600
 20
2.004200
  0
VERTEX
  8
0
  6
CONTINUOUS
 10
4.203760
 20
1.267640
  0
VERTEX
  8
0
  6
CONTINUOUS
 10
4.191880
 20
1.277760
  0
SEQEND
  8
0
  0
SOLID
  8
0
 62
    15
 10
4.203760
 20
1.267640
 11
4.208600
 21
2.004200
 12
4.227520
 22
1.247840
 13
4.232360
 23
1.984840
  0
POLYLINE
  8
0
  6
CONTINUOUS
 66
     1
 40
0.000000
 41
0.000000
  0
VERTEX
  8
0
  6
CONTINUOUS
 10
4.203760
 20
1.267640
  0
VERTEX
  8
0
  6
CONTINUOUS
 10
4.208600
 20
2.004200
  0
VERTEX
  8
0
  6
CONTINUOUS
 10
4.232360
 20
1.984840
  0
VERTEX
  8
0
  6
CONTINUOUS
 10
4.227520
 20
1.247840
  0
VERTEX
  8
0
  6
CONTINUOUS
 10
4.203760
 20
1.267640
  0
SEQEND
  8
0
  0
SOLID
  8
0
 62
    15
 10
4.227520
 20
1.247840
 11
4.232360
 21
1.984840
 12
4.253480
 22
1.230240
 13
4.257880
 23
1.967240
  0
POLYLINE
  8
0
  6
CONTINUOUS
 66
     1
 40
0.000000
 41
0.000000
  0
VERTEX
  8
0
  6
CONTINUOUS
 10
4.227520
 20
1.247840
  0
VERTEX
  8
0
  6
CONTINUOUS
 10
4.232360
 20
1.984840
  0
VERTEX
  8
0
  6
CONTINUOUS
 10
4.257880
 20
1.967240
  0
VERTEX
  8
0
  6
CONTINUOUS
 10
4.253480
 20
1.230240
  0
VERTEX
  8
0
  6
CONTINUOUS
 10
4.227520
 20
1.247840
  0
SEQEND
  8
0
  0
SOLID
  8
0
 62
    15
 10
4.253480
 20
1.230240
 11
4.257880
 21
1.967240
 12
4.282520
 22
1.215720
 13
4.287360
 23
1.952720
  0
POLYLINE
  8
0
  6
CONTINUOUS
 66
     1
 40
0.000000
 41
0.000000
  0
VERTEX
  8
0
  6
CONTINUOUS
 10
4.253480
 20
1.230240
  0
VERTEX
  8
0
  6
CONTINUOUS
 10
4.257880
 20
1.967240
  0
VERTEX
  8
0
  6
CONTINUOUS
 10
4.287360
 20
1.952720
  0
VERTEX
  8
0
  6
CONTINUOUS
 10
4.282520
 20
1.215720
  0
VERTEX
  8
0
  6
CONTINUOUS
 10
4.253480
 20
1.230240
  0
SEQEND
  8
0
  0
SOLID
  8
0
 62
    15
 10
4.282520
 20
1.215720
 11
4.287360
 21
1.952720
 12
4.316840
 22
1.206040
 13
4.321680
 23
1.942600
  0
POLYLINE
  8
0
  6
CONTINUOUS
 66
     1
 40
0.000000
 41
0.000000
  0
VERTEX
  8
0
  6
CONTINUOUS
 10
4.282520
 20
1.215720
  0
VERTEX
  8
0
  6
CONTINUOUS
 10
4.287360
 20
1.952720
  0
VERTEX
  8
0
  6
CONTINUOUS
 10
4.321680
 20
1.942600
  0
VERTEX
  8
0
  6
CONTINUOUS
 10
4.316840
 20
1.206040
  0
VERTEX
  8
0
  6
CONTINUOUS
 10
4.282520
 20
1.215720
  0
SEQEND
  8
0
  0
SOLID
  8
0
 62
    15
 10
4.316840
 20
1.206040
 11
4.321680
 21
1.942600
 12
4.358200
 22
1.202080
 13
4.363040
 23
1.939080
  0
POLYLINE
  8
0
  6
CONTINUOUS
 66
     1
 40
0.000000
 41
0.000000
  0
VERTEX
  8
0
  6
CONTINUOUS
 10
4.316840
 20
1.206040
  0
VERTEX
  8
0
  6
CONTINUOUS
 10
4.321680
 20
1.942600
  0
VERTEX
  8
0
  6
CONTINUOUS
 10
4.363040
 20
1.939080
  0
VERTEX
  8
0
  6
CONTINUOUS
 10
4.358200
 20
1.202080
  0
VERTEX
  8
0
  6
CONTINUOUS
 10
4.316840
 20
1.206040
  0
SEQEND
  8
0
  0
SOLID
  8
0
 62
    15
 10
4.358200
 20
1.202080
 11
4.363040
 21
1.939080
 12
6.036800
 22
1.202080
 13
6.041640
 23
1.939080
  0
POLYLINE
  8
0
  6
CONTINUOUS
 66
     1
 40
0.000000
 41
0.000000
  0
VERTEX
  8
0
  6
CONTINUOUS
 10
4.358200
 20
1.202080
  0
VERTEX
  8
0
  6
CONTINUOUS
 10
4.363040
 20
1.939080
  0
VERTEX
  8
0
  6
CONTINUOUS
 10
6.041640
 20
1.939080
  0
VERTEX
  8
0
  6
CONTINUOUS
 10
6.036800
 20
1.202080
  0
VERTEX
  8
0
  6
CONTINUOUS
 10
4.358200
 20
1.202080
  0
SEQEND
  8
0
  0
SOLID
  8
0
 62
    15
 10
6.036800
 20
1.202080
 11
6.041640
 21
1.939080
 12
6.038120
 22
1.202080
 13
6.042960
 23
1.939080
  0
POLYLINE
  8
0
  6
CONTINUOUS
 66
     1
 40
0.000000
 41
0.000000
  0
VERTEX
  8
0
  6
CONTINUOUS
 10
6.036800
 20
1.202080
  0
VERTEX
  8
0
  6
CONTINUOUS
 10
6.041640
 20
1.939080
  0
VERTEX
  8
0
  6
CONTINUOUS
 10
6.042960
 20
1.939080
  0
VERTEX
  8
0
  6
CONTINUOUS
 10
6.038120
 20
1.202080
  0
VERTEX
  8
0
  6
CONTINUOUS
 10
6.036800
 20
1.202080
  0
SEQEND
  8
0
  0
SOLID
  8
0
 62
    15
 10
6.038120
 20
1.202080
 11
6.042960
 21
1.939080
 12
6.079040
 22
1.205600
 13
6.083880
 23
1.942600
  0
POLYLINE
  8
0
  6
CONTINUOUS
 66
     1
 40
0.000000
 41
0.000000
  0
VERTEX
  8
0
  6
CONTINUOUS
 10
6.038120
 20
1.202080
  0
VERTEX
  8
0
  6
CONTINUOUS
 10
6.042960
 20
1.939080
  0
VERTEX
  8
0
  6
CONTINUOUS
 10
6.083880
 20
1.942600
  0
VERTEX
  8
0
  6
CONTINUOUS
 10
6.079040
 20
1.205600
  0
VERTEX
  8
0
  6
CONTINUOUS
 10
6.038120
 20
1.202080
  0
SEQEND
  8
0
  0
SOLID
  8
0
 62
    15
 10
3.453120
 20
1.603360
 11
3.457960
 21
2.340360
 12
3.475560
 22
1.601600
 13
3.480400
 23
2.338160
  0
POLYLINE
  8
0
  6
CONTINUOUS
 66
     1
 40
0.000000
 41
0.000000
  0
VERTEX
  8
0
  6
CONTINUOUS
 10
3.453120
 20
1.603360
  0
VERTEX
  8
0
  6
CONTINUOUS
 10
3.457960
 20
2.340360
  0
VERTEX
  8
0
  6
CONTINUOUS
 10
3.480400
 20
2.338160
  0
VERTEX
  8
0
  6
CONTINUOUS
 10
3.475560
 20
1.601600
  0
VERTEX
  8
0
  6
CONTINUOUS
 10
3.453120
 20
1.603360
  0
SEQEND
  8
0
  0
SOLID
  8
0
 62
    15
 10
6.112480
 20
1.214400
 11
6.117320
 21
1.951400
 12
6.139760
 22
1.227600
 13
6.144600
 23
1.964600
  0
POLYLINE
  8
0
  6
CONTINUOUS
 66
     1
 40
0.000000
 41
0.000000
  0
VERTEX
  8
0
  6
CONTINUOUS
 10
6.112480
 20
1.214400
  0
VERTEX
  8
0
  6
CONTINUOUS
 10
6.117320
 20
1.951400
  0
VERTEX
  8
0
  6
CONTINUOUS
 10
6.144600
 20
1.964600
  0
VERTEX
  8
0
  6
CONTINUOUS
 10
6.139760
 20
1.227600
  0
VERTEX
  8
0
  6
CONTINUOUS
 10
6.112480
 20
1.214400
  0
SEQEND
  8
0
  0
SOLID
  8
0
 62
    15
 10
6.139760
 20
1.227600
 11
6.144600
 21
1.964600
 12
6.163520
 22
1.243880
 13
6.168360
 23
1.980880
  0
POLYLINE
  8
0
  6
CONTINUOUS
 66
     1
 40
0.000000
 41
0.000000
  0
VERTEX
  8
0
  6
CONTINUOUS
 10
6.139760
 20
1.227600
  0
VERTEX
  8
0
  6
CONTINUOUS
 10
6.144600
 20
1.964600
  0
VERTEX
  8
0
  6
CONTINUOUS
 10
6.168360
 20
1.980880
  0
VERTEX
  8
0
  6
CONTINUOUS
 10
6.163520
 20
1.243880
  0
VERTEX
  8
0
  6
CONTINUOUS
 10
6.139760
 20
1.227600
  0
SEQEND
  8
0
  0
SOLID
  8
0
 62
    15
 10
6.163520
 20
1.243880
 11
6.168360
 21
1.980880
 12
6.185520
 22
1.261920
 13
6.190360
 23
1.998920
  0
POLYLINE
  8
0
  6
CONTINUOUS
 66
     1
 40
0.000000
 41
0.000000
  0
VERTEX
  8
0
  6
CONTINUOUS
 10
6.163520
 20
1.243880
  0
VERTEX
  8
0
  6
CONTINUOUS
 10
6.168360
 20
1.980880
  0
VERTEX
  8
0
  6
CONTINUOUS
 10
6.190360
 20
1.998920
  0
VERTEX
  8
0
  6
CONTINUOUS
 10
6.185520
 20
1.261920
  0
VERTEX
  8
0
  6
CONTINUOUS
 10
6.163520
 20
1.243880
  0
SEQEND
  8
0
  0
SOLID
  8
0
 62
    15
 10
6.185520
 20
1.261920
 11
6.190360
 21
1.998920
 12
6.196520
 22
1.271600
 13
6.201360
 23
2.008160
  0
POLYLINE
  8
0
  6
CONTINUOUS
 66
     1
 40
0.000000
 41
0.000000
  0
VERTEX
  8
0
  6
CONTINUOUS
 10
6.185520
 20
1.261920
  0
VERTEX
  8
0
  6
CONTINUOUS
 10
6.190360
 20
1.998920
  0
VERTEX
  8
0
  6
CONTINUOUS
 10
6.201360
 20
2.008160
  0
VERTEX
  8
0
  6
CONTINUOUS
 10
6.196520
 20
1.271600
  0
VERTEX
  8
0
  6
CONTINUOUS
 10
6.185520
 20
1.261920
  0
SEQEND
  8
0
  0
SOLID
  8
0
 62
    15
 10
6.196520
 20
1.271600
 11
6.201360
 21
2.008160
 12
6.202240
 22
1.276440
 13
6.206640
 23
2.013000
  0
POLYLINE
  8
0
  6
CONTINUOUS
 66
     1
 40
0.000000
 41
0.000000
  0
VERTEX
  8
0
  6
CONTINUOUS
 10
6.196520
 20
1.271600
  0
VERTEX
  8
0
  6
CONTINUOUS
 10
6.201360
 20
2.008160
  0
VERTEX
  8
0
  6
CONTINUOUS
 10
6.206640
 20
2.013000
  0
VERTEX
  8
0
  6
CONTINUOUS
 10
6.202240
 20
1.276440
  0
VERTEX
  8
0
  6
CONTINUOUS
 10
6.196520
 20
1.271600
  0
SEQEND
  8
0
  0
SOLID
  8
0
 62
    15
 10
6.202240
 20
1.276440
 11
6.206640
 21
2.013000
 12
6.207960
 22
1.280840
 13
6.212360
 23
2.017840
  0
POLYLINE
  8
0
  6
CONTINUOUS
 66
     1
 40
0.000000
 41
0.000000
  0
VERTEX
  8
0
  6
CONTINUOUS
 10
6.202240
 20
1.276440
  0
VERTEX
  8
0
  6
CONTINUOUS
 10
6.206640
 20
2.013000
  0
VERTEX
  8
0
  6
CONTINUOUS
 10
6.212360
 20
2.017840
  0
VERTEX
  8
0
  6
CONTINUOUS
 10
6.207960
 20
1.280840
  0
VERTEX
  8
0
  6
CONTINUOUS
 10
6.202240
 20
1.276440
  0
SEQEND
  8
0
  0
SOLID
  8
0
 62
    15
 10
6.207960
 20
1.280840
 11
6.212360
 21
2.017840
 12
6.232160
 22
1.299760
 13
6.237000
 23
2.036320
  0
POLYLINE
  8
0
  6
CONTINUOUS
 66
     1
 40
0.000000
 41
0.000000
  0
VERTEX
  8
0
  6
CONTINUOUS
 10
6.207960
 20
1.280840
  0
VERTEX
  8
0
  6
CONTINUOUS
 10
6.212360
 20
2.017840
  0
VERTEX
  8
0
  6
CONTINUOUS
 10
6.237000
 20
2.036320
  0
VERTEX
  8
0
  6
CONTINUOUS
 10
6.232160
 20
1.299760
  0
VERTEX
  8
0
  6
CONTINUOUS
 10
6.207960
 20
1.280840
  0
SEQEND
  8
0
  0
SOLID
  8
0
 62
    15
 10
6.232160
 20
1.299760
 11
6.237000
 21
2.036320
 12
6.260760
 22
1.316920
 13
6.265600
 23
2.053480
  0
POLYLINE
  8
0
  6
CONTINUOUS
 66
     1
 40
0.000000
 41
0.000000
  0
VERTEX
  8
0
  6
CONTINUOUS
 10
6.232160
 20
1.299760
  0
VERTEX
  8
0
  6
CONTINUOUS
 10
6.237000
 20
2.036320
  0
VERTEX
  8
0
  6
CONTINUOUS
 10
6.265600
 20
2.053480
  0
VERTEX
  8
0
  6
CONTINUOUS
 10
6.260760
 20
1.316920
  0
VERTEX
  8
0
  6
CONTINUOUS
 10
6.232160
 20
1.299760
  0
SEQEND
  8
0
  0
SOLID
  8
0
 62
    15
 10
6.260760
 20
1.316920
 11
6.265600
 21
2.053480
 12
6.265160
 22
1.318240
 13
6.269560
 23
2.054800
  0
POLYLINE
  8
0
  6
CONTINUOUS
 66
     1
 40
0.000000
 41
0.000000
  0
VERTEX
  8
0
  6
CONTINUOUS
 10
6.260760
 20
1.316920
  0
VERTEX
  8
0
  6
CONTINUOUS
 10
6.265600
 20
2.053480
  0
VERTEX
  8
0
  6
CONTINUOUS
 10
6.269560
 20
2.054800
  0
VERTEX
  8
0
  6
CONTINUOUS
 10
6.265160
 20
1.318240
  0
VERTEX
  8
0
  6
CONTINUOUS
 10
6.260760
 20
1.316920
  0
SEQEND
  8
0
  0
SOLID
  8
0
 62
    15
 10
6.265160
 20
1.318240
 11
6.269560
 21
2.054800
 12
6.323680
 22
1.335840
 13
6.328520
 23
2.072400
  0
POLYLINE
  8
0
  6
CONTINUOUS
 66
     1
 40
0.000000
 41
0.000000
  0
VERTEX
  8
0
  6
CONTINUOUS
 10
6.265160
 20
1.318240
  0
VERTEX
  8
0
  6
CONTINUOUS
 10
6.269560
 20
2.054800
  0
VERTEX
  8
0
  6
CONTINUOUS
 10
6.328520
 20
2.072400
  0
VERTEX
  8
0
  6
CONTINUOUS
 10
6.323680
 20
1.335840
  0
VERTEX
  8
0
  6
CONTINUOUS
 10
6.265160
 20
1.318240
  0
SEQEND
  8
0
  0
SOLID
  8
0
 62
    15
 10
6.323680
 20
1.335840
 11
6.328520
 21
2.072400
 12
6.379120
 22
1.343760
 13
6.383960
 23
2.080760
  0
POLYLINE
  8
0
  6
CONTINUOUS
 66
     1
 40
0.000000
 41
0.000000
  0
VERTEX
  8
0
  6
CONTINUOUS
 10
6.323680
 20
1.335840
  0
VERTEX
  8
0
  6
CONTINUOUS
 10
6.328520
 20
2.072400
  0
VERTEX
  8
0
  6
CONTINUOUS
 10
6.383960
 20
2.080760
  0
VERTEX
  8
0
  6
CONTINUOUS
 10
6.379120
 20
1.343760
  0
VERTEX
  8
0
  6
CONTINUOUS
 10
6.323680
 20
1.335840
  0
SEQEND
  8
0
  0
SOLID
  8
0
 62
    15
 10
6.379120
 20
1.343760
 11
6.383960
 21
2.080760
 12
6.392760
 22
1.345520
 13
6.397600
 23
2.082080
  0
POLYLINE
  8
0
  6
CONTINUOUS
 66
     1
 40
0.000000
 41
0.000000
  0
VERTEX
  8
0
  6
CONTINUOUS
 10
6.379120
 20
1.343760
  0
VERTEX
  8
0
  6
CONTINUOUS
 10
6.383960
 20
2.080760
  0
VERTEX
  8
0
  6
CONTINUOUS
 10
6.397600
 20
2.082080
  0
VERTEX
  8
0
  6
CONTINUOUS
 10
6.392760
 20
1.345520
  0
VERTEX
  8
0
  6
CONTINUOUS
 10
6.379120
 20
1.343760
  0
SEQEND
  8
0
  0
SOLID
  8
0
 62
    15
 10
6.392760
 20
1.345520
 11
6.397600
 21
2.082080
 12
6.405960
 22
1.347280
 13
6.410800
 23
2.083840
  0
POLYLINE
  8
0
  6
CONTINUOUS
 66
     1
 40
0.000000
 41
0.000000
  0
VERTEX
  8
0
  6
CONTINUOUS
 10
6.392760
 20
1.345520
  0
VERTEX
  8
0
  6
CONTINUOUS
 10
6.397600
 20
2.082080
  0
VERTEX
  8
0
  6
CONTINUOUS
 10
6.410800
 20
2.083840
  0
VERTEX
  8
0
  6
CONTINUOUS
 10
6.405960
 20
1.347280
  0
VERTEX
  8
0
  6
CONTINUOUS
 10
6.392760
 20
1.345520
  0
SEQEND
  8
0
  0
SOLID
  8
0
 62
    15
 10
6.405960
 20
1.347280
 11
6.410800
 21
2.083840
 12
6.431480
 22
1.350800
 13
6.436320
 23
2.087800
  0
POLYLINE
  8
0
  6
CONTINUOUS
 66
     1
 40
0.000000
 41
0.000000
  0
VERTEX
  8
0
  6
CONTINUOUS
 10
6.405960
 20
1.347280
  0
VERTEX
  8
0
  6
CONTINUOUS
 10
6.410800
 20
2.083840
  0
VERTEX
  8
0
  6
CONTINUOUS
 10
6.436320
 20
2.087800
  0
VERTEX
  8
0
  6
CONTINUOUS
 10
6.431480
 20
1.350800
  0
VERTEX
  8
0
  6
CONTINUOUS
 10
6.405960
 20
1.347280
  0
SEQEND
  8
0
  0
SOLID
  8
0
 62
    15
 10
6.431480
 20
1.350800
 11
6.436320
 21
2.087800
 12
6.479440
 22
1.364880
 13
6.484280
 23
2.101440
  0
POLYLINE
  8
0
  6
CONTINUOUS
 66
     1
 40
0.000000
 41
0.000000
  0
VERTEX
  8
0
  6
CONTINUOUS
 10
6.431480
 20
1.350800
  0
VERTEX
  8
0
  6
CONTINUOUS
 10
6.436320
 20
2.087800
  0
VERTEX
  8
0
  6
CONTINUOUS
 10
6.484280
 20
2.101440
  0
VERTEX
  8
0
  6
CONTINUOUS
 10
6.479440
 20
1.364880
  0
VERTEX
  8
0
  6
CONTINUOUS
 10
6.431480
 20
1.350800
  0
SEQEND
  8
0
  0
SOLID
  8
0
 62
    15
 10
6.479440
 20
1.364880
 11
6.484280
 21
2.101440
 12
6.500120
 22
1.376760
 13
6.504960
 23
2.113760
  0
POLYLINE
  8
0
  6
CONTINUOUS
 66
     1
 40
0.000000
 41
0.000000
  0
VERTEX
  8
0
  6
CONTINUOUS
 10
6.479440
 20
1.364880
  0
VERTEX
  8
0
  6
CONTINUOUS
 10
6.484280
 20
2.101440
  0
VERTEX
  8
0
  6
CONTINUOUS
 10
6.504960
 20
2.113760
  0
VERTEX
  8
0
  6
CONTINUOUS
 10
6.500120
 20
1.376760
  0
VERTEX
  8
0
  6
CONTINUOUS
 10
6.479440
 20
1.364880
  0
SEQEND
  8
0
  0
SOLID
  8
0
 62
    15
 10
6.500120
 20
1.376760
 11
6.504960
 21
2.113760
 12
6.521240
 22
1.393040
 13
6.526080
 23
2.130040
  0
POLYLINE
  8
0
  6
CONTINUOUS
 66
     1
 40
0.000000
 41
0.000000
  0
VERTEX
  8
0
  6
CONTINUOUS
 10
6.500120
 20
1.376760
  0
VERTEX
  8
0
  6
CONTINUOUS
 10
6.504960
 20
2.113760
  0
VERTEX
  8
0
  6
CONTINUOUS
 10
6.526080
 20
2.130040
  0
VERTEX
  8
0
  6
CONTINUOUS
 10
6.521240
 20
1.393040
  0
VERTEX
  8
0
  6
CONTINUOUS
 10
6.500120
 20
1.376760
  0
SEQEND
  8
0
  0
SOLID
  8
0
 62
    15
 10
6.521240
 20
1.393040
 11
6.526080
 21
2.130040
 12
6.567440
 22
1.432640
 13
6.572280
 23
2.169200
  0
POLYLINE
  8
0
  6
CONTINUOUS
 66
     1
 40
0.000000
 41
0.000000
  0
VERTEX
  8
0
  6
CONTINUOUS
 10
6.521240
 20
1.393040
  0
VERTEX
  8
0
  6
CONTINUOUS
 10
6.526080
 20
2.130040
  0
VERTEX
  8
0
  6
CONTINUOUS
 10
6.572280
 20
2.169200
  0
VERTEX
  8
0
  6
CONTINUOUS
 10
6.567440
 20
1.432640
  0
VERTEX
  8
0
  6
CONTINUOUS
 10
6.521240
 20
1.393040
  0
SEQEND
  8
0
  0
SOLID
  8
0
 62
    15
 10
6.567440
 20
1.432640
 11
6.572280
 21
2.169200
 12
6.595160
 22
1.451560
 13
6.600000
 23
2.188120
  0
POLYLINE
  8
0
  6
CONTINUOUS
 66
     1
 40
0.000000
 41
0.000000
  0
VERTEX
  8
0
  6
CONTINUOUS
 10
6.567440
 20
1.432640
  0
VERTEX
  8
0
  6
CONTINUOUS
 10
6.572280
 20
2.169200
  0
VERTEX
  8
0
  6
CONTINUOUS
 10
6.600000
 20
2.188120
  0
VERTEX
  8
0
  6
CONTINUOUS
 10
6.595160
 20
1.451560
  0
VERTEX
  8
0
  6
CONTINUOUS
 10
6.567440
 20
1.432640
  0
SEQEND
  8
0
  0
SOLID
  8
0
 62
    15
 10
6.595160
 20
1.451560
 11
6.600000
 21
2.188120
 12
6.626840
 22
1.467400
 13
6.631680
 23
2.203960
  0
POLYLINE
  8
0
  6
CONTINUOUS
 66
     1
 40
0.000000
 41
0.000000
  0
VERTEX
  8
0
  6
CONTINUOUS
 10
6.595160
 20
1.451560
  0
VERTEX
  8
0
  6
CONTINUOUS
 10
6.600000
 20
2.188120
  0
VERTEX
  8
0
  6
CONTINUOUS
 10
6.631680
 20
2.203960
  0
VERTEX
  8
0
  6
CONTINUOUS
 10
6.626840
 20
1.467400
  0
VERTEX
  8
0
  6
CONTINUOUS
 10
6.595160
 20
1.451560
  0
SEQEND
  8
0
  0
SOLID
  8
0
 62
    15
 10
6.626840
 20
1.467400
 11
6.631680
 21
2.203960
 12
6.664240
 22
1.477960
 13
6.669080
 23
2.214960
  0
POLYLINE
  8
0
  6
CONTINUOUS
 66
     1
 40
0.000000
 41
0.000000
  0
VERTEX
  8
0
  6
CONTINUOUS
 10
6.626840
 20
1.467400
  0
VERTEX
  8
0
  6
CONTINUOUS
 10
6.631680
 20
2.203960
  0
VERTEX
  8
0
  6
CONTINUOUS
 10
6.669080
 20
2.214960
  0
VERTEX
  8
0
  6
CONTINUOUS
 10
6.664240
 20
1.477960
  0
VERTEX
  8
0
  6
CONTINUOUS
 10
6.626840
 20
1.467400
  0
SEQEND
  8
0
  0
SOLID
  8
0
 62
    15
 10
6.664240
 20
1.477960
 11
6.669080
 21
2.214960
 12
6.707800
 22
1.481920
 13
6.712200
 23
2.218920
  0
POLYLINE
  8
0
  6
CONTINUOUS
 66
     1
 40
0.000000
 41
0.000000
  0
VERTEX
  8
0
  6
CONTINUOUS
 10
6.664240
 20
1.477960
  0
VERTEX
  8
0
  6
CONTINUOUS
 10
6.669080
 20
2.214960
  0
VERTEX
  8
0
  6
CONTINUOUS
 10
6.712200
 20
2.218920
  0
VERTEX
  8
0
  6
CONTINUOUS
 10
6.707800
 20
1.481920
  0
VERTEX
  8
0
  6
CONTINUOUS
 10
6.664240
 20
1.477960
  0
SEQEND
  8
0
  0
SOLID
  8
0
 62
    15
 10
6.707800
 20
1.481920
 11
6.712200
 21
2.218920
 12
6.745640
 22
1.487200
 13
6.750480
 23
2.224200
  0
POLYLINE
  8
0
  6
CONTINUOUS
 66
     1
 40
0.000000
 41
0.000000
  0
VERTEX
  8
0
  6
CONTINUOUS
 10
6.707800
 20
1.481920
  0
VERTEX
  8
0
  6
CONTINUOUS
 10
6.712200
 20
2.218920
  0
VERTEX
  8
0
  6
CONTINUOUS
 10
6.750480
 20
2.224200
  0
VERTEX
  8
0
  6
CONTINUOUS
 10
6.745640
 20
1.487200
  0
VERTEX
  8
0
  6
CONTINUOUS
 10
6.707800
 20
1.481920
  0
SEQEND
  8
0
  0
SOLID
  8
0
 62
    15
 10
6.745640
 20
1.487200
 11
6.750480
 21
2.224200
 12
6.775120
 22
1.500840
 13
6.779960
 23
2.237400
  0
POLYLINE
  8
0
  6
CONTINUOUS
 66
     1
 40
0.000000
 41
0.000000
  0
VERTEX
  8
0
  6
CONTINUOUS
 10
6.745640
 20
1.487200
  0
VERTEX
  8
0
  6
CONTINUOUS
 10
6.750480
 20
2.224200
  0
VERTEX
  8
0
  6
CONTINUOUS
 10
6.779960
 20
2.237400
  0
VERTEX
  8
0
  6
CONTINUOUS
 10
6.775120
 20
1.500840
  0
VERTEX
  8
0
  6
CONTINUOUS
 10
6.745640
 20
1.487200
  0
SEQEND
  8
0
  0
SOLID
  8
0
 62
    15
 10
6.775120
 20
1.500840
 11
6.779960
 21
2.237400
 12
6.799320
 22
1.519760
 13
6.803720
 23
2.256760
  0
POLYLINE
  8
0
  6
CONTINUOUS
 66
     1
 40
0.000000
 41
0.000000
  0
VERTEX
  8
0
  6
CONTINUOUS
 10
6.775120
 20
1.500840
  0
VERTEX
  8
0
  6
CONTINUOUS
 10
6.779960
 20
2.237400
  0
VERTEX
  8
0
  6
CONTINUOUS
 10
6.803720
 20
2.256760
  0
VERTEX
  8
0
  6
CONTINUOUS
 10
6.799320
 20
1.519760
  0
VERTEX
  8
0
  6
CONTINUOUS
 10
6.775120
 20
1.500840
  0
SEQEND
  8
0
  0
SOLID
  8
0
 62
    15
 10
6.799320
 20
1.519760
 11
6.803720
 21
2.256760
 12
6.820880
 22
1.541760
 13
6.825720
 23
2.278760
  0
POLYLINE
  8
0
  6
CONTINUOUS
 66
     1
 40
0.000000
 41
0.000000
  0
VERTEX
  8
0
  6
CONTINUOUS
 10
6.799320
 20
1.519760
  0
VERTEX
  8
0
  6
CONTINUOUS
 10
6.803720
 20
2.256760
  0
VERTEX
  8
0
  6
CONTINUOUS
 10
6.825720
 20
2.278760
  0
VERTEX
  8
0
  6
CONTINUOUS
 10
6.820880
 20
1.541760
  0
VERTEX
  8
0
  6
CONTINUOUS
 10
6.799320
 20
1.519760
  0
SEQEND
  8
0
  0
SOLID
  8
0
 62
    15
 10
6.820880
 20
1.541760
 11
6.825720
 21
2.278760
 12
6.842880
 22
1.564200
 13
6.847720
 23
2.301200
  0
POLYLINE
  8
0
  6
CONTINUOUS
 66
     1
 40
0.000000
 41
0.000000
  0
VERTEX
  8
0
  6
CONTINUOUS
 10
6.820880
 20
1.541760
  0
VERTEX
  8
0
  6
CONTINUOUS
 10
6.825720
 20
2.278760
  0
VERTEX
  8
0
  6
CONTINUOUS
 10
6.847720
 20
2.301200
  0
VERTEX
  8
0
  6
CONTINUOUS
 10
6.842880
 20
1.564200
  0
VERTEX
  8
0
  6
CONTINUOUS
 10
6.820880
 20
1.541760
  0
SEQEND
  8
0
  0
SOLID
  8
0
 62
    15
 10
6.842880
 20
1.564200
 11
6.847720
 21
2.301200
 12
6.868840
 22
1.584000
 13
6.873680
 23
2.320560
  0
POLYLINE
  8
0
  6
CONTINUOUS
 66
     1
 40
0.000000
 41
0.000000
  0
VERTEX
  8
0
  6
CONTINUOUS
 10
6.842880
 20
1.564200
  0
VERTEX
  8
0
  6
CONTINUOUS
 10
6.847720
 20
2.301200
  0
VERTEX
  8
0
  6
CONTINUOUS
 10
6.873680
 20
2.320560
  0
VERTEX
  8
0
  6
CONTINUOUS
 10
6.868840
 20
1.584000
  0
VERTEX
  8
0
  6
CONTINUOUS
 10
6.842880
 20
1.564200
  0
SEQEND
  8
0
  0
SOLID
  8
0
 62
    15
 10
6.868840
 20
1.584000
 11
6.873680
 21
2.320560
 12
6.901840
 22
1.598520
 13
6.906680
 23
2.335080
  0
POLYLINE
  8
0
  6
CONTINUOUS
 66
     1
 40
0.000000
 41
0.000000
  0
VERTEX
  8
0
  6
CONTINUOUS
 10
6.868840
 20
1.584000
  0
VERTEX
  8
0
  6
CONTINUOUS
 10
6.873680
 20
2.320560
  0
VERTEX
  8
0
  6
CONTINUOUS
 10
6.906680
 20
2.335080
  0
VERTEX
  8
0
  6
CONTINUOUS
 10
6.901840
 20
1.598520
  0
VERTEX
  8
0
  6
CONTINUOUS
 10
6.868840
 20
1.584000
  0
SEQEND
  8
0
  0
SOLID
  8
0
 62
    15
 10
6.901840
 20
1.598520
 11
6.906680
 21
2.335080
 12
6.922080
 22
1.602920
 13
6.926920
 23
2.339480
  0
POLYLINE
  8
0
  6
CONTINUOUS
 66
     1
 40
0.000000
 41
0.000000
  0
VERTEX
  8
0
  6
CONTINUOUS
 10
6.901840
 20
1.598520
  0
VERTEX
  8
0
  6
CONTINUOUS
 10
6.906680
 20
2.335080
  0
VERTEX
  8
0
  6
CONTINUOUS
 10
6.926920
 20
2.339480
  0
VERTEX
  8
0
  6
CONTINUOUS
 10
6.922080
 20
1.602920
  0
VERTEX
  8
0
  6
CONTINUOUS
 10
6.901840
 20
1.598520
  0
SEQEND
  8
0
  0
SOLID
  8
0
 62
    15
 10
6.922080
 20
1.602920
 11
6.926920
 21
2.339480
 12
6.944960
 22
1.604680
 13
6.949800
 23
2.341680
  0
POLYLINE
  8
0
  6
CONTINUOUS
 66
     1
 40
0.000000
 41
0.000000
  0
VERTEX
  8
0
  6
CONTINUOUS
 10
6.922080
 20
1.602920
  0
VERTEX
  8
0
  6
CONTINUOUS
 10
6.926920
 20
2.339480
  0
VERTEX
  8
0
  6
CONTINUOUS
 10
6.949800
 20
2.341680
  0
VERTEX
  8
0
  6
CONTINUOUS
 10
6.944960
 20
1.604680
  0
VERTEX
  8
0
  6
CONTINUOUS
 10
6.922080
 20
1.602920
  0
SEQEND
  8
0
  0
SOLID
  8
0
 62
    15
 10
7.699560
 20
1.604680
 11
7.704400
 21
2.341680
 12
7.699560
 22
0.855360
 13
7.704400
 23
1.592360
  0
POLYLINE
  8
0
  6
CONTINUOUS
 66
     1
 40
0.000000
 41
0.000000
  0
VERTEX
  8
0
  6
CONTINUOUS
 10
7.699560
 20
1.604680
  0
VERTEX
  8
0
  6
CONTINUOUS
 10
7.704400
 20
2.341680
  0
VERTEX
  8
0
  6
CONTINUOUS
 10
7.704400
 20
1.592360
  0
VERTEX
  8
0
  6
CONTINUOUS
 10
7.699560
 20
0.855360
  0
VERTEX
  8
0
  6
CONTINUOUS
 10
7.699560
 20
1.604680
  0
SEQEND
  8
0
  0
SOLID
  8
0
 62
    15
 10
6.944960
 20
1.604680
 11
6.949800
 21
2.341680
 12
7.699560
 22
1.604680
 13
7.704400
 23
2.341680
  0
POLYLINE
  8
0
  6
CONTINUOUS
 66
     1
 40
0.000000
 41
0.000000
  0
VERTEX
  8
0
  6
CONTINUOUS
 10
6.944960
 20
1.604680
  0
VERTEX
  8
0
  6
CONTINUOUS
 10
6.949800
 20
2.341680
  0
VERTEX
  8
0
  6
CONTINUOUS
 10
7.704400
 20
2.341680
  0
VERTEX
  8
0
  6
CONTINUOUS
 10
7.699560
 20
1.604680
  0
VERTEX
  8
0
  6
CONTINUOUS
 10
6.944960
 20
1.604680
  0
SEQEND
  8
0
  0
SOLID
  8
0
 62
    15
 10
2.702480
 20
1.603360
 11
2.706880
 21
2.340360
 12
3.458400
 22
1.603360
 13
3.463240
 23
2.340360
  0
POLYLINE
  8
0
  6
CONTINUOUS
 66
     1
 40
0.000000
 41
0.000000
  0
VERTEX
  8
0
  6
CONTINUOUS
 10
2.702480
 20
1.603360
  0
VERTEX
  8
0
  6
CONTINUOUS
 10
2.706880
 20
2.340360
  0
VERTEX
  8
0
  6
CONTINUOUS
 10
3.463240
 20
2.340360
  0
VERTEX
  8
0
  6
CONTINUOUS
 10
3.458400
 20
1.603360
  0
VERTEX
  8
0
  6
CONTINUOUS
 10
2.702480
 20
1.603360
  0
SEQEND
  8
0
  0
POLYLINE
  8
0
  6
CONTINUOUS
 66
     1
 40
0.000000
 41
0.000000
  0
VERTEX
  8
0
  6
CONTINUOUS
 10
3.453120
 20
1.603360
  0
VERTEX
  8
0
  6
CONTINUOUS
 10
3.475560
 20
1.601600
  0
VERTEX
  8
0
  6
CONTINUOUS
 10
3.495360
 20
1.597640
  0
VERTEX
  8
0
  6
CONTINUOUS
 10
3.527040
 20
1.584000
  0
VERTEX
  8
0
  6
CONTINUOUS
 10
3.551240
 20
1.565960
  0
VERTEX
  8
0
  6
CONTINUOUS
 10
3.590400
 20
1.525040
  0
VERTEX
  8
0
  6
CONTINUOUS
 10
3.612400
 20
1.507440
  0
VERTEX
  8
0
  6
CONTINUOUS
 10
3.640560
 20
1.494680
  0
VERTEX
  8
0
  6
CONTINUOUS
 10
3.658160
 20
1.491160
  0
VERTEX
  8
0
  6
CONTINUOUS
 10
3.678400
 20
1.490280
  0
VERTEX
  8
0
  6
CONTINUOUS
 10
3.721520
 20
1.485880
  0
VERTEX
  8
0
  6
CONTINUOUS
 10
3.758920
 20
1.475320
  0
VERTEX
  8
0
  6
CONTINUOUS
 10
3.790600
 20
1.459480
  0
VERTEX
  8
0
  6
CONTINUOUS
 10
3.818320
 20
1.440560
  0
VERTEX
  8
0
  6
CONTINUOUS
 10
3.885640
 20
1.384680
  0
VERTEX
  8
0
  6
CONTINUOUS
 10
3.906320
 20
1.372800
  0
VERTEX
  8
0
  6
CONTINUOUS
 10
3.954280
 20
1.359160
  0
VERTEX
  8
0
  6
CONTINUOUS
 10
4.062080
 20
1.343760
  0
VERTEX
  8
0
  6
CONTINUOUS
 10
4.125000
 20
1.324840
  0
VERTEX
  8
0
  6
CONTINUOUS
 10
4.154040
 20
1.307240
  0
VERTEX
  8
0
  6
CONTINUOUS
 10
4.203760
 20
1.267640
  0
VERTEX
  8
0
  6
CONTINUOUS
 10
4.227520
 20
1.247840
  0
VERTEX
  8
0
  6
CONTINUOUS
 10
4.253480
 20
1.230240
  0
VERTEX
  8
0
  6
CONTINUOUS
 10
4.282520
 20
1.215720
  0
VERTEX
  8
0
  6
CONTINUOUS
 10
4.316840
 20
1.206040
  0
VERTEX
  8
0
  6
CONTINUOUS
 10
4.358200
 20
1.202080
  0
VERTEX
  8
0
  6
CONTINUOUS
 10
6.038120
 20
1.202080
  0
VERTEX
  8
0
  6
CONTINUOUS
 10
6.079040
 20
1.205600
  0
VERTEX
  8
0
  6
CONTINUOUS
 10
6.112480
 20
1.214400
  0
VERTEX
  8
0
  6
CONTINUOUS
 10
6.139760
 20
1.227600
  0
VERTEX
  8
0
  6
CONTINUOUS
 10
6.163520
 20
1.243880
  0
VERTEX
  8
0
  6
CONTINUOUS
 10
6.232160
 20
1.299760
  0
VERTEX
  8
0
  6
CONTINUOUS
 10
6.260760
 20
1.316920
  0
VERTEX
  8
0
  6
CONTINUOUS
 10
6.323680
 20
1.335840
  0
VERTEX
  8
0
  6
CONTINUOUS
 10
6.431480
 20
1.350800
  0
VERTEX
  8
0
  6
CONTINUOUS
 10
6.479440
 20
1.364880
  0
VERTEX
  8
0
  6
CONTINUOUS
 10
6.500120
 20
1.376760
  0
VERTEX
  8
0
  6
CONTINUOUS
 10
6.521240
 20
1.393040
  0
VERTEX
  8
0
  6
CONTINUOUS
 10
6.567440
 20
1.432640
  0
VERTEX
  8
0
  6
CONTINUOUS
 10
6.595160
 20
1.451560
  0
VERTEX
  8
0
  6
CONTINUOUS
 10
6.626840
 20
1.467400
  0
VERTEX
  8
0
  6
CONTINUOUS
 10
6.664240
 20
1.477960
  0
VERTEX
  8
0
  6
CONTINUOUS
 10
6.707800
 20
1.481920
  0
VERTEX
  8
0
  6
CONTINUOUS
 10
6.745640
 20
1.487200
  0
VERTEX
  8
0
  6
CONTINUOUS
 10
6.775120
 20
1.500840
  0
VERTEX
  8
0
  6
CONTINUOUS
 10
6.799320
 20
1.519760
  0
VERTEX
  8
0
  6
CONTINUOUS
 10
6.842880
 20
1.564200
  0
VERTEX
  8
0
  6
CONTINUOUS
 10
6.868840
 20
1.584000
  0
VERTEX
  8
0
  6
CONTINUOUS
 10
6.901840
 20
1.598520
  0
VERTEX
  8
0
  6
CONTINUOUS
 10
6.922080
 20
1.602920
  0
VERTEX
  8
0
  6
CONTINUOUS
 10
6.944960
 20
1.604680
  0
VERTEX
  8
0
  6
CONTINUOUS
 10
7.699560
 20
1.604680
  0
VERTEX
  8
0
  6
CONTINUOUS
 10
7.699560
 20
0.855360
  0
VERTEX
  8
0
  6
CONTINUOUS
 10
7.698240
 20
0.852720
  0
VERTEX
  8
0
  6
CONTINUOUS
 10
2.702480
 20
0.852720
  0
VERTEX
  8
0
  6
CONTINUOUS
 10
2.702480
 20
1.603360
  0
VERTEX
  8
0
  6
CONTINUOUS
 10
3.458400
 20
1.603360
  0
VERTEX
  8
0
  6
CONTINUOUS
 10
3.453120
 20
1.603360
  0
SEQEND
  8
0
  0
TEXT
  8
0
 10
4.907320
 20
0.595760
 40
0.138278
  1
BA  277
 41
1.000000
  7
SN0
 71
     0
 72
     5
 11
5.498195
 21
0.595760
  0
TEXT
  8
0
 10
4.894560
 20
0.404360
 40
0.138278
  1
3/4" x 5"
 41
1.000000
  7
SN0
 71
     0
 72
     5
 11
5.510430
 21
0.404360
  0
TEXT
  8
0
 10
7.722000
 20
3.604480
 40
0.138278
  1
case
 41
1.000000
  7
SN0
 71
     0
 72
     5
 11
8.073386
 21
3.604480
  0
TEXT
  8
0
 10
7.758960
 20
3.413080
 40
0.138278
  1
277
 41
1.000000
  7
SN0
 71
     0
 72
     5
 11
8.036523
 21
3.413080
  0
ENDSEC
  0
EOF
