  0
SECTION
  2
HEADER
  9
$ACADVER
  1
AC1006
  9
$EXTMIN
 10
1.860760
 20
0.339240
  9
$EXTMAX
 10
8.077520
 20
6.164840
  9
$LTSCALE
 40
0.044000
  9
$PDMODE
 70
    35
  9
$PDSIZE
 40
0.035200
  0
ENDSEC
  0
SECTION
  2
TABLES
  0
TABLE
  2
LTYPE
 70
     9
  0
LTYPE
  2
CONTINUOUS
 70
    64
  3
Solid line
 72
    65
 73
     0
 40
0.000000
  0
LTYPE
  2
DASHED
 70
    64
  3
__ __ __ __ __ __ __ __ __ __ __ __ __ __ __
 72
    65
 73
     2
 40
0.000330
 49
0.000220
 49
-0.000110
  0
LTYPE
  2
HIDDEN
 70
    64
  3
 _ _ _ _ _ _ _ _ _ _ _ _ _ _ _ _ _ _ _ _ _ _
 72
    65
 73
     2
 40
0.000165
 49
0.000110
 49
-0.000055
  0
LTYPE
  2
CENTER
 70
    64
  3
____ _ ____ _ ____ _ ____ _ ____ _ ____ _ ____
 72
    65
 73
     4
 40
0.000880
 49
0.000550
 49
-0.000110
 49
0.000110
 49
-0.000110
  0
LTYPE
  2
PHANTOM
 70
    64
  3
_____ _ _ _____ _ _ _____ _ _ _____ _ _ ____
 72
    65
 73
     6
 40
0.001100
 49
0.000550
 49
-0.000110
 49
0.000110
 49
-0.000110
 49
0.000110
 49
-0.000110
  0
LTYPE
  2
DOT
 70
    64
  3
...............................................
 72
    65
 73
     2
 40
0.000110
 49
0.000000
 49
-0.000110
  0
LTYPE
  2
DASHDOT
 70
    64
  3
__ . __ . __ . __ . __ . __ . __ . __ . __ . __
 72
    65
 73
     4
 40
0.000440
 49
0.000220
 49
-0.000110
 49
0.000000
 49
-0.000110
  0
LTYPE
  2
BORDER
 70
    64
  3
__ __ . __ __ . __ __ . __ __ . __ __ . __ __
 72
    65
 73
     6
 40
0.000770
 49
0.000220
 49
-0.000110
 49
0.000220
 49
-0.000110
 49
0.000000
 49
-0.000110
  0
LTYPE
  2
DIVIDE
 70
    64
  3
__ . . __ . . __ . . __ . . __ . . __ . . __
 72
    65
 73
     6
 40
0.000550
 49
0.000220
 49
-0.000110
 49
0.000000
 49
-0.000110
 49
0.000000
 49
-0.000110
  0
LTYPE
  2
DOTDOT
 70
    64
  3
 . .  . .  . .  . .  . .  . . 
 72
    65
 73
     5
 40
0.000242
 49
-0.000110
 49
0.000000
 49
-0.000110
 49
0.000000
 49
-0.000110
  0
ENDTAB
  0
TABLE
  2
STYLE
 70
     2
  0
STYLE
 70
     0
  2
SN0
 40
0.000000
 41
0.000440
 50
0.000000
 71
     0
 42
0.000000
  3
ROMAND
  0
STYLE
 70
    68
  2
SV0
 40
0.000000
 41
0.000440
 50
0.000000
 71
     0
 42
0.000000
  3
ROMAND
  0
ENDTAB
  0
TABLE
  2
LAYER
 70
     3
  0
LAYER
  2
FOREGROUND
 70
    64
 62
     7
  6
CONTINUOUS
  0
LAYER
  2
BACKGROUND
 70
    65
 62
    -7
  6
CONTINUOUS
  0
LAYER
  2
0
 70
    64
 62
     7
  6
CONTINUOUS
  0
ENDTAB
  0
ENDSEC
  0
SECTION
  2
ENTITIES
  0
POLYLINE
  8
FOREGROUND
  6
CONTINUOUS
 66
     1
 40
0.000000
 41
0.000000
  0
VERTEX
  8
FOREGROUND
  6
CONTINUOUS
 10
0.000000
 20
6.504080
  0
VERTEX
  8
FOREGROUND
  6
CONTINUOUS
 10
8.499920
 20
6.504080
  0
VERTEX
  8
FOREGROUND
  6
CONTINUOUS
 10
8.499920
 20
-4.495920
  0
VERTEX
  8
FOREGROUND
  6
CONTINUOUS
 10
0.000000
 20
-4.495920
  0
VERTEX
  8
FOREGROUND
  6
CONTINUOUS
 10
0.000000
 20
6.504080
  0
SEQEND
  8
0
  0
POLYLINE
  8
FOREGROUND
  6
CONTINUOUS
 66
     1
 40
0.000000
 41
0.000000
  0
VERTEX
  8
FOREGROUND
  6
CONTINUOUS
 10
0.000000
 20
6.504080
  0
VERTEX
  8
FOREGROUND
  6
CONTINUOUS
 10
8.499920
 20
6.504080
  0
VERTEX
  8
FOREGROUND
  6
CONTINUOUS
 10
8.499920
 20
-4.495920
  0
VERTEX
  8
FOREGROUND
  6
CONTINUOUS
 10
0.000000
 20
-4.495920
  0
VERTEX
  8
FOREGROUND
  6
CONTINUOUS
 10
0.000000
 20
6.504080
  0
SEQEND
  8
0
  0
SOLID
  8
0
 62
    15
 10
5.516280
 20
1.484560
 11
5.513640
 21
2.240480
 12
5.522000
 22
1.487200
 13
5.518920
 23
2.243120
  0
POLYLINE
  8
0
  6
CONTINUOUS
 66
     1
 40
0.000000
 41
0.000000
  0
VERTEX
  8
0
  6
CONTINUOUS
 10
5.516280
 20
1.484560
  0
VERTEX
  8
0
  6
CONTINUOUS
 10
5.513640
 20
2.240480
  0
VERTEX
  8
0
  6
CONTINUOUS
 10
5.518920
 20
2.243120
  0
VERTEX
  8
0
  6
CONTINUOUS
 10
5.522000
 20
1.487200
  0
VERTEX
  8
0
  6
CONTINUOUS
 10
5.516280
 20
1.484560
  0
SEQEND
  8
0
  0
SOLID
  8
0
 62
    15
 10
3.941080
 20
1.738440
 11
3.938000
 21
2.494360
 12
3.989040
 22
1.650440
 13
3.985960
 23
2.406800
  0
POLYLINE
  8
0
  6
CONTINUOUS
 66
     1
 40
0.000000
 41
0.000000
  0
VERTEX
  8
0
  6
CONTINUOUS
 10
3.941080
 20
1.738440
  0
VERTEX
  8
0
  6
CONTINUOUS
 10
3.938000
 20
2.494360
  0
VERTEX
  8
0
  6
CONTINUOUS
 10
3.985960
 20
2.406800
  0
VERTEX
  8
0
  6
CONTINUOUS
 10
3.989040
 20
1.650440
  0
VERTEX
  8
0
  6
CONTINUOUS
 10
3.941080
 20
1.738440
  0
SEQEND
  8
0
  0
SOLID
  8
0
 62
    15
 10
3.989040
 20
1.650440
 11
3.985960
 21
2.406800
 12
4.046680
 22
1.570800
 13
4.043600
 23
2.327160
  0
POLYLINE
  8
0
  6
CONTINUOUS
 66
     1
 40
0.000000
 41
0.000000
  0
VERTEX
  8
0
  6
CONTINUOUS
 10
3.989040
 20
1.650440
  0
VERTEX
  8
0
  6
CONTINUOUS
 10
3.985960
 20
2.406800
  0
VERTEX
  8
0
  6
CONTINUOUS
 10
4.043600
 20
2.327160
  0
VERTEX
  8
0
  6
CONTINUOUS
 10
4.046680
 20
1.570800
  0
VERTEX
  8
0
  6
CONTINUOUS
 10
3.989040
 20
1.650440
  0
SEQEND
  8
0
  0
SOLID
  8
0
 62
    15
 10
4.046680
 20
1.570800
 11
4.043600
 21
2.327160
 12
4.112240
 22
1.500400
 13
4.109160
 23
2.256320
  0
POLYLINE
  8
0
  6
CONTINUOUS
 66
     1
 40
0.000000
 41
0.000000
  0
VERTEX
  8
0
  6
CONTINUOUS
 10
4.046680
 20
1.570800
  0
VERTEX
  8
0
  6
CONTINUOUS
 10
4.043600
 20
2.327160
  0
VERTEX
  8
0
  6
CONTINUOUS
 10
4.109160
 20
2.256320
  0
VERTEX
  8
0
  6
CONTINUOUS
 10
4.112240
 20
1.500400
  0
VERTEX
  8
0
  6
CONTINUOUS
 10
4.046680
 20
1.570800
  0
SEQEND
  8
0
  0
SOLID
  8
0
 62
    15
 10
4.112240
 20
1.500400
 11
4.109160
 21
2.256320
 12
4.185280
 22
1.439680
 13
4.182200
 23
2.195600
  0
POLYLINE
  8
0
  6
CONTINUOUS
 66
     1
 40
0.000000
 41
0.000000
  0
VERTEX
  8
0
  6
CONTINUOUS
 10
4.112240
 20
1.500400
  0
VERTEX
  8
0
  6
CONTINUOUS
 10
4.109160
 20
2.256320
  0
VERTEX
  8
0
  6
CONTINUOUS
 10
4.182200
 20
2.195600
  0
VERTEX
  8
0
  6
CONTINUOUS
 10
4.185280
 20
1.439680
  0
VERTEX
  8
0
  6
CONTINUOUS
 10
4.112240
 20
1.500400
  0
SEQEND
  8
0
  0
SOLID
  8
0
 62
    15
 10
4.185280
 20
1.439680
 11
4.182200
 21
2.195600
 12
4.264920
 22
1.389520
 13
4.261840
 23
2.145440
  0
POLYLINE
  8
0
  6
CONTINUOUS
 66
     1
 40
0.000000
 41
0.000000
  0
VERTEX
  8
0
  6
CONTINUOUS
 10
4.185280
 20
1.439680
  0
VERTEX
  8
0
  6
CONTINUOUS
 10
4.182200
 20
2.195600
  0
VERTEX
  8
0
  6
CONTINUOUS
 10
4.261840
 20
2.145440
  0
VERTEX
  8
0
  6
CONTINUOUS
 10
4.264920
 20
1.389520
  0
VERTEX
  8
0
  6
CONTINUOUS
 10
4.185280
 20
1.439680
  0
SEQEND
  8
0
  0
SOLID
  8
0
 62
    15
 10
4.264920
 20
1.389520
 11
4.261840
 21
2.145440
 12
4.349400
 22
1.350360
 13
4.346320
 23
2.106280
  0
POLYLINE
  8
0
  6
CONTINUOUS
 66
     1
 40
0.000000
 41
0.000000
  0
VERTEX
  8
0
  6
CONTINUOUS
 10
4.264920
 20
1.389520
  0
VERTEX
  8
0
  6
CONTINUOUS
 10
4.261840
 20
2.145440
  0
VERTEX
  8
0
  6
CONTINUOUS
 10
4.346320
 20
2.106280
  0
VERTEX
  8
0
  6
CONTINUOUS
 10
4.349400
 20
1.350360
  0
VERTEX
  8
0
  6
CONTINUOUS
 10
4.264920
 20
1.389520
  0
SEQEND
  8
0
  0
SOLID
  8
0
 62
    15
 10
4.349400
 20
1.350360
 11
4.346320
 21
2.106280
 12
4.438280
 22
1.323520
 13
4.435200
 23
2.079440
  0
POLYLINE
  8
0
  6
CONTINUOUS
 66
     1
 40
0.000000
 41
0.000000
  0
VERTEX
  8
0
  6
CONTINUOUS
 10
4.349400
 20
1.350360
  0
VERTEX
  8
0
  6
CONTINUOUS
 10
4.346320
 20
2.106280
  0
VERTEX
  8
0
  6
CONTINUOUS
 10
4.435200
 20
2.079440
  0
VERTEX
  8
0
  6
CONTINUOUS
 10
4.438280
 20
1.323520
  0
VERTEX
  8
0
  6
CONTINUOUS
 10
4.349400
 20
1.350360
  0
SEQEND
  8
0
  0
SOLID
  8
0
 62
    15
 10
4.438280
 20
1.323520
 11
4.435200
 21
2.079440
 12
4.530680
 22
1.309440
 13
4.527600
 23
2.065800
  0
POLYLINE
  8
0
  6
CONTINUOUS
 66
     1
 40
0.000000
 41
0.000000
  0
VERTEX
  8
0
  6
CONTINUOUS
 10
4.438280
 20
1.323520
  0
VERTEX
  8
0
  6
CONTINUOUS
 10
4.435200
 20
2.079440
  0
VERTEX
  8
0
  6
CONTINUOUS
 10
4.527600
 20
2.065800
  0
VERTEX
  8
0
  6
CONTINUOUS
 10
4.530680
 20
1.309440
  0
VERTEX
  8
0
  6
CONTINUOUS
 10
4.438280
 20
1.323520
  0
SEQEND
  8
0
  0
SOLID
  8
0
 62
    15
 10
4.530680
 20
1.309440
 11
4.527600
 21
2.065800
 12
4.624840
 22
1.309000
 13
4.621760
 23
2.065360
  0
POLYLINE
  8
0
  6
CONTINUOUS
 66
     1
 40
0.000000
 41
0.000000
  0
VERTEX
  8
0
  6
CONTINUOUS
 10
4.530680
 20
1.309440
  0
VERTEX
  8
0
  6
CONTINUOUS
 10
4.527600
 20
2.065800
  0
VERTEX
  8
0
  6
CONTINUOUS
 10
4.621760
 20
2.065360
  0
VERTEX
  8
0
  6
CONTINUOUS
 10
4.624840
 20
1.309000
  0
VERTEX
  8
0
  6
CONTINUOUS
 10
4.530680
 20
1.309440
  0
SEQEND
  8
0
  0
SOLID
  8
0
 62
    15
 10
4.624840
 20
1.309000
 11
4.621760
 21
2.065360
 12
4.720320
 22
1.323080
 13
4.717240
 23
2.079440
  0
POLYLINE
  8
0
  6
CONTINUOUS
 66
     1
 40
0.000000
 41
0.000000
  0
VERTEX
  8
0
  6
CONTINUOUS
 10
4.624840
 20
1.309000
  0
VERTEX
  8
0
  6
CONTINUOUS
 10
4.621760
 20
2.065360
  0
VERTEX
  8
0
  6
CONTINUOUS
 10
4.717240
 20
2.079440
  0
VERTEX
  8
0
  6
CONTINUOUS
 10
4.720320
 20
1.323080
  0
VERTEX
  8
0
  6
CONTINUOUS
 10
4.624840
 20
1.309000
  0
SEQEND
  8
0
  0
SOLID
  8
0
 62
    15
 10
4.720320
 20
1.323080
 11
4.717240
 21
2.079440
 12
4.816240
 22
1.352560
 13
4.813160
 23
2.108480
  0
POLYLINE
  8
0
  6
CONTINUOUS
 66
     1
 40
0.000000
 41
0.000000
  0
VERTEX
  8
0
  6
CONTINUOUS
 10
4.720320
 20
1.323080
  0
VERTEX
  8
0
  6
CONTINUOUS
 10
4.717240
 20
2.079440
  0
VERTEX
  8
0
  6
CONTINUOUS
 10
4.813160
 20
2.108480
  0
VERTEX
  8
0
  6
CONTINUOUS
 10
4.816240
 20
1.352560
  0
VERTEX
  8
0
  6
CONTINUOUS
 10
4.720320
 20
1.323080
  0
SEQEND
  8
0
  0
SOLID
  8
0
 62
    15
 10
4.816240
 20
1.352560
 11
4.813160
 21
2.108480
 12
4.910840
 22
1.397440
 13
4.907760
 23
2.153800
  0
POLYLINE
  8
0
  6
CONTINUOUS
 66
     1
 40
0.000000
 41
0.000000
  0
VERTEX
  8
0
  6
CONTINUOUS
 10
4.816240
 20
1.352560
  0
VERTEX
  8
0
  6
CONTINUOUS
 10
4.813160
 20
2.108480
  0
VERTEX
  8
0
  6
CONTINUOUS
 10
4.907760
 20
2.153800
  0
VERTEX
  8
0
  6
CONTINUOUS
 10
4.910840
 20
1.397440
  0
VERTEX
  8
0
  6
CONTINUOUS
 10
4.816240
 20
1.352560
  0
SEQEND
  8
0
  0
SOLID
  8
0
 62
    15
 10
4.910840
 20
1.397440
 11
4.907760
 21
2.153800
 12
5.004120
 22
1.459480
 13
5.001040
 23
2.215400
  0
POLYLINE
  8
0
  6
CONTINUOUS
 66
     1
 40
0.000000
 41
0.000000
  0
VERTEX
  8
0
  6
CONTINUOUS
 10
4.910840
 20
1.397440
  0
VERTEX
  8
0
  6
CONTINUOUS
 10
4.907760
 20
2.153800
  0
VERTEX
  8
0
  6
CONTINUOUS
 10
5.001040
 20
2.215400
  0
VERTEX
  8
0
  6
CONTINUOUS
 10
5.004120
 20
1.459480
  0
VERTEX
  8
0
  6
CONTINUOUS
 10
4.910840
 20
1.397440
  0
SEQEND
  8
0
  0
SOLID
  8
0
 62
    15
 10
5.004120
 20
1.459480
 11
5.001040
 21
2.215400
 12
5.094320
 22
1.538680
 13
5.091240
 23
2.295040
  0
POLYLINE
  8
0
  6
CONTINUOUS
 66
     1
 40
0.000000
 41
0.000000
  0
VERTEX
  8
0
  6
CONTINUOUS
 10
5.004120
 20
1.459480
  0
VERTEX
  8
0
  6
CONTINUOUS
 10
5.001040
 20
2.215400
  0
VERTEX
  8
0
  6
CONTINUOUS
 10
5.091240
 20
2.295040
  0
VERTEX
  8
0
  6
CONTINUOUS
 10
5.094320
 20
1.538680
  0
VERTEX
  8
0
  6
CONTINUOUS
 10
5.004120
 20
1.459480
  0
SEQEND
  8
0
  0
SOLID
  8
0
 62
    15
 10
5.094320
 20
1.538680
 11
5.091240
 21
2.295040
 12
5.137880
 22
1.585320
 13
5.134800
 23
2.341240
  0
POLYLINE
  8
0
  6
CONTINUOUS
 66
     1
 40
0.000000
 41
0.000000
  0
VERTEX
  8
0
  6
CONTINUOUS
 10
5.094320
 20
1.538680
  0
VERTEX
  8
0
  6
CONTINUOUS
 10
5.091240
 20
2.295040
  0
VERTEX
  8
0
  6
CONTINUOUS
 10
5.134800
 20
2.341240
  0
VERTEX
  8
0
  6
CONTINUOUS
 10
5.137880
 20
1.585320
  0
VERTEX
  8
0
  6
CONTINUOUS
 10
5.094320
 20
1.538680
  0
SEQEND
  8
0
  0
SOLID
  8
0
 62
    15
 10
5.137880
 20
1.585320
 11
5.134800
 21
2.341240
 12
5.180560
 22
1.636360
 13
5.177480
 23
2.392280
  0
POLYLINE
  8
0
  6
CONTINUOUS
 66
     1
 40
0.000000
 41
0.000000
  0
VERTEX
  8
0
  6
CONTINUOUS
 10
5.137880
 20
1.585320
  0
VERTEX
  8
0
  6
CONTINUOUS
 10
5.134800
 20
2.341240
  0
VERTEX
  8
0
  6
CONTINUOUS
 10
5.177480
 20
2.392280
  0
VERTEX
  8
0
  6
CONTINUOUS
 10
5.180560
 20
1.636360
  0
VERTEX
  8
0
  6
CONTINUOUS
 10
5.137880
 20
1.585320
  0
SEQEND
  8
0
  0
SOLID
  8
0
 62
    15
 10
5.180560
 20
1.636360
 11
5.177480
 21
2.392280
 12
5.183200
 22
1.637680
 13
5.180120
 23
2.393600
  0
POLYLINE
  8
0
  6
CONTINUOUS
 66
     1
 40
0.000000
 41
0.000000
  0
VERTEX
  8
0
  6
CONTINUOUS
 10
5.180560
 20
1.636360
  0
VERTEX
  8
0
  6
CONTINUOUS
 10
5.177480
 20
2.392280
  0
VERTEX
  8
0
  6
CONTINUOUS
 10
5.180120
 20
2.393600
  0
VERTEX
  8
0
  6
CONTINUOUS
 10
5.183200
 20
1.637680
  0
VERTEX
  8
0
  6
CONTINUOUS
 10
5.180560
 20
1.636360
  0
SEQEND
  8
0
  0
SOLID
  8
0
 62
    15
 10
5.183200
 20
1.637680
 11
5.180120
 21
2.393600
 12
5.214000
 22
1.637680
 13
5.210920
 23
2.393600
  0
POLYLINE
  8
0
  6
CONTINUOUS
 66
     1
 40
0.000000
 41
0.000000
  0
VERTEX
  8
0
  6
CONTINUOUS
 10
5.183200
 20
1.637680
  0
VERTEX
  8
0
  6
CONTINUOUS
 10
5.180120
 20
2.393600
  0
VERTEX
  8
0
  6
CONTINUOUS
 10
5.210920
 20
2.393600
  0
VERTEX
  8
0
  6
CONTINUOUS
 10
5.214000
 20
1.637680
  0
VERTEX
  8
0
  6
CONTINUOUS
 10
5.183200
 20
1.637680
  0
SEQEND
  8
0
  0
SOLID
  8
0
 62
    15
 10
5.214000
 20
1.637680
 11
5.210920
 21
2.393600
 12
5.251840
 22
1.601160
 13
5.248760
 23
2.357520
  0
POLYLINE
  8
0
  6
CONTINUOUS
 66
     1
 40
0.000000
 41
0.000000
  0
VERTEX
  8
0
  6
CONTINUOUS
 10
5.214000
 20
1.637680
  0
VERTEX
  8
0
  6
CONTINUOUS
 10
5.210920
 20
2.393600
  0
VERTEX
  8
0
  6
CONTINUOUS
 10
5.248760
 20
2.357520
  0
VERTEX
  8
0
  6
CONTINUOUS
 10
5.251840
 20
1.601160
  0
VERTEX
  8
0
  6
CONTINUOUS
 10
5.214000
 20
1.637680
  0
SEQEND
  8
0
  0
SOLID
  8
0
 62
    15
 10
5.251840
 20
1.601160
 11
5.248760
 21
2.357520
 12
5.290120
 22
1.569480
 13
5.287040
 23
2.325840
  0
POLYLINE
  8
0
  6
CONTINUOUS
 66
     1
 40
0.000000
 41
0.000000
  0
VERTEX
  8
0
  6
CONTINUOUS
 10
5.251840
 20
1.601160
  0
VERTEX
  8
0
  6
CONTINUOUS
 10
5.248760
 20
2.357520
  0
VERTEX
  8
0
  6
CONTINUOUS
 10
5.287040
 20
2.325840
  0
VERTEX
  8
0
  6
CONTINUOUS
 10
5.290120
 20
1.569480
  0
VERTEX
  8
0
  6
CONTINUOUS
 10
5.251840
 20
1.601160
  0
SEQEND
  8
0
  0
SOLID
  8
0
 62
    15
 10
5.290120
 20
1.569480
 11
5.287040
 21
2.325840
 12
5.327960
 22
1.543080
 13
5.324880
 23
2.299440
  0
POLYLINE
  8
0
  6
CONTINUOUS
 66
     1
 40
0.000000
 41
0.000000
  0
VERTEX
  8
0
  6
CONTINUOUS
 10
5.290120
 20
1.569480
  0
VERTEX
  8
0
  6
CONTINUOUS
 10
5.287040
 20
2.325840
  0
VERTEX
  8
0
  6
CONTINUOUS
 10
5.324880
 20
2.299440
  0
VERTEX
  8
0
  6
CONTINUOUS
 10
5.327960
 20
1.543080
  0
VERTEX
  8
0
  6
CONTINUOUS
 10
5.290120
 20
1.569480
  0
SEQEND
  8
0
  0
SOLID
  8
0
 62
    15
 10
5.327960
 20
1.543080
 11
5.324880
 21
2.299440
 12
5.366240
 22
1.521520
 13
5.363160
 23
2.277880
  0
POLYLINE
  8
0
  6
CONTINUOUS
 66
     1
 40
0.000000
 41
0.000000
  0
VERTEX
  8
0
  6
CONTINUOUS
 10
5.327960
 20
1.543080
  0
VERTEX
  8
0
  6
CONTINUOUS
 10
5.324880
 20
2.299440
  0
VERTEX
  8
0
  6
CONTINUOUS
 10
5.363160
 20
2.277880
  0
VERTEX
  8
0
  6
CONTINUOUS
 10
5.366240
 20
1.521520
  0
VERTEX
  8
0
  6
CONTINUOUS
 10
5.327960
 20
1.543080
  0
SEQEND
  8
0
  0
SOLID
  8
0
 62
    15
 10
5.366240
 20
1.521520
 11
5.363160
 21
2.277880
 12
5.404080
 22
1.504800
 13
5.401000
 23
2.261160
  0
POLYLINE
  8
0
  6
CONTINUOUS
 66
     1
 40
0.000000
 41
0.000000
  0
VERTEX
  8
0
  6
CONTINUOUS
 10
5.366240
 20
1.521520
  0
VERTEX
  8
0
  6
CONTINUOUS
 10
5.363160
 20
2.277880
  0
VERTEX
  8
0
  6
CONTINUOUS
 10
5.401000
 20
2.261160
  0
VERTEX
  8
0
  6
CONTINUOUS
 10
5.404080
 20
1.504800
  0
VERTEX
  8
0
  6
CONTINUOUS
 10
5.366240
 20
1.521520
  0
SEQEND
  8
0
  0
SOLID
  8
0
 62
    15
 10
5.404080
 20
1.504800
 11
5.401000
 21
2.261160
 12
5.441920
 22
1.492920
 13
5.438840
 23
2.249280
  0
POLYLINE
  8
0
  6
CONTINUOUS
 66
     1
 40
0.000000
 41
0.000000
  0
VERTEX
  8
0
  6
CONTINUOUS
 10
5.404080
 20
1.504800
  0
VERTEX
  8
0
  6
CONTINUOUS
 10
5.401000
 20
2.261160
  0
VERTEX
  8
0
  6
CONTINUOUS
 10
5.438840
 20
2.249280
  0
VERTEX
  8
0
  6
CONTINUOUS
 10
5.441920
 20
1.492920
  0
VERTEX
  8
0
  6
CONTINUOUS
 10
5.404080
 20
1.504800
  0
SEQEND
  8
0
  0
SOLID
  8
0
 62
    15
 10
5.441920
 20
1.492920
 11
5.438840
 21
2.249280
 12
5.479320
 22
1.486320
 13
5.476240
 23
2.242240
  0
POLYLINE
  8
0
  6
CONTINUOUS
 66
     1
 40
0.000000
 41
0.000000
  0
VERTEX
  8
0
  6
CONTINUOUS
 10
5.441920
 20
1.492920
  0
VERTEX
  8
0
  6
CONTINUOUS
 10
5.438840
 20
2.249280
  0
VERTEX
  8
0
  6
CONTINUOUS
 10
5.476240
 20
2.242240
  0
VERTEX
  8
0
  6
CONTINUOUS
 10
5.479320
 20
1.486320
  0
VERTEX
  8
0
  6
CONTINUOUS
 10
5.441920
 20
1.492920
  0
SEQEND
  8
0
  0
SOLID
  8
0
 62
    15
 10
5.479320
 20
1.486320
 11
5.476240
 21
2.242240
 12
5.516280
 22
1.484560
 13
5.513640
 23
2.240480
  0
POLYLINE
  8
0
  6
CONTINUOUS
 66
     1
 40
0.000000
 41
0.000000
  0
VERTEX
  8
0
  6
CONTINUOUS
 10
5.479320
 20
1.486320
  0
VERTEX
  8
0
  6
CONTINUOUS
 10
5.476240
 20
2.242240
  0
VERTEX
  8
0
  6
CONTINUOUS
 10
5.513640
 20
2.240480
  0
VERTEX
  8
0
  6
CONTINUOUS
 10
5.516280
 20
1.484560
  0
VERTEX
  8
0
  6
CONTINUOUS
 10
5.479320
 20
1.486320
  0
SEQEND
  8
0
  0
SOLID
  8
0
 62
    15
 10
3.903240
 20
1.833480
 11
3.900160
 21
2.589840
 12
3.941080
 22
1.738440
 13
3.938000
 23
2.494360
  0
POLYLINE
  8
0
  6
CONTINUOUS
 66
     1
 40
0.000000
 41
0.000000
  0
VERTEX
  8
0
  6
CONTINUOUS
 10
3.903240
 20
1.833480
  0
VERTEX
  8
0
  6
CONTINUOUS
 10
3.900160
 20
2.589840
  0
VERTEX
  8
0
  6
CONTINUOUS
 10
3.938000
 20
2.494360
  0
VERTEX
  8
0
  6
CONTINUOUS
 10
3.941080
 20
1.738440
  0
VERTEX
  8
0
  6
CONTINUOUS
 10
3.903240
 20
1.833480
  0
SEQEND
  8
0
  0
SOLID
  8
0
 62
    15
 10
5.522000
 20
1.487200
 11
5.518920
 21
2.243120
 12
5.537840
 22
1.548360
 13
5.534760
 23
2.304720
  0
POLYLINE
  8
0
  6
CONTINUOUS
 66
     1
 40
0.000000
 41
0.000000
  0
VERTEX
  8
0
  6
CONTINUOUS
 10
5.522000
 20
1.487200
  0
VERTEX
  8
0
  6
CONTINUOUS
 10
5.518920
 20
2.243120
  0
VERTEX
  8
0
  6
CONTINUOUS
 10
5.534760
 20
2.304720
  0
VERTEX
  8
0
  6
CONTINUOUS
 10
5.537840
 20
1.548360
  0
VERTEX
  8
0
  6
CONTINUOUS
 10
5.522000
 20
1.487200
  0
SEQEND
  8
0
  0
SOLID
  8
0
 62
    15
 10
5.537840
 20
1.548360
 11
5.534760
 21
2.304720
 12
5.560720
 22
1.602920
 13
5.557640
 23
2.358840
  0
POLYLINE
  8
0
  6
CONTINUOUS
 66
     1
 40
0.000000
 41
0.000000
  0
VERTEX
  8
0
  6
CONTINUOUS
 10
5.537840
 20
1.548360
  0
VERTEX
  8
0
  6
CONTINUOUS
 10
5.534760
 20
2.304720
  0
VERTEX
  8
0
  6
CONTINUOUS
 10
5.557640
 20
2.358840
  0
VERTEX
  8
0
  6
CONTINUOUS
 10
5.560720
 20
1.602920
  0
VERTEX
  8
0
  6
CONTINUOUS
 10
5.537840
 20
1.548360
  0
SEQEND
  8
0
  0
SOLID
  8
0
 62
    15
 10
5.560720
 20
1.602920
 11
5.557640
 21
2.358840
 12
5.589760
 22
1.649560
 13
5.586680
 23
2.405920
  0
POLYLINE
  8
0
  6
CONTINUOUS
 66
     1
 40
0.000000
 41
0.000000
  0
VERTEX
  8
0
  6
CONTINUOUS
 10
5.560720
 20
1.602920
  0
VERTEX
  8
0
  6
CONTINUOUS
 10
5.557640
 20
2.358840
  0
VERTEX
  8
0
  6
CONTINUOUS
 10
5.586680
 20
2.405920
  0
VERTEX
  8
0
  6
CONTINUOUS
 10
5.589760
 20
1.649560
  0
VERTEX
  8
0
  6
CONTINUOUS
 10
5.560720
 20
1.602920
  0
SEQEND
  8
0
  0
SOLID
  8
0
 62
    15
 10
5.589760
 20
1.649560
 11
5.586680
 21
2.405920
 12
5.624960
 22
1.689160
 13
5.621880
 23
2.445080
  0
POLYLINE
  8
0
  6
CONTINUOUS
 66
     1
 40
0.000000
 41
0.000000
  0
VERTEX
  8
0
  6
CONTINUOUS
 10
5.589760
 20
1.649560
  0
VERTEX
  8
0
  6
CONTINUOUS
 10
5.586680
 20
2.405920
  0
VERTEX
  8
0
  6
CONTINUOUS
 10
5.621880
 20
2.445080
  0
VERTEX
  8
0
  6
CONTINUOUS
 10
5.624960
 20
1.689160
  0
VERTEX
  8
0
  6
CONTINUOUS
 10
5.589760
 20
1.649560
  0
SEQEND
  8
0
  0
SOLID
  8
0
 62
    15
 10
5.624960
 20
1.689160
 11
5.621880
 21
2.445080
 12
5.665000
 22
1.720400
 13
5.661920
 23
2.476760
  0
POLYLINE
  8
0
  6
CONTINUOUS
 66
     1
 40
0.000000
 41
0.000000
  0
VERTEX
  8
0
  6
CONTINUOUS
 10
5.624960
 20
1.689160
  0
VERTEX
  8
0
  6
CONTINUOUS
 10
5.621880
 20
2.445080
  0
VERTEX
  8
0
  6
CONTINUOUS
 10
5.661920
 20
2.476760
  0
VERTEX
  8
0
  6
CONTINUOUS
 10
5.665000
 20
1.720400
  0
VERTEX
  8
0
  6
CONTINUOUS
 10
5.624960
 20
1.689160
  0
SEQEND
  8
0
  0
SOLID
  8
0
 62
    15
 10
5.665000
 20
1.720400
 11
5.661920
 21
2.476760
 12
5.710320
 22
1.743720
 13
5.707240
 23
2.500080
  0
POLYLINE
  8
0
  6
CONTINUOUS
 66
     1
 40
0.000000
 41
0.000000
  0
VERTEX
  8
0
  6
CONTINUOUS
 10
5.665000
 20
1.720400
  0
VERTEX
  8
0
  6
CONTINUOUS
 10
5.661920
 20
2.476760
  0
VERTEX
  8
0
  6
CONTINUOUS
 10
5.707240
 20
2.500080
  0
VERTEX
  8
0
  6
CONTINUOUS
 10
5.710320
 20
1.743720
  0
VERTEX
  8
0
  6
CONTINUOUS
 10
5.665000
 20
1.720400
  0
SEQEND
  8
0
  0
SOLID
  8
0
 62
    15
 10
5.710320
 20
1.743720
 11
5.707240
 21
2.500080
 12
5.760040
 22
1.759120
 13
5.756960
 23
2.515040
  0
POLYLINE
  8
0
  6
CONTINUOUS
 66
     1
 40
0.000000
 41
0.000000
  0
VERTEX
  8
0
  6
CONTINUOUS
 10
5.710320
 20
1.743720
  0
VERTEX
  8
0
  6
CONTINUOUS
 10
5.707240
 20
2.500080
  0
VERTEX
  8
0
  6
CONTINUOUS
 10
5.756960
 20
2.515040
  0
VERTEX
  8
0
  6
CONTINUOUS
 10
5.760040
 20
1.759120
  0
VERTEX
  8
0
  6
CONTINUOUS
 10
5.710320
 20
1.743720
  0
SEQEND
  8
0
  0
SOLID
  8
0
 62
    15
 10
5.760040
 20
1.759120
 11
5.756960
 21
2.515040
 12
5.813720
 22
1.765720
 13
5.810640
 23
2.521640
  0
POLYLINE
  8
0
  6
CONTINUOUS
 66
     1
 40
0.000000
 41
0.000000
  0
VERTEX
  8
0
  6
CONTINUOUS
 10
5.760040
 20
1.759120
  0
VERTEX
  8
0
  6
CONTINUOUS
 10
5.756960
 20
2.515040
  0
VERTEX
  8
0
  6
CONTINUOUS
 10
5.810640
 20
2.521640
  0
VERTEX
  8
0
  6
CONTINUOUS
 10
5.813720
 20
1.765720
  0
VERTEX
  8
0
  6
CONTINUOUS
 10
5.760040
 20
1.759120
  0
SEQEND
  8
0
  0
SOLID
  8
0
 62
    15
 10
5.813720
 20
1.765720
 11
5.810640
 21
2.521640
 12
5.871360
 22
1.763520
 13
5.868280
 23
2.519440
  0
POLYLINE
  8
0
  6
CONTINUOUS
 66
     1
 40
0.000000
 41
0.000000
  0
VERTEX
  8
0
  6
CONTINUOUS
 10
5.813720
 20
1.765720
  0
VERTEX
  8
0
  6
CONTINUOUS
 10
5.810640
 20
2.521640
  0
VERTEX
  8
0
  6
CONTINUOUS
 10
5.868280
 20
2.519440
  0
VERTEX
  8
0
  6
CONTINUOUS
 10
5.871360
 20
1.763520
  0
VERTEX
  8
0
  6
CONTINUOUS
 10
5.813720
 20
1.765720
  0
SEQEND
  8
0
  0
SOLID
  8
0
 62
    15
 10
5.871360
 20
1.763520
 11
5.868280
 21
2.519440
 12
5.931640
 22
1.752520
 13
5.928560
 23
2.508440
  0
POLYLINE
  8
0
  6
CONTINUOUS
 66
     1
 40
0.000000
 41
0.000000
  0
VERTEX
  8
0
  6
CONTINUOUS
 10
5.871360
 20
1.763520
  0
VERTEX
  8
0
  6
CONTINUOUS
 10
5.868280
 20
2.519440
  0
VERTEX
  8
0
  6
CONTINUOUS
 10
5.928560
 20
2.508440
  0
VERTEX
  8
0
  6
CONTINUOUS
 10
5.931640
 20
1.752520
  0
VERTEX
  8
0
  6
CONTINUOUS
 10
5.871360
 20
1.763520
  0
SEQEND
  8
0
  0
SOLID
  8
0
 62
    15
 10
5.931640
 20
1.752520
 11
5.928560
 21
2.508440
 12
5.995000
 22
1.732280
 13
5.991920
 23
2.488640
  0
POLYLINE
  8
0
  6
CONTINUOUS
 66
     1
 40
0.000000
 41
0.000000
  0
VERTEX
  8
0
  6
CONTINUOUS
 10
5.931640
 20
1.752520
  0
VERTEX
  8
0
  6
CONTINUOUS
 10
5.928560
 20
2.508440
  0
VERTEX
  8
0
  6
CONTINUOUS
 10
5.991920
 20
2.488640
  0
VERTEX
  8
0
  6
CONTINUOUS
 10
5.995000
 20
1.732280
  0
VERTEX
  8
0
  6
CONTINUOUS
 10
5.931640
 20
1.752520
  0
SEQEND
  8
0
  0
SOLID
  8
0
 62
    15
 10
5.995000
 20
1.732280
 11
5.991920
 21
2.488640
 12
6.060560
 22
1.702800
 13
6.057480
 23
2.459160
  0
POLYLINE
  8
0
  6
CONTINUOUS
 66
     1
 40
0.000000
 41
0.000000
  0
VERTEX
  8
0
  6
CONTINUOUS
 10
5.995000
 20
1.732280
  0
VERTEX
  8
0
  6
CONTINUOUS
 10
5.991920
 20
2.488640
  0
VERTEX
  8
0
  6
CONTINUOUS
 10
6.057480
 20
2.459160
  0
VERTEX
  8
0
  6
CONTINUOUS
 10
6.060560
 20
1.702800
  0
VERTEX
  8
0
  6
CONTINUOUS
 10
5.995000
 20
1.732280
  0
SEQEND
  8
0
  0
SOLID
  8
0
 62
    15
 10
6.060560
 20
1.702800
 11
6.057480
 21
2.459160
 12
6.128320
 22
1.663640
 13
6.125240
 23
2.420000
  0
POLYLINE
  8
0
  6
CONTINUOUS
 66
     1
 40
0.000000
 41
0.000000
  0
VERTEX
  8
0
  6
CONTINUOUS
 10
6.060560
 20
1.702800
  0
VERTEX
  8
0
  6
CONTINUOUS
 10
6.057480
 20
2.459160
  0
VERTEX
  8
0
  6
CONTINUOUS
 10
6.125240
 20
2.420000
  0
VERTEX
  8
0
  6
CONTINUOUS
 10
6.128320
 20
1.663640
  0
VERTEX
  8
0
  6
CONTINUOUS
 10
6.060560
 20
1.702800
  0
SEQEND
  8
0
  0
SOLID
  8
0
 62
    15
 10
6.128320
 20
1.663640
 11
6.125240
 21
2.420000
 12
6.197400
 22
1.614800
 13
6.194320
 23
2.371160
  0
POLYLINE
  8
0
  6
CONTINUOUS
 66
     1
 40
0.000000
 41
0.000000
  0
VERTEX
  8
0
  6
CONTINUOUS
 10
6.128320
 20
1.663640
  0
VERTEX
  8
0
  6
CONTINUOUS
 10
6.125240
 20
2.420000
  0
VERTEX
  8
0
  6
CONTINUOUS
 10
6.194320
 20
2.371160
  0
VERTEX
  8
0
  6
CONTINUOUS
 10
6.197400
 20
1.614800
  0
VERTEX
  8
0
  6
CONTINUOUS
 10
6.128320
 20
1.663640
  0
SEQEND
  8
0
  0
SOLID
  8
0
 62
    15
 10
6.197400
 20
1.614800
 11
6.194320
 21
2.371160
 12
6.267360
 22
1.556280
 13
6.264280
 23
2.312200
  0
POLYLINE
  8
0
  6
CONTINUOUS
 66
     1
 40
0.000000
 41
0.000000
  0
VERTEX
  8
0
  6
CONTINUOUS
 10
6.197400
 20
1.614800
  0
VERTEX
  8
0
  6
CONTINUOUS
 10
6.194320
 20
2.371160
  0
VERTEX
  8
0
  6
CONTINUOUS
 10
6.264280
 20
2.312200
  0
VERTEX
  8
0
  6
CONTINUOUS
 10
6.267360
 20
1.556280
  0
VERTEX
  8
0
  6
CONTINUOUS
 10
6.197400
 20
1.614800
  0
SEQEND
  8
0
  0
SOLID
  8
0
 62
    15
 10
6.267360
 20
1.556280
 11
6.264280
 21
2.312200
 12
6.337760
 22
1.487200
 13
6.334680
 23
2.243120
  0
POLYLINE
  8
0
  6
CONTINUOUS
 66
     1
 40
0.000000
 41
0.000000
  0
VERTEX
  8
0
  6
CONTINUOUS
 10
6.267360
 20
1.556280
  0
VERTEX
  8
0
  6
CONTINUOUS
 10
6.264280
 20
2.312200
  0
VERTEX
  8
0
  6
CONTINUOUS
 10
6.334680
 20
2.243120
  0
VERTEX
  8
0
  6
CONTINUOUS
 10
6.337760
 20
1.487200
  0
VERTEX
  8
0
  6
CONTINUOUS
 10
6.267360
 20
1.556280
  0
SEQEND
  8
0
  0
SOLID
  8
0
 62
    15
 10
6.337760
 20
1.487200
 11
6.334680
 21
2.243120
 12
6.344800
 22
1.481040
 13
6.341720
 23
2.236960
  0
POLYLINE
  8
0
  6
CONTINUOUS
 66
     1
 40
0.000000
 41
0.000000
  0
VERTEX
  8
0
  6
CONTINUOUS
 10
6.337760
 20
1.487200
  0
VERTEX
  8
0
  6
CONTINUOUS
 10
6.334680
 20
2.243120
  0
VERTEX
  8
0
  6
CONTINUOUS
 10
6.341720
 20
2.236960
  0
VERTEX
  8
0
  6
CONTINUOUS
 10
6.344800
 20
1.481040
  0
VERTEX
  8
0
  6
CONTINUOUS
 10
6.337760
 20
1.487200
  0
SEQEND
  8
0
  0
SOLID
  8
0
 62
    15
 10
6.344800
 20
1.481040
 11
6.341720
 21
2.236960
 12
6.361520
 22
1.467840
 13
6.358440
 23
2.224200
  0
POLYLINE
  8
0
  6
CONTINUOUS
 66
     1
 40
0.000000
 41
0.000000
  0
VERTEX
  8
0
  6
CONTINUOUS
 10
6.344800
 20
1.481040
  0
VERTEX
  8
0
  6
CONTINUOUS
 10
6.341720
 20
2.236960
  0
VERTEX
  8
0
  6
CONTINUOUS
 10
6.358440
 20
2.224200
  0
VERTEX
  8
0
  6
CONTINUOUS
 10
6.361520
 20
1.467840
  0
VERTEX
  8
0
  6
CONTINUOUS
 10
6.344800
 20
1.481040
  0
SEQEND
  8
0
  0
SOLID
  8
0
 62
    15
 10
6.361520
 20
1.467840
 11
6.358440
 21
2.224200
 12
6.387040
 22
1.451120
 13
6.383960
 23
2.207040
  0
POLYLINE
  8
0
  6
CONTINUOUS
 66
     1
 40
0.000000
 41
0.000000
  0
VERTEX
  8
0
  6
CONTINUOUS
 10
6.361520
 20
1.467840
  0
VERTEX
  8
0
  6
CONTINUOUS
 10
6.358440
 20
2.224200
  0
VERTEX
  8
0
  6
CONTINUOUS
 10
6.383960
 20
2.207040
  0
VERTEX
  8
0
  6
CONTINUOUS
 10
6.387040
 20
1.451120
  0
VERTEX
  8
0
  6
CONTINUOUS
 10
6.361520
 20
1.467840
  0
SEQEND
  8
0
  0
SOLID
  8
0
 62
    15
 10
6.387040
 20
1.451120
 11
6.383960
 21
2.207040
 12
6.420480
 22
1.431760
 13
6.417400
 23
2.188120
  0
POLYLINE
  8
0
  6
CONTINUOUS
 66
     1
 40
0.000000
 41
0.000000
  0
VERTEX
  8
0
  6
CONTINUOUS
 10
6.387040
 20
1.451120
  0
VERTEX
  8
0
  6
CONTINUOUS
 10
6.383960
 20
2.207040
  0
VERTEX
  8
0
  6
CONTINUOUS
 10
6.417400
 20
2.188120
  0
VERTEX
  8
0
  6
CONTINUOUS
 10
6.420480
 20
1.431760
  0
VERTEX
  8
0
  6
CONTINUOUS
 10
6.387040
 20
1.451120
  0
SEQEND
  8
0
  0
SOLID
  8
0
 62
    15
 10
6.420480
 20
1.431760
 11
6.417400
 21
2.188120
 12
6.460960
 22
1.413280
 13
6.457880
 23
2.169640
  0
POLYLINE
  8
0
  6
CONTINUOUS
 66
     1
 40
0.000000
 41
0.000000
  0
VERTEX
  8
0
  6
CONTINUOUS
 10
6.420480
 20
1.431760
  0
VERTEX
  8
0
  6
CONTINUOUS
 10
6.417400
 20
2.188120
  0
VERTEX
  8
0
  6
CONTINUOUS
 10
6.457880
 20
2.169640
  0
VERTEX
  8
0
  6
CONTINUOUS
 10
6.460960
 20
1.413280
  0
VERTEX
  8
0
  6
CONTINUOUS
 10
6.420480
 20
1.431760
  0
SEQEND
  8
0
  0
SOLID
  8
0
 62
    15
 10
6.460960
 20
1.413280
 11
6.457880
 21
2.169640
 12
6.508040
 22
1.397880
 13
6.504960
 23
2.154240
  0
POLYLINE
  8
0
  6
CONTINUOUS
 66
     1
 40
0.000000
 41
0.000000
  0
VERTEX
  8
0
  6
CONTINUOUS
 10
6.460960
 20
1.413280
  0
VERTEX
  8
0
  6
CONTINUOUS
 10
6.457880
 20
2.169640
  0
VERTEX
  8
0
  6
CONTINUOUS
 10
6.504960
 20
2.154240
  0
VERTEX
  8
0
  6
CONTINUOUS
 10
6.508040
 20
1.397880
  0
VERTEX
  8
0
  6
CONTINUOUS
 10
6.460960
 20
1.413280
  0
SEQEND
  8
0
  0
SOLID
  8
0
 62
    15
 10
6.508040
 20
1.397880
 11
6.504960
 21
2.154240
 12
6.559960
 22
1.387760
 13
6.556880
 23
2.144120
  0
POLYLINE
  8
0
  6
CONTINUOUS
 66
     1
 40
0.000000
 41
0.000000
  0
VERTEX
  8
0
  6
CONTINUOUS
 10
6.508040
 20
1.397880
  0
VERTEX
  8
0
  6
CONTINUOUS
 10
6.504960
 20
2.154240
  0
VERTEX
  8
0
  6
CONTINUOUS
 10
6.556880
 20
2.144120
  0
VERTEX
  8
0
  6
CONTINUOUS
 10
6.559960
 20
1.387760
  0
VERTEX
  8
0
  6
CONTINUOUS
 10
6.508040
 20
1.397880
  0
SEQEND
  8
0
  0
SOLID
  8
0
 62
    15
 10
6.559960
 20
1.387760
 11
6.556880
 21
2.144120
 12
6.616280
 22
1.385560
 13
6.613640
 23
2.141920
  0
POLYLINE
  8
0
  6
CONTINUOUS
 66
     1
 40
0.000000
 41
0.000000
  0
VERTEX
  8
0
  6
CONTINUOUS
 10
6.559960
 20
1.387760
  0
VERTEX
  8
0
  6
CONTINUOUS
 10
6.556880
 20
2.144120
  0
VERTEX
  8
0
  6
CONTINUOUS
 10
6.613640
 20
2.141920
  0
VERTEX
  8
0
  6
CONTINUOUS
 10
6.616280
 20
1.385560
  0
VERTEX
  8
0
  6
CONTINUOUS
 10
6.559960
 20
1.387760
  0
SEQEND
  8
0
  0
SOLID
  8
0
 62
    15
 10
6.616280
 20
1.385560
 11
6.613640
 21
2.141920
 12
7.133720
 22
1.385560
 13
7.130640
 23
2.141920
  0
POLYLINE
  8
0
  6
CONTINUOUS
 66
     1
 40
0.000000
 41
0.000000
  0
VERTEX
  8
0
  6
CONTINUOUS
 10
6.616280
 20
1.385560
  0
VERTEX
  8
0
  6
CONTINUOUS
 10
6.613640
 20
2.141920
  0
VERTEX
  8
0
  6
CONTINUOUS
 10
7.130640
 20
2.141920
  0
VERTEX
  8
0
  6
CONTINUOUS
 10
7.133720
 20
1.385560
  0
VERTEX
  8
0
  6
CONTINUOUS
 10
6.616280
 20
1.385560
  0
SEQEND
  8
0
  0
SOLID
  8
0
 62
    15
 10
1.893760
 20
0.835120
 11
1.890680
 21
1.591040
 12
1.893760
 22
1.833480
 13
1.890680
 23
2.589840
  0
POLYLINE
  8
0
  6
CONTINUOUS
 66
     1
 40
0.000000
 41
0.000000
  0
VERTEX
  8
0
  6
CONTINUOUS
 10
1.893760
 20
0.835120
  0
VERTEX
  8
0
  6
CONTINUOUS
 10
1.890680
 20
1.591040
  0
VERTEX
  8
0
  6
CONTINUOUS
 10
1.890680
 20
2.589840
  0
VERTEX
  8
0
  6
CONTINUOUS
 10
1.893760
 20
1.833480
  0
VERTEX
  8
0
  6
CONTINUOUS
 10
1.893760
 20
0.835120
  0
SEQEND
  8
0
  0
SOLID
  8
0
 62
    15
 10
1.893760
 20
1.833480
 11
1.890680
 21
2.589840
 12
3.903240
 22
1.833480
 13
3.900160
 23
2.589840
  0
POLYLINE
  8
0
  6
CONTINUOUS
 66
     1
 40
0.000000
 41
0.000000
  0
VERTEX
  8
0
  6
CONTINUOUS
 10
1.893760
 20
1.833480
  0
VERTEX
  8
0
  6
CONTINUOUS
 10
1.890680
 20
2.589840
  0
VERTEX
  8
0
  6
CONTINUOUS
 10
3.900160
 20
2.589840
  0
VERTEX
  8
0
  6
CONTINUOUS
 10
3.903240
 20
1.833480
  0
VERTEX
  8
0
  6
CONTINUOUS
 10
1.893760
 20
1.833480
  0
SEQEND
  8
0
  0
POLYLINE
  8
0
  6
CONTINUOUS
 66
     1
 40
0.000000
 41
0.000000
  0
VERTEX
  8
0
  6
CONTINUOUS
 10
3.903240
 20
1.833480
  0
VERTEX
  8
0
  6
CONTINUOUS
 10
3.941080
 20
1.738440
  0
VERTEX
  8
0
  6
CONTINUOUS
 10
3.989040
 20
1.650440
  0
VERTEX
  8
0
  6
CONTINUOUS
 10
4.046680
 20
1.570800
  0
VERTEX
  8
0
  6
CONTINUOUS
 10
4.112240
 20
1.500400
  0
VERTEX
  8
0
  6
CONTINUOUS
 10
4.185280
 20
1.439680
  0
VERTEX
  8
0
  6
CONTINUOUS
 10
4.264920
 20
1.389520
  0
VERTEX
  8
0
  6
CONTINUOUS
 10
4.349400
 20
1.350360
  0
VERTEX
  8
0
  6
CONTINUOUS
 10
4.438280
 20
1.323520
  0
VERTEX
  8
0
  6
CONTINUOUS
 10
4.530680
 20
1.309440
  0
VERTEX
  8
0
  6
CONTINUOUS
 10
4.624840
 20
1.309000
  0
VERTEX
  8
0
  6
CONTINUOUS
 10
4.720320
 20
1.323080
  0
VERTEX
  8
0
  6
CONTINUOUS
 10
4.816240
 20
1.352560
  0
VERTEX
  8
0
  6
CONTINUOUS
 10
4.910840
 20
1.397440
  0
VERTEX
  8
0
  6
CONTINUOUS
 10
5.004120
 20
1.459480
  0
VERTEX
  8
0
  6
CONTINUOUS
 10
5.094320
 20
1.538680
  0
VERTEX
  8
0
  6
CONTINUOUS
 10
5.137880
 20
1.585320
  0
VERTEX
  8
0
  6
CONTINUOUS
 10
5.180560
 20
1.636360
  0
VERTEX
  8
0
  6
CONTINUOUS
 10
5.183200
 20
1.637680
  0
VERTEX
  8
0
  6
CONTINUOUS
 10
5.214000
 20
1.637680
  0
VERTEX
  8
0
  6
CONTINUOUS
 10
5.251840
 20
1.601160
  0
VERTEX
  8
0
  6
CONTINUOUS
 10
5.290120
 20
1.569480
  0
VERTEX
  8
0
  6
CONTINUOUS
 10
5.327960
 20
1.543080
  0
VERTEX
  8
0
  6
CONTINUOUS
 10
5.366240
 20
1.521520
  0
VERTEX
  8
0
  6
CONTINUOUS
 10
5.404080
 20
1.504800
  0
VERTEX
  8
0
  6
CONTINUOUS
 10
5.441920
 20
1.492920
  0
VERTEX
  8
0
  6
CONTINUOUS
 10
5.479320
 20
1.486320
  0
VERTEX
  8
0
  6
CONTINUOUS
 10
5.516280
 20
1.484560
  0
VERTEX
  8
0
  6
CONTINUOUS
 10
5.522000
 20
1.487200
  0
VERTEX
  8
0
  6
CONTINUOUS
 10
5.537840
 20
1.548360
  0
VERTEX
  8
0
  6
CONTINUOUS
 10
5.560720
 20
1.602920
  0
VERTEX
  8
0
  6
CONTINUOUS
 10
5.589760
 20
1.649560
  0
VERTEX
  8
0
  6
CONTINUOUS
 10
5.624960
 20
1.689160
  0
VERTEX
  8
0
  6
CONTINUOUS
 10
5.665000
 20
1.720400
  0
VERTEX
  8
0
  6
CONTINUOUS
 10
5.710320
 20
1.743720
  0
VERTEX
  8
0
  6
CONTINUOUS
 10
5.760040
 20
1.759120
  0
VERTEX
  8
0
  6
CONTINUOUS
 10
5.813720
 20
1.765720
  0
VERTEX
  8
0
  6
CONTINUOUS
 10
5.871360
 20
1.763520
  0
VERTEX
  8
0
  6
CONTINUOUS
 10
5.931640
 20
1.752520
  0
VERTEX
  8
0
  6
CONTINUOUS
 10
5.995000
 20
1.732280
  0
VERTEX
  8
0
  6
CONTINUOUS
 10
6.060560
 20
1.702800
  0
VERTEX
  8
0
  6
CONTINUOUS
 10
6.128320
 20
1.663640
  0
VERTEX
  8
0
  6
CONTINUOUS
 10
6.197400
 20
1.614800
  0
VERTEX
  8
0
  6
CONTINUOUS
 10
6.267360
 20
1.556280
  0
VERTEX
  8
0
  6
CONTINUOUS
 10
6.344800
 20
1.481040
  0
VERTEX
  8
0
  6
CONTINUOUS
 10
6.361520
 20
1.467840
  0
VERTEX
  8
0
  6
CONTINUOUS
 10
6.387040
 20
1.451120
  0
VERTEX
  8
0
  6
CONTINUOUS
 10
6.420480
 20
1.431760
  0
VERTEX
  8
0
  6
CONTINUOUS
 10
6.460960
 20
1.413280
  0
VERTEX
  8
0
  6
CONTINUOUS
 10
6.508040
 20
1.397880
  0
VERTEX
  8
0
  6
CONTINUOUS
 10
6.559960
 20
1.387760
  0
VERTEX
  8
0
  6
CONTINUOUS
 10
6.616280
 20
1.385560
  0
VERTEX
  8
0
  6
CONTINUOUS
 10
7.133720
 20
1.385560
  0
VERTEX
  8
0
  6
CONTINUOUS
 10
7.133720
 20
0.835120
  0
VERTEX
  8
0
  6
CONTINUOUS
 10
1.893760
 20
0.835120
  0
VERTEX
  8
0
  6
CONTINUOUS
 10
1.893760
 20
1.833480
  0
VERTEX
  8
0
  6
CONTINUOUS
 10
3.903240
 20
1.833480
  0
SEQEND
  8
0
  0
SOLID
  8
0
 62
     7
 10
2.631200
 20
2.743840
 11
2.631200
 21
3.482600
 12
2.707320
 22
2.739880
 13
2.707320
 23
3.478640
  0
POLYLINE
  8
0
  6
CONTINUOUS
 66
     1
 40
0.000000
 41
0.000000
  0
VERTEX
  8
0
  6
CONTINUOUS
 10
2.631200
 20
2.743840
  0
VERTEX
  8
0
  6
CONTINUOUS
 10
2.631200
 20
3.482600
  0
VERTEX
  8
0
  6
CONTINUOUS
 10
2.707320
 20
3.478640
  0
VERTEX
  8
0
  6
CONTINUOUS
 10
2.707320
 20
2.739880
  0
VERTEX
  8
0
  6
CONTINUOUS
 10
2.631200
 20
2.743840
  0
SEQEND
  8
0
  0
SOLID
  8
0
 62
    15
 10
1.889800
 20
1.994520
 11
1.889800
 21
2.733280
 12
1.893760
 22
2.071080
 13
1.893760
 23
2.809840
  0
POLYLINE
  8
0
  6
CONTINUOUS
 66
     1
 40
0.000000
 41
0.000000
  0
VERTEX
  8
0
  6
CONTINUOUS
 10
1.889800
 20
1.994520
  0
VERTEX
  8
0
  6
CONTINUOUS
 10
1.889800
 20
2.733280
  0
VERTEX
  8
0
  6
CONTINUOUS
 10
1.893760
 20
2.809840
  0
VERTEX
  8
0
  6
CONTINUOUS
 10
1.893760
 20
2.071080
  0
VERTEX
  8
0
  6
CONTINUOUS
 10
1.889800
 20
1.994520
  0
SEQEND
  8
0
  0
SOLID
  8
0
 62
    15
 10
1.893760
 20
2.071080
 11
1.893760
 21
2.809840
 12
1.904760
 22
2.145000
 13
1.904760
 23
2.883760
  0
POLYLINE
  8
0
  6
CONTINUOUS
 66
     1
 40
0.000000
 41
0.000000
  0
VERTEX
  8
0
  6
CONTINUOUS
 10
1.893760
 20
2.071080
  0
VERTEX
  8
0
  6
CONTINUOUS
 10
1.893760
 20
2.809840
  0
VERTEX
  8
0
  6
CONTINUOUS
 10
1.904760
 20
2.883760
  0
VERTEX
  8
0
  6
CONTINUOUS
 10
1.904760
 20
2.145000
  0
VERTEX
  8
0
  6
CONTINUOUS
 10
1.893760
 20
2.071080
  0
SEQEND
  8
0
  0
SOLID
  8
0
 62
    15
 10
1.904760
 20
2.145000
 11
1.904760
 21
2.883760
 12
1.922800
 22
2.216720
 13
1.922800
 23
2.955480
  0
POLYLINE
  8
0
  6
CONTINUOUS
 66
     1
 40
0.000000
 41
0.000000
  0
VERTEX
  8
0
  6
CONTINUOUS
 10
1.904760
 20
2.145000
  0
VERTEX
  8
0
  6
CONTINUOUS
 10
1.904760
 20
2.883760
  0
VERTEX
  8
0
  6
CONTINUOUS
 10
1.922800
 20
2.955480
  0
VERTEX
  8
0
  6
CONTINUOUS
 10
1.922800
 20
2.216720
  0
VERTEX
  8
0
  6
CONTINUOUS
 10
1.904760
 20
2.145000
  0
SEQEND
  8
0
  0
SOLID
  8
0
 62
    15
 10
1.922800
 20
2.216720
 11
1.922800
 21
2.955480
 12
1.947880
 22
2.285360
 13
1.947880
 23
3.024120
  0
POLYLINE
  8
0
  6
CONTINUOUS
 66
     1
 40
0.000000
 41
0.000000
  0
VERTEX
  8
0
  6
CONTINUOUS
 10
1.922800
 20
2.216720
  0
VERTEX
  8
0
  6
CONTINUOUS
 10
1.922800
 20
2.955480
  0
VERTEX
  8
0
  6
CONTINUOUS
 10
1.947880
 20
3.024120
  0
VERTEX
  8
0
  6
CONTINUOUS
 10
1.947880
 20
2.285360
  0
VERTEX
  8
0
  6
CONTINUOUS
 10
1.922800
 20
2.216720
  0
SEQEND
  8
0
  0
SOLID
  8
0
 62
    15
 10
1.947880
 20
2.285360
 11
1.947880
 21
3.024120
 12
1.978680
 22
2.350920
 13
1.978680
 23
3.089680
  0
POLYLINE
  8
0
  6
CONTINUOUS
 66
     1
 40
0.000000
 41
0.000000
  0
VERTEX
  8
0
  6
CONTINUOUS
 10
1.947880
 20
2.285360
  0
VERTEX
  8
0
  6
CONTINUOUS
 10
1.947880
 20
3.024120
  0
VERTEX
  8
0
  6
CONTINUOUS
 10
1.978680
 20
3.089680
  0
VERTEX
  8
0
  6
CONTINUOUS
 10
1.978680
 20
2.350920
  0
VERTEX
  8
0
  6
CONTINUOUS
 10
1.947880
 20
2.285360
  0
SEQEND
  8
0
  0
SOLID
  8
0
 62
    15
 10
1.978680
 20
2.350920
 11
1.978680
 21
3.089680
 12
2.015640
 22
2.412960
 13
2.015640
 23
3.151720
  0
POLYLINE
  8
0
  6
CONTINUOUS
 66
     1
 40
0.000000
 41
0.000000
  0
VERTEX
  8
0
  6
CONTINUOUS
 10
1.978680
 20
2.350920
  0
VERTEX
  8
0
  6
CONTINUOUS
 10
1.978680
 20
3.089680
  0
VERTEX
  8
0
  6
CONTINUOUS
 10
2.015640
 20
3.151720
  0
VERTEX
  8
0
  6
CONTINUOUS
 10
2.015640
 20
2.412960
  0
VERTEX
  8
0
  6
CONTINUOUS
 10
1.978680
 20
2.350920
  0
SEQEND
  8
0
  0
SOLID
  8
0
 62
    15
 10
2.015640
 20
2.412960
 11
2.015640
 21
3.151720
 12
2.058320
 22
2.470600
 13
2.058320
 23
3.209360
  0
POLYLINE
  8
0
  6
CONTINUOUS
 66
     1
 40
0.000000
 41
0.000000
  0
VERTEX
  8
0
  6
CONTINUOUS
 10
2.015640
 20
2.412960
  0
VERTEX
  8
0
  6
CONTINUOUS
 10
2.015640
 20
3.151720
  0
VERTEX
  8
0
  6
CONTINUOUS
 10
2.058320
 20
3.209360
  0
VERTEX
  8
0
  6
CONTINUOUS
 10
2.058320
 20
2.470600
  0
VERTEX
  8
0
  6
CONTINUOUS
 10
2.015640
 20
2.412960
  0
SEQEND
  8
0
  0
SOLID
  8
0
 62
    15
 10
2.058320
 20
2.470600
 11
2.058320
 21
3.209360
 12
2.105840
 22
2.523840
 13
2.105840
 23
3.262600
  0
POLYLINE
  8
0
  6
CONTINUOUS
 66
     1
 40
0.000000
 41
0.000000
  0
VERTEX
  8
0
  6
CONTINUOUS
 10
2.058320
 20
2.470600
  0
VERTEX
  8
0
  6
CONTINUOUS
 10
2.058320
 20
3.209360
  0
VERTEX
  8
0
  6
CONTINUOUS
 10
2.105840
 20
3.262600
  0
VERTEX
  8
0
  6
CONTINUOUS
 10
2.105840
 20
2.523840
  0
VERTEX
  8
0
  6
CONTINUOUS
 10
2.058320
 20
2.470600
  0
SEQEND
  8
0
  0
SOLID
  8
0
 62
    15
 10
2.105840
 20
2.523840
 11
2.105840
 21
3.262600
 12
2.158640
 22
2.572240
 13
2.158640
 23
3.311000
  0
POLYLINE
  8
0
  6
CONTINUOUS
 66
     1
 40
0.000000
 41
0.000000
  0
VERTEX
  8
0
  6
CONTINUOUS
 10
2.105840
 20
2.523840
  0
VERTEX
  8
0
  6
CONTINUOUS
 10
2.105840
 20
3.262600
  0
VERTEX
  8
0
  6
CONTINUOUS
 10
2.158640
 20
3.311000
  0
VERTEX
  8
0
  6
CONTINUOUS
 10
2.158640
 20
2.572240
  0
VERTEX
  8
0
  6
CONTINUOUS
 10
2.105840
 20
2.523840
  0
SEQEND
  8
0
  0
SOLID
  8
0
 62
    15
 10
2.158640
 20
2.572240
 11
2.158640
 21
3.311000
 12
2.215400
 22
2.615360
 13
2.215400
 23
3.354120
  0
POLYLINE
  8
0
  6
CONTINUOUS
 66
     1
 40
0.000000
 41
0.000000
  0
VERTEX
  8
0
  6
CONTINUOUS
 10
2.158640
 20
2.572240
  0
VERTEX
  8
0
  6
CONTINUOUS
 10
2.158640
 20
3.311000
  0
VERTEX
  8
0
  6
CONTINUOUS
 10
2.215400
 20
3.354120
  0
VERTEX
  8
0
  6
CONTINUOUS
 10
2.215400
 20
2.615360
  0
VERTEX
  8
0
  6
CONTINUOUS
 10
2.158640
 20
2.572240
  0
SEQEND
  8
0
  0
SOLID
  8
0
 62
    15
 10
2.215400
 20
2.615360
 11
2.215400
 21
3.354120
 12
2.276560
 22
2.653200
 13
2.276560
 23
3.391960
  0
POLYLINE
  8
0
  6
CONTINUOUS
 66
     1
 40
0.000000
 41
0.000000
  0
VERTEX
  8
0
  6
CONTINUOUS
 10
2.215400
 20
2.615360
  0
VERTEX
  8
0
  6
CONTINUOUS
 10
2.215400
 20
3.354120
  0
VERTEX
  8
0
  6
CONTINUOUS
 10
2.276560
 20
3.391960
  0
VERTEX
  8
0
  6
CONTINUOUS
 10
2.276560
 20
2.653200
  0
VERTEX
  8
0
  6
CONTINUOUS
 10
2.215400
 20
2.615360
  0
SEQEND
  8
0
  0
SOLID
  8
0
 62
    15
 10
2.276560
 20
2.653200
 11
2.276560
 21
3.391960
 12
2.341680
 22
2.684880
 13
2.341680
 23
3.423640
  0
POLYLINE
  8
0
  6
CONTINUOUS
 66
     1
 40
0.000000
 41
0.000000
  0
VERTEX
  8
0
  6
CONTINUOUS
 10
2.276560
 20
2.653200
  0
VERTEX
  8
0
  6
CONTINUOUS
 10
2.276560
 20
3.391960
  0
VERTEX
  8
0
  6
CONTINUOUS
 10
2.341680
 20
3.423640
  0
VERTEX
  8
0
  6
CONTINUOUS
 10
2.341680
 20
2.684880
  0
VERTEX
  8
0
  6
CONTINUOUS
 10
2.276560
 20
2.653200
  0
SEQEND
  8
0
  0
SOLID
  8
0
 62
    15
 10
2.341680
 20
2.684880
 11
2.341680
 21
3.423640
 12
2.409880
 22
2.709960
 13
2.409880
 23
3.448720
  0
POLYLINE
  8
0
  6
CONTINUOUS
 66
     1
 40
0.000000
 41
0.000000
  0
VERTEX
  8
0
  6
CONTINUOUS
 10
2.341680
 20
2.684880
  0
VERTEX
  8
0
  6
CONTINUOUS
 10
2.341680
 20
3.423640
  0
VERTEX
  8
0
  6
CONTINUOUS
 10
2.409880
 20
3.448720
  0
VERTEX
  8
0
  6
CONTINUOUS
 10
2.409880
 20
2.709960
  0
VERTEX
  8
0
  6
CONTINUOUS
 10
2.341680
 20
2.684880
  0
SEQEND
  8
0
  0
SOLID
  8
0
 62
    15
 10
2.409880
 20
2.709960
 11
2.409880
 21
3.448720
 12
2.481160
 22
2.728440
 13
2.481160
 23
3.467200
  0
POLYLINE
  8
0
  6
CONTINUOUS
 66
     1
 40
0.000000
 41
0.000000
  0
VERTEX
  8
0
  6
CONTINUOUS
 10
2.409880
 20
2.709960
  0
VERTEX
  8
0
  6
CONTINUOUS
 10
2.409880
 20
3.448720
  0
VERTEX
  8
0
  6
CONTINUOUS
 10
2.481160
 20
3.467200
  0
VERTEX
  8
0
  6
CONTINUOUS
 10
2.481160
 20
2.728440
  0
VERTEX
  8
0
  6
CONTINUOUS
 10
2.409880
 20
2.709960
  0
SEQEND
  8
0
  0
SOLID
  8
0
 62
     7
 10
2.481160
 20
2.728440
 11
2.481160
 21
3.467200
 12
2.555080
 22
2.739880
 13
2.555080
 23
3.478640
  0
POLYLINE
  8
0
  6
CONTINUOUS
 66
     1
 40
0.000000
 41
0.000000
  0
VERTEX
  8
0
  6
CONTINUOUS
 10
2.481160
 20
2.728440
  0
VERTEX
  8
0
  6
CONTINUOUS
 10
2.481160
 20
3.467200
  0
VERTEX
  8
0
  6
CONTINUOUS
 10
2.555080
 20
3.478640
  0
VERTEX
  8
0
  6
CONTINUOUS
 10
2.555080
 20
2.739880
  0
VERTEX
  8
0
  6
CONTINUOUS
 10
2.481160
 20
2.728440
  0
SEQEND
  8
0
  0
SOLID
  8
0
 62
     7
 10
2.555080
 20
2.739880
 11
2.555080
 21
3.478640
 12
2.631200
 22
2.743840
 13
2.631200
 23
3.482600
  0
POLYLINE
  8
0
  6
CONTINUOUS
 66
     1
 40
0.000000
 41
0.000000
  0
VERTEX
  8
0
  6
CONTINUOUS
 10
2.555080
 20
2.739880
  0
VERTEX
  8
0
  6
CONTINUOUS
 10
2.555080
 20
3.478640
  0
VERTEX
  8
0
  6
CONTINUOUS
 10
2.631200
 20
3.482600
  0
VERTEX
  8
0
  6
CONTINUOUS
 10
2.631200
 20
2.743840
  0
VERTEX
  8
0
  6
CONTINUOUS
 10
2.555080
 20
2.739880
  0
SEQEND
  8
0
  0
SOLID
  8
0
 62
    15
 10
1.889360
 20
2.002440
 11
1.889360
 21
2.741200
 12
1.889800
 22
1.994520
 13
1.889800
 23
2.733280
  0
POLYLINE
  8
0
  6
CONTINUOUS
 66
     1
 40
0.000000
 41
0.000000
  0
VERTEX
  8
0
  6
CONTINUOUS
 10
1.889360
 20
2.002440
  0
VERTEX
  8
0
  6
CONTINUOUS
 10
1.889360
 20
2.741200
  0
VERTEX
  8
0
  6
CONTINUOUS
 10
1.889800
 20
2.733280
  0
VERTEX
  8
0
  6
CONTINUOUS
 10
1.889800
 20
1.994520
  0
VERTEX
  8
0
  6
CONTINUOUS
 10
1.889360
 20
2.002440
  0
SEQEND
  8
0
  0
SOLID
  8
0
 62
     7
 10
2.707320
 20
2.739880
 11
2.707320
 21
3.478640
 12
2.781680
 22
2.728440
 13
2.781680
 23
3.467200
  0
POLYLINE
  8
0
  6
CONTINUOUS
 66
     1
 40
0.000000
 41
0.000000
  0
VERTEX
  8
0
  6
CONTINUOUS
 10
2.707320
 20
2.739880
  0
VERTEX
  8
0
  6
CONTINUOUS
 10
2.707320
 20
3.478640
  0
VERTEX
  8
0
  6
CONTINUOUS
 10
2.781680
 20
3.467200
  0
VERTEX
  8
0
  6
CONTINUOUS
 10
2.781680
 20
2.728440
  0
VERTEX
  8
0
  6
CONTINUOUS
 10
2.707320
 20
2.739880
  0
SEQEND
  8
0
  0
SOLID
  8
0
 62
     7
 10
2.781680
 20
2.728440
 11
2.781680
 21
3.467200
 12
2.853400
 22
2.709960
 13
2.853400
 23
3.448720
  0
POLYLINE
  8
0
  6
CONTINUOUS
 66
     1
 40
0.000000
 41
0.000000
  0
VERTEX
  8
0
  6
CONTINUOUS
 10
2.781680
 20
2.728440
  0
VERTEX
  8
0
  6
CONTINUOUS
 10
2.781680
 20
3.467200
  0
VERTEX
  8
0
  6
CONTINUOUS
 10
2.853400
 20
3.448720
  0
VERTEX
  8
0
  6
CONTINUOUS
 10
2.853400
 20
2.709960
  0
VERTEX
  8
0
  6
CONTINUOUS
 10
2.781680
 20
2.728440
  0
SEQEND
  8
0
  0
SOLID
  8
0
 62
     7
 10
2.853400
 20
2.709960
 11
2.853400
 21
3.448720
 12
2.922040
 22
2.684880
 13
2.922040
 23
3.423640
  0
POLYLINE
  8
0
  6
CONTINUOUS
 66
     1
 40
0.000000
 41
0.000000
  0
VERTEX
  8
0
  6
CONTINUOUS
 10
2.853400
 20
2.709960
  0
VERTEX
  8
0
  6
CONTINUOUS
 10
2.853400
 20
3.448720
  0
VERTEX
  8
0
  6
CONTINUOUS
 10
2.922040
 20
3.423640
  0
VERTEX
  8
0
  6
CONTINUOUS
 10
2.922040
 20
2.684880
  0
VERTEX
  8
0
  6
CONTINUOUS
 10
2.853400
 20
2.709960
  0
SEQEND
  8
0
  0
SOLID
  8
0
 62
     7
 10
2.922040
 20
2.684880
 11
2.922040
 21
3.423640
 12
2.987600
 22
2.653200
 13
2.987600
 23
3.391960
  0
POLYLINE
  8
0
  6
CONTINUOUS
 66
     1
 40
0.000000
 41
0.000000
  0
VERTEX
  8
0
  6
CONTINUOUS
 10
2.922040
 20
2.684880
  0
VERTEX
  8
0
  6
CONTINUOUS
 10
2.922040
 20
3.423640
  0
VERTEX
  8
0
  6
CONTINUOUS
 10
2.987600
 20
3.391960
  0
VERTEX
  8
0
  6
CONTINUOUS
 10
2.987600
 20
2.653200
  0
VERTEX
  8
0
  6
CONTINUOUS
 10
2.922040
 20
2.684880
  0
SEQEND
  8
0
  0
SOLID
  8
0
 62
     7
 10
2.987600
 20
2.653200
 11
2.987600
 21
3.391960
 12
3.049200
 22
2.615360
 13
3.049200
 23
3.354120
  0
POLYLINE
  8
0
  6
CONTINUOUS
 66
     1
 40
0.000000
 41
0.000000
  0
VERTEX
  8
0
  6
CONTINUOUS
 10
2.987600
 20
2.653200
  0
VERTEX
  8
0
  6
CONTINUOUS
 10
2.987600
 20
3.391960
  0
VERTEX
  8
0
  6
CONTINUOUS
 10
3.049200
 20
3.354120
  0
VERTEX
  8
0
  6
CONTINUOUS
 10
3.049200
 20
2.615360
  0
VERTEX
  8
0
  6
CONTINUOUS
 10
2.987600
 20
2.653200
  0
SEQEND
  8
0
  0
SOLID
  8
0
 62
     7
 10
3.049200
 20
2.615360
 11
3.049200
 21
3.354120
 12
3.106840
 22
2.572240
 13
3.106840
 23
3.311000
  0
POLYLINE
  8
0
  6
CONTINUOUS
 66
     1
 40
0.000000
 41
0.000000
  0
VERTEX
  8
0
  6
CONTINUOUS
 10
3.049200
 20
2.615360
  0
VERTEX
  8
0
  6
CONTINUOUS
 10
3.049200
 20
3.354120
  0
VERTEX
  8
0
  6
CONTINUOUS
 10
3.106840
 20
3.311000
  0
VERTEX
  8
0
  6
CONTINUOUS
 10
3.106840
 20
2.572240
  0
VERTEX
  8
0
  6
CONTINUOUS
 10
3.049200
 20
2.615360
  0
SEQEND
  8
0
  0
SOLID
  8
0
 62
    15
 10
3.106840
 20
2.572240
 11
3.106840
 21
3.311000
 12
3.160520
 22
2.523840
 13
3.160520
 23
3.262600
  0
POLYLINE
  8
0
  6
CONTINUOUS
 66
     1
 40
0.000000
 41
0.000000
  0
VERTEX
  8
0
  6
CONTINUOUS
 10
3.106840
 20
2.572240
  0
VERTEX
  8
0
  6
CONTINUOUS
 10
3.106840
 20
3.311000
  0
VERTEX
  8
0
  6
CONTINUOUS
 10
3.160520
 20
3.262600
  0
VERTEX
  8
0
  6
CONTINUOUS
 10
3.160520
 20
2.523840
  0
VERTEX
  8
0
  6
CONTINUOUS
 10
3.106840
 20
2.572240
  0
SEQEND
  8
0
  0
SOLID
  8
0
 62
    15
 10
3.160520
 20
2.523840
 11
3.160520
 21
3.262600
 12
3.208920
 22
2.470600
 13
3.208920
 23
3.209360
  0
POLYLINE
  8
0
  6
CONTINUOUS
 66
     1
 40
0.000000
 41
0.000000
  0
VERTEX
  8
0
  6
CONTINUOUS
 10
3.160520
 20
2.523840
  0
VERTEX
  8
0
  6
CONTINUOUS
 10
3.160520
 20
3.262600
  0
VERTEX
  8
0
  6
CONTINUOUS
 10
3.208920
 20
3.209360
  0
VERTEX
  8
0
  6
CONTINUOUS
 10
3.208920
 20
2.470600
  0
VERTEX
  8
0
  6
CONTINUOUS
 10
3.160520
 20
2.523840
  0
SEQEND
  8
0
  0
SOLID
  8
0
 62
    15
 10
3.208920
 20
2.470600
 11
3.208920
 21
3.209360
 12
3.252040
 22
2.412960
 13
3.252040
 23
3.151720
  0
POLYLINE
  8
0
  6
CONTINUOUS
 66
     1
 40
0.000000
 41
0.000000
  0
VERTEX
  8
0
  6
CONTINUOUS
 10
3.208920
 20
2.470600
  0
VERTEX
  8
0
  6
CONTINUOUS
 10
3.208920
 20
3.209360
  0
VERTEX
  8
0
  6
CONTINUOUS
 10
3.252040
 20
3.151720
  0
VERTEX
  8
0
  6
CONTINUOUS
 10
3.252040
 20
2.412960
  0
VERTEX
  8
0
  6
CONTINUOUS
 10
3.208920
 20
2.470600
  0
SEQEND
  8
0
  0
SOLID
  8
0
 62
    15
 10
3.252040
 20
2.412960
 11
3.252040
 21
3.151720
 12
3.289440
 22
2.350920
 13
3.289440
 23
3.089680
  0
POLYLINE
  8
0
  6
CONTINUOUS
 66
     1
 40
0.000000
 41
0.000000
  0
VERTEX
  8
0
  6
CONTINUOUS
 10
3.252040
 20
2.412960
  0
VERTEX
  8
0
  6
CONTINUOUS
 10
3.252040
 20
3.151720
  0
VERTEX
  8
0
  6
CONTINUOUS
 10
3.289440
 20
3.089680
  0
VERTEX
  8
0
  6
CONTINUOUS
 10
3.289440
 20
2.350920
  0
VERTEX
  8
0
  6
CONTINUOUS
 10
3.252040
 20
2.412960
  0
SEQEND
  8
0
  0
SOLID
  8
0
 62
    15
 10
3.289440
 20
2.350920
 11
3.289440
 21
3.089680
 12
3.321120
 22
2.285360
 13
3.321120
 23
3.024120
  0
POLYLINE
  8
0
  6
CONTINUOUS
 66
     1
 40
0.000000
 41
0.000000
  0
VERTEX
  8
0
  6
CONTINUOUS
 10
3.289440
 20
2.350920
  0
VERTEX
  8
0
  6
CONTINUOUS
 10
3.289440
 20
3.089680
  0
VERTEX
  8
0
  6
CONTINUOUS
 10
3.321120
 20
3.024120
  0
VERTEX
  8
0
  6
CONTINUOUS
 10
3.321120
 20
2.285360
  0
VERTEX
  8
0
  6
CONTINUOUS
 10
3.289440
 20
2.350920
  0
SEQEND
  8
0
  0
SOLID
  8
0
 62
    15
 10
3.321120
 20
2.285360
 11
3.321120
 21
3.024120
 12
3.346640
 22
2.216720
 13
3.346640
 23
2.955480
  0
POLYLINE
  8
0
  6
CONTINUOUS
 66
     1
 40
0.000000
 41
0.000000
  0
VERTEX
  8
0
  6
CONTINUOUS
 10
3.321120
 20
2.285360
  0
VERTEX
  8
0
  6
CONTINUOUS
 10
3.321120
 20
3.024120
  0
VERTEX
  8
0
  6
CONTINUOUS
 10
3.346640
 20
2.955480
  0
VERTEX
  8
0
  6
CONTINUOUS
 10
3.346640
 20
2.216720
  0
VERTEX
  8
0
  6
CONTINUOUS
 10
3.321120
 20
2.285360
  0
SEQEND
  8
0
  0
SOLID
  8
0
 62
    15
 10
3.346640
 20
2.216720
 11
3.346640
 21
2.955480
 12
3.365120
 22
2.145000
 13
3.365120
 23
2.883760
  0
POLYLINE
  8
0
  6
CONTINUOUS
 66
     1
 40
0.000000
 41
0.000000
  0
VERTEX
  8
0
  6
CONTINUOUS
 10
3.346640
 20
2.216720
  0
VERTEX
  8
0
  6
CONTINUOUS
 10
3.346640
 20
2.955480
  0
VERTEX
  8
0
  6
CONTINUOUS
 10
3.365120
 20
2.883760
  0
VERTEX
  8
0
  6
CONTINUOUS
 10
3.365120
 20
2.145000
  0
VERTEX
  8
0
  6
CONTINUOUS
 10
3.346640
 20
2.216720
  0
SEQEND
  8
0
  0
SOLID
  8
0
 62
    15
 10
3.365120
 20
2.145000
 11
3.365120
 21
2.883760
 12
3.376560
 22
2.071080
 13
3.376560
 23
2.809840
  0
POLYLINE
  8
0
  6
CONTINUOUS
 66
     1
 40
0.000000
 41
0.000000
  0
VERTEX
  8
0
  6
CONTINUOUS
 10
3.365120
 20
2.145000
  0
VERTEX
  8
0
  6
CONTINUOUS
 10
3.365120
 20
2.883760
  0
VERTEX
  8
0
  6
CONTINUOUS
 10
3.376560
 20
2.809840
  0
VERTEX
  8
0
  6
CONTINUOUS
 10
3.376560
 20
2.071080
  0
VERTEX
  8
0
  6
CONTINUOUS
 10
3.365120
 20
2.145000
  0
SEQEND
  8
0
  0
SOLID
  8
0
 62
    15
 10
3.376560
 20
2.071080
 11
3.376560
 21
2.809840
 12
3.380520
 22
1.994520
 13
3.380520
 23
2.733280
  0
POLYLINE
  8
0
  6
CONTINUOUS
 66
     1
 40
0.000000
 41
0.000000
  0
VERTEX
  8
0
  6
CONTINUOUS
 10
3.376560
 20
2.071080
  0
VERTEX
  8
0
  6
CONTINUOUS
 10
3.376560
 20
2.809840
  0
VERTEX
  8
0
  6
CONTINUOUS
 10
3.380520
 20
2.733280
  0
VERTEX
  8
0
  6
CONTINUOUS
 10
3.380520
 20
1.994520
  0
VERTEX
  8
0
  6
CONTINUOUS
 10
3.376560
 20
2.071080
  0
SEQEND
  8
0
  0
SOLID
  8
0
 62
    15
 10
3.380520
 20
1.994520
 11
3.380520
 21
2.733280
 12
3.381840
 22
2.002440
 13
3.381840
 23
2.741200
  0
POLYLINE
  8
0
  6
CONTINUOUS
 66
     1
 40
0.000000
 41
0.000000
  0
VERTEX
  8
0
  6
CONTINUOUS
 10
3.380520
 20
1.994520
  0
VERTEX
  8
0
  6
CONTINUOUS
 10
3.380520
 20
2.733280
  0
VERTEX
  8
0
  6
CONTINUOUS
 10
3.381840
 20
2.741200
  0
VERTEX
  8
0
  6
CONTINUOUS
 10
3.381840
 20
2.002440
  0
VERTEX
  8
0
  6
CONTINUOUS
 10
3.380520
 20
1.994520
  0
SEQEND
  8
0
  0
POLYLINE
  8
0
  6
CONTINUOUS
 66
     1
 40
0.000000
 41
0.000000
  0
VERTEX
  8
0
  6
CONTINUOUS
 10
3.381840
 20
2.002440
  0
VERTEX
  8
0
  6
CONTINUOUS
 10
3.381840
 20
1.839640
  0
VERTEX
  8
0
  6
CONTINUOUS
 10
1.889360
 20
1.839640
  0
VERTEX
  8
0
  6
CONTINUOUS
 10
1.889360
 20
2.002440
  0
VERTEX
  8
0
  6
CONTINUOUS
 10
1.889800
 20
1.994520
  0
VERTEX
  8
0
  6
CONTINUOUS
 10
1.893760
 20
2.071080
  0
VERTEX
  8
0
  6
CONTINUOUS
 10
1.904760
 20
2.145000
  0
VERTEX
  8
0
  6
CONTINUOUS
 10
1.922800
 20
2.216720
  0
VERTEX
  8
0
  6
CONTINUOUS
 10
1.947880
 20
2.285360
  0
VERTEX
  8
0
  6
CONTINUOUS
 10
1.978680
 20
2.350920
  0
VERTEX
  8
0
  6
CONTINUOUS
 10
2.015640
 20
2.412960
  0
VERTEX
  8
0
  6
CONTINUOUS
 10
2.058320
 20
2.470600
  0
VERTEX
  8
0
  6
CONTINUOUS
 10
2.105840
 20
2.523840
  0
VERTEX
  8
0
  6
CONTINUOUS
 10
2.158640
 20
2.572240
  0
VERTEX
  8
0
  6
CONTINUOUS
 10
2.215400
 20
2.615360
  0
VERTEX
  8
0
  6
CONTINUOUS
 10
2.276560
 20
2.653200
  0
VERTEX
  8
0
  6
CONTINUOUS
 10
2.341680
 20
2.684880
  0
VERTEX
  8
0
  6
CONTINUOUS
 10
2.409880
 20
2.709960
  0
VERTEX
  8
0
  6
CONTINUOUS
 10
2.481160
 20
2.728440
  0
VERTEX
  8
0
  6
CONTINUOUS
 10
2.555080
 20
2.739880
  0
VERTEX
  8
0
  6
CONTINUOUS
 10
2.631200
 20
2.743840
  0
VERTEX
  8
0
  6
CONTINUOUS
 10
2.707320
 20
2.739880
  0
VERTEX
  8
0
  6
CONTINUOUS
 10
2.781680
 20
2.728440
  0
VERTEX
  8
0
  6
CONTINUOUS
 10
2.853400
 20
2.709960
  0
VERTEX
  8
0
  6
CONTINUOUS
 10
2.922040
 20
2.684880
  0
VERTEX
  8
0
  6
CONTINUOUS
 10
2.987600
 20
2.653200
  0
VERTEX
  8
0
  6
CONTINUOUS
 10
3.049200
 20
2.615360
  0
VERTEX
  8
0
  6
CONTINUOUS
 10
3.106840
 20
2.572240
  0
VERTEX
  8
0
  6
CONTINUOUS
 10
3.160520
 20
2.523840
  0
VERTEX
  8
0
  6
CONTINUOUS
 10
3.208920
 20
2.470600
  0
VERTEX
  8
0
  6
CONTINUOUS
 10
3.252040
 20
2.412960
  0
VERTEX
  8
0
  6
CONTINUOUS
 10
3.289440
 20
2.350920
  0
VERTEX
  8
0
  6
CONTINUOUS
 10
3.321120
 20
2.285360
  0
VERTEX
  8
0
  6
CONTINUOUS
 10
3.346640
 20
2.216720
  0
VERTEX
  8
0
  6
CONTINUOUS
 10
3.365120
 20
2.145000
  0
VERTEX
  8
0
  6
CONTINUOUS
 10
3.376560
 20
2.071080
  0
VERTEX
  8
0
  6
CONTINUOUS
 10
3.380520
 20
1.994520
  0
VERTEX
  8
0
  6
CONTINUOUS
 10
3.381840
 20
2.002440
  0
SEQEND
  8
0
  0
TEXT
  8
0
 10
3.806880
 20
0.573760
 40
0.137913
  1
 BA  276 1" x 5-1/4"
 41
1.000000
  7
SN0
 71
     0
 72
     5
 11
5.258183
 21
0.573760
  0
TEXT
  8
0
 10
3.806880
 20
0.382360
 40
0.137913
  1
BA  200 15/16" x 1-1/2"
 41
1.000000
  7
SN0
 71
     0
 72
     5
 11
5.529233
 21
0.382360
  0
TEXT
  8
0
 10
1.953160
 20
1.877920
 40
0.137913
  1
200
 41
1.000000
  7
SN0
 71
     0
 72
     5
 11
2.230427
 21
1.877920
  0
TEXT
  8
0
 10
1.954920
 20
0.871200
 40
0.137913
  1
276
 41
1.000000
  7
SN0
 71
     0
 72
     5
 11
2.232187
 21
0.871200
  0
POLYLINE
  8
0
  6
CONTINUOUS
 66
     1
 40
0.000000
 41
0.000000
  0
VERTEX
  8
0
  6
CONTINUOUS
 10
3.874640
 20
4.875200
  0
VERTEX
  8
0
  6
CONTINUOUS
 10
3.892240
 20
4.826800
  0
VERTEX
  8
0
  6
CONTINUOUS
 10
3.912480
 20
4.779720
  0
VERTEX
  8
0
  6
CONTINUOUS
 10
3.947680
 20
4.713280
  0
VERTEX
  8
0
  6
CONTINUOUS
 10
3.988160
 20
4.651240
  0
VERTEX
  8
0
  6
CONTINUOUS
 10
4.018080
 20
4.612520
  0
VERTEX
  8
0
  6
CONTINUOUS
 10
4.066480
 20
4.558840
  0
VERTEX
  8
0
  6
CONTINUOUS
 10
4.101240
 20
4.525840
  0
VERTEX
  8
0
  6
CONTINUOUS
 10
4.157120
 20
4.480960
  0
VERTEX
  8
0
  6
CONTINUOUS
 10
4.195840
 20
4.454560
  0
VERTEX
  8
0
  6
CONTINUOUS
 10
4.257000
 20
4.419800
  0
VERTEX
  8
0
  6
CONTINUOUS
 10
4.320800
 20
4.391640
  0
VERTEX
  8
0
  6
CONTINUOUS
 10
4.364800
 20
4.376680
  0
VERTEX
  8
0
  6
CONTINUOUS
 10
4.432560
 20
4.359960
  0
VERTEX
  8
0
  6
CONTINUOUS
 10
4.502080
 20
4.350720
  0
VERTEX
  8
0
  6
CONTINUOUS
 10
4.549160
 20
4.348960
  0
VERTEX
  8
0
  6
CONTINUOUS
 10
4.596240
 20
4.350280
  0
VERTEX
  8
0
  6
CONTINUOUS
 10
4.644200
 20
4.355560
  0
VERTEX
  8
0
  6
CONTINUOUS
 10
4.691720
 20
4.364360
  0
VERTEX
  8
0
  6
CONTINUOUS
 10
4.739680
 20
4.377120
  0
VERTEX
  8
0
  6
CONTINUOUS
 10
4.787640
 20
4.393840
  0
VERTEX
  8
0
  6
CONTINUOUS
 10
4.835160
 20
4.414080
  0
VERTEX
  8
0
  6
CONTINUOUS
 10
4.882680
 20
4.438720
  0
VERTEX
  8
0
  6
CONTINUOUS
 10
4.952640
 20
4.483600
  0
VERTEX
  8
0
  6
CONTINUOUS
 10
4.998400
 20
4.518800
  0
VERTEX
  8
0
  6
CONTINUOUS
 10
5.065720
 20
4.579960
  0
VERTEX
  8
0
  6
CONTINUOUS
 10
5.130840
 20
4.651680
  0
VERTEX
  8
0
  6
CONTINUOUS
 10
5.151960
 20
4.677640
  0
VERTEX
  8
0
  6
CONTINUOUS
 10
5.154600
 20
4.678960
  0
VERTEX
  8
0
  6
CONTINUOUS
 10
5.185400
 20
4.678960
  0
VERTEX
  8
0
  6
CONTINUOUS
 10
5.223240
 20
4.642440
  0
VERTEX
  8
0
  6
CONTINUOUS
 10
5.280440
 20
4.597120
  0
VERTEX
  8
0
  6
CONTINUOUS
 10
5.318720
 20
4.572920
  0
VERTEX
  8
0
  6
CONTINUOUS
 10
5.356560
 20
4.554000
  0
VERTEX
  8
0
  6
CONTINUOUS
 10
5.394400
 20
4.539920
  0
VERTEX
  8
0
  6
CONTINUOUS
 10
5.431800
 20
4.530680
  0
VERTEX
  8
0
  6
CONTINUOUS
 10
5.450720
 20
4.527600
  0
VERTEX
  8
0
  6
CONTINUOUS
 10
5.487680
 20
4.525840
  0
VERTEX
  8
0
  6
CONTINUOUS
 10
5.493400
 20
4.528480
  0
VERTEX
  8
0
  6
CONTINUOUS
 10
5.500440
 20
4.560160
  0
VERTEX
  8
0
  6
CONTINUOUS
 10
5.509680
 20
4.590080
  0
VERTEX
  8
0
  6
CONTINUOUS
 10
5.520240
 20
4.618240
  0
VERTEX
  8
0
  6
CONTINUOUS
 10
5.532560
 20
4.644200
  0
VERTEX
  8
0
  6
CONTINUOUS
 10
5.546200
 20
4.668840
  0
VERTEX
  8
0
  6
CONTINUOUS
 10
5.561600
 20
4.691280
  0
VERTEX
  8
0
  6
CONTINUOUS
 10
5.578320
 20
4.711960
  0
VERTEX
  8
0
  6
CONTINUOUS
 10
5.596360
 20
4.730440
  0
VERTEX
  8
0
  6
CONTINUOUS
 10
5.615720
 20
4.747160
  0
VERTEX
  8
0
  6
CONTINUOUS
 10
5.636400
 20
4.761680
  0
VERTEX
  8
0
  6
CONTINUOUS
 10
5.658400
 20
4.774440
  0
VERTEX
  8
0
  6
CONTINUOUS
 10
5.681720
 20
4.785440
  0
VERTEX
  8
0
  6
CONTINUOUS
 10
5.705920
 20
4.793800
  0
VERTEX
  8
0
  6
CONTINUOUS
 10
5.731440
 20
4.800400
  0
VERTEX
  8
0
  6
CONTINUOUS
 10
5.757840
 20
4.804800
  0
VERTEX
  8
0
  6
CONTINUOUS
 10
5.785120
 20
4.807000
  0
VERTEX
  8
0
  6
CONTINUOUS
 10
5.813280
 20
4.807000
  0
VERTEX
  8
0
  6
CONTINUOUS
 10
5.842320
 20
4.804800
  0
VERTEX
  8
0
  6
CONTINUOUS
 10
5.872240
 20
4.800400
  0
VERTEX
  8
0
  6
CONTINUOUS
 10
5.903040
 20
4.793800
  0
VERTEX
  8
0
  6
CONTINUOUS
 10
5.934280
 20
4.785000
  0
VERTEX
  8
0
  6
CONTINUOUS
 10
5.966400
 20
4.774000
  0
VERTEX
  8
0
  6
CONTINUOUS
 10
5.998960
 20
4.760360
  0
VERTEX
  8
0
  6
CONTINUOUS
 10
6.065400
 20
4.726040
  0
VERTEX
  8
0
  6
CONTINUOUS
 10
6.134040
 20
4.682040
  0
VERTEX
  8
0
  6
CONTINUOUS
 10
6.203560
 20
4.628360
  0
VERTEX
  8
0
  6
CONTINUOUS
 10
6.273960
 20
4.564120
  0
VERTEX
  8
0
  6
CONTINUOUS
 10
6.316200
 20
4.522320
  0
VERTEX
  8
0
  6
CONTINUOUS
 10
6.358440
 20
4.492400
  0
VERTEX
  8
0
  6
CONTINUOUS
 10
6.391880
 20
4.473040
  0
VERTEX
  8
0
  6
CONTINUOUS
 10
6.432360
 20
4.454560
  0
VERTEX
  8
0
  6
CONTINUOUS
 10
6.479000
 20
4.439160
  0
VERTEX
  8
0
  6
CONTINUOUS
 10
6.531360
 20
4.429040
  0
VERTEX
  8
0
  6
CONTINUOUS
 10
6.573160
 20
4.426400
  0
VERTEX
  8
0
  6
CONTINUOUS
 10
7.105120
 20
4.426840
  0
VERTEX
  8
0
  6
CONTINUOUS
 10
7.105120
 20
3.876400
  0
VERTEX
  8
0
  6
CONTINUOUS
 10
1.865160
 20
3.876400
  0
VERTEX
  8
0
  6
CONTINUOUS
 10
1.865160
 20
4.875200
  0
VERTEX
  8
0
  6
CONTINUOUS
 10
3.874640
 20
4.875200
  0
SEQEND
  8
0
  0
POLYLINE
  8
0
  6
CONTINUOUS
 66
     1
 40
0.000000
 41
0.000000
  0
VERTEX
  8
0
  6
CONTINUOUS
 10
3.352360
 20
5.025680
  0
VERTEX
  8
0
  6
CONTINUOUS
 10
3.351480
 20
5.063960
  0
VERTEX
  8
0
  6
CONTINUOUS
 10
3.348400
 20
5.101800
  0
VERTEX
  8
0
  6
CONTINUOUS
 10
3.343560
 20
5.139200
  0
VERTEX
  8
0
  6
CONTINUOUS
 10
3.336960
 20
5.176160
  0
VERTEX
  8
0
  6
CONTINUOUS
 10
3.328600
 20
5.212240
  0
VERTEX
  8
0
  6
CONTINUOUS
 10
3.318480
 20
5.247880
  0
VERTEX
  8
0
  6
CONTINUOUS
 10
3.293400
 20
5.316520
  0
VERTEX
  8
0
  6
CONTINUOUS
 10
3.261720
 20
5.382080
  0
VERTEX
  8
0
  6
CONTINUOUS
 10
3.243680
 20
5.413320
  0
VERTEX
  8
0
  6
CONTINUOUS
 10
3.203200
 20
5.473160
  0
VERTEX
  8
0
  6
CONTINUOUS
 10
3.157000
 20
5.528600
  0
VERTEX
  8
0
  6
CONTINUOUS
 10
3.106400
 20
5.579640
  0
VERTEX
  8
0
  6
CONTINUOUS
 10
3.079120
 20
5.603400
  0
VERTEX
  8
0
  6
CONTINUOUS
 10
3.021480
 20
5.646520
  0
VERTEX
  8
0
  6
CONTINUOUS
 10
2.959440
 20
5.684360
  0
VERTEX
  8
0
  6
CONTINUOUS
 10
2.893880
 20
5.716040
  0
VERTEX
  8
0
  6
CONTINUOUS
 10
2.825240
 20
5.741120
  0
VERTEX
  8
0
  6
CONTINUOUS
 10
2.789600
 20
5.751240
  0
VERTEX
  8
0
  6
CONTINUOUS
 10
2.753520
 20
5.759600
  0
VERTEX
  8
0
  6
CONTINUOUS
 10
2.717000
 20
5.766200
  0
VERTEX
  8
0
  6
CONTINUOUS
 10
2.679600
 20
5.771040
  0
VERTEX
  8
0
  6
CONTINUOUS
 10
2.641320
 20
5.774120
  0
VERTEX
  8
0
  6
CONTINUOUS
 10
2.603040
 20
5.775000
  0
VERTEX
  8
0
  6
CONTINUOUS
 10
2.564760
 20
5.774120
  0
VERTEX
  8
0
  6
CONTINUOUS
 10
2.526920
 20
5.771040
  0
VERTEX
  8
0
  6
CONTINUOUS
 10
2.489520
 20
5.766200
  0
VERTEX
  8
0
  6
CONTINUOUS
 10
2.453000
 20
5.759600
  0
VERTEX
  8
0
  6
CONTINUOUS
 10
2.416920
 20
5.751240
  0
VERTEX
  8
0
  6
CONTINUOUS
 10
2.381720
 20
5.741120
  0
VERTEX
  8
0
  6
CONTINUOUS
 10
2.313520
 20
5.716040
  0
VERTEX
  8
0
  6
CONTINUOUS
 10
2.248840
 20
5.684360
  0
VERTEX
  8
0
  6
CONTINUOUS
 10
2.187680
 20
5.646520
  0
VERTEX
  8
0
  6
CONTINUOUS
 10
2.130480
 20
5.603400
  0
VERTEX
  8
0
  6
CONTINUOUS
 10
2.078120
 20
5.554560
  0
VERTEX
  8
0
  6
CONTINUOUS
 10
2.053480
 20
5.528600
  0
VERTEX
  8
0
  6
CONTINUOUS
 10
2.008600
 20
5.473160
  0
VERTEX
  8
0
  6
CONTINUOUS
 10
1.968560
 20
5.413320
  0
VERTEX
  8
0
  6
CONTINUOUS
 10
1.934680
 20
5.349520
  0
VERTEX
  8
0
  6
CONTINUOUS
 10
1.906960
 20
5.282640
  0
VERTEX
  8
0
  6
CONTINUOUS
 10
1.895080
 20
5.247880
  0
VERTEX
  8
0
  6
CONTINUOUS
 10
1.877040
 20
5.176160
  0
VERTEX
  8
0
  6
CONTINUOUS
 10
1.870440
 20
5.139200
  0
VERTEX
  8
0
  6
CONTINUOUS
 10
1.862960
 20
5.063960
  0
VERTEX
  8
0
  6
CONTINUOUS
 10
1.862080
 20
5.025680
  0
VERTEX
  8
0
  6
CONTINUOUS
 10
1.861640
 20
5.033600
  0
VERTEX
  8
0
  6
CONTINUOUS
 10
1.861640
 20
4.870360
  0
VERTEX
  8
0
  6
CONTINUOUS
 10
3.354120
 20
4.870360
  0
VERTEX
  8
0
  6
CONTINUOUS
 10
3.354120
 20
5.033600
  0
VERTEX
  8
0
  6
CONTINUOUS
 10
3.352360
 20
5.025680
  0
SEQEND
  8
0
  0
TEXT
  8
0
 10
7.726840
 20
6.012600
 40
0.137913
  1
case
 41
1.000000
  7
SN0
 71
     0
 72
     5
 11
8.077776
 21
6.012600
  0
TEXT
  8
0
 10
7.740920
 20
5.820760
 40
0.137913
  1
276/
 41
1.000000
  7
SN0
 71
     0
 72
     5
 11
8.064192
 21
5.820760
  0
TEXT
  8
0
 10
7.763800
 20
5.629360
 40
0.137913
  1
200
 41
1.000000
  7
SN0
 71
     0
 72
     5
 11
8.041067
 21
5.629360
  0
ENDSEC
  0
EOF
