  0
SECTION
  2
HEADER
  9
$ACADVER
  1
AC1006
  9
$EXTMIN
 10
5.680400
 20
0.365200
  9
$EXTMAX
 10
7.967960
 20
3.917760
  9
$LTSCALE
 40
0.044000
  9
$PDMODE
 70
    35
  9
$PDSIZE
 40
0.035200
  0
ENDSEC
  0
SECTION
  2
TABLES
  0
TABLE
  2
LTYPE
 70
     9
  0
LTYPE
  2
CONTINUOUS
 70
    64
  3
Solid line
 72
    65
 73
     0
 40
0.000000
  0
LTYPE
  2
DASHED
 70
    64
  3
__ __ __ __ __ __ __ __ __ __ __ __ __ __ __
 72
    65
 73
     2
 40
0.000330
 49
0.000220
 49
-0.000110
  0
LTYPE
  2
HIDDEN
 70
    64
  3
 _ _ _ _ _ _ _ _ _ _ _ _ _ _ _ _ _ _ _ _ _ _
 72
    65
 73
     2
 40
0.000165
 49
0.000110
 49
-0.000055
  0
LTYPE
  2
CENTER
 70
    64
  3
____ _ ____ _ ____ _ ____ _ ____ _ ____ _ ____
 72
    65
 73
     4
 40
0.000880
 49
0.000550
 49
-0.000110
 49
0.000110
 49
-0.000110
  0
LTYPE
  2
PHANTOM
 70
    64
  3
_____ _ _ _____ _ _ _____ _ _ _____ _ _ ____
 72
    65
 73
     6
 40
0.001100
 49
0.000550
 49
-0.000110
 49
0.000110
 49
-0.000110
 49
0.000110
 49
-0.000110
  0
LTYPE
  2
DOT
 70
    64
  3
...............................................
 72
    65
 73
     2
 40
0.000110
 49
0.000000
 49
-0.000110
  0
LTYPE
  2
DASHDOT
 70
    64
  3
__ . __ . __ . __ . __ . __ . __ . __ . __ . __
 72
    65
 73
     4
 40
0.000440
 49
0.000220
 49
-0.000110
 49
0.000000
 49
-0.000110
  0
LTYPE
  2
BORDER
 70
    64
  3
__ __ . __ __ . __ __ . __ __ . __ __ . __ __
 72
    65
 73
     6
 40
0.000770
 49
0.000220
 49
-0.000110
 49
0.000220
 49
-0.000110
 49
0.000000
 49
-0.000110
  0
LTYPE
  2
DIVIDE
 70
    64
  3
__ . . __ . . __ . . __ . . __ . . __ . . __
 72
    65
 73
     6
 40
0.000550
 49
0.000220
 49
-0.000110
 49
0.000000
 49
-0.000110
 49
0.000000
 49
-0.000110
  0
LTYPE
  2
DOTDOT
 70
    64
  3
 . .  . .  . .  . .  . .  . . 
 72
    65
 73
     5
 40
0.000242
 49
-0.000110
 49
0.000000
 49
-0.000110
 49
0.000000
 49
-0.000110
  0
ENDTAB
  0
TABLE
  2
STYLE
 70
     2
  0
STYLE
 70
     0
  2
SN0
 40
0.000000
 41
0.000440
 50
0.000000
 71
     0
 42
0.000000
  3
ROMAND
  0
STYLE
 70
    68
  2
SV0
 40
0.000000
 41
0.000440
 50
0.000000
 71
     0
 42
0.000000
  3
ROMAND
  0
ENDTAB
  0
TABLE
  2
LAYER
 70
     3
  0
LAYER
  2
FOREGROUND
 70
    64
 62
     7
  6
CONTINUOUS
  0
LAYER
  2
BACKGROUND
 70
    65
 62
    -7
  6
CONTINUOUS
  0
LAYER
  2
0
 70
    64
 62
     7
  6
CONTINUOUS
  0
ENDTAB
  0
ENDSEC
  0
SECTION
  2
ENTITIES
  0
POLYLINE
  8
FOREGROUND
  6
CONTINUOUS
 66
     1
 40
0.000000
 41
0.000000
  0
VERTEX
  8
FOREGROUND
  6
CONTINUOUS
 10
0.000000
 20
4.282960
  0
VERTEX
  8
FOREGROUND
  6
CONTINUOUS
 10
8.499920
 20
4.282960
  0
VERTEX
  8
FOREGROUND
  6
CONTINUOUS
 10
8.499920
 20
-6.717040
  0
VERTEX
  8
FOREGROUND
  6
CONTINUOUS
 10
0.000000
 20
-6.717040
  0
VERTEX
  8
FOREGROUND
  6
CONTINUOUS
 10
0.000000
 20
4.282960
  0
SEQEND
  8
0
  0
POLYLINE
  8
FOREGROUND
  6
CONTINUOUS
 66
     1
 40
0.000000
 41
0.000000
  0
VERTEX
  8
FOREGROUND
  6
CONTINUOUS
 10
0.000000
 20
4.282960
  0
VERTEX
  8
FOREGROUND
  6
CONTINUOUS
 10
8.499920
 20
4.282960
  0
VERTEX
  8
FOREGROUND
  6
CONTINUOUS
 10
8.499920
 20
-6.717040
  0
VERTEX
  8
FOREGROUND
  6
CONTINUOUS
 10
0.000000
 20
-6.717040
  0
VERTEX
  8
FOREGROUND
  6
CONTINUOUS
 10
0.000000
 20
4.282960
  0
SEQEND
  8
0
  0
POLYLINE
  8
0
  6
CONTINUOUS
 66
     1
 40
0.014080
 41
0.014080
  0
VERTEX
  8
0
  6
CONTINUOUS
 10
5.691840
 20
3.872440
  0
VERTEX
  8
0
  6
CONTINUOUS
 10
5.747720
 20
3.871560
  0
VERTEX
  8
0
  6
CONTINUOUS
 10
5.804040
 20
3.868040
  0
VERTEX
  8
0
  6
CONTINUOUS
 10
5.860800
 20
3.862760
  0
VERTEX
  8
0
  6
CONTINUOUS
 10
5.918000
 20
3.855720
  0
VERTEX
  8
0
  6
CONTINUOUS
 10
5.975200
 20
3.846480
  0
VERTEX
  8
0
  6
CONTINUOUS
 10
6.031960
 20
3.835480
  0
VERTEX
  8
0
  6
CONTINUOUS
 10
6.089160
 20
3.822720
  0
VERTEX
  8
0
  6
CONTINUOUS
 10
6.201800
 20
3.792360
  0
VERTEX
  8
0
  6
CONTINUOUS
 10
6.311800
 20
3.754960
  0
VERTEX
  8
0
  6
CONTINUOUS
 10
6.417840
 20
3.712280
  0
VERTEX
  8
0
  6
CONTINUOUS
 10
6.519040
 20
3.663880
  0
VERTEX
  8
0
  6
CONTINUOUS
 10
6.613640
 20
3.610640
  0
VERTEX
  8
0
  6
CONTINUOUS
 10
6.701200
 20
3.553000
  0
VERTEX
  8
0
  6
CONTINUOUS
 10
6.761040
 20
3.506800
  0
VERTEX
  8
0
  6
CONTINUOUS
 10
6.815600
 20
3.459280
  0
VERTEX
  8
0
  6
CONTINUOUS
 10
6.864000
 20
3.409560
  0
VERTEX
  8
0
  6
CONTINUOUS
 10
6.906240
 20
3.358520
  0
VERTEX
  8
0
  6
CONTINUOUS
 10
6.941440
 20
3.306160
  0
VERTEX
  8
0
  6
CONTINUOUS
 10
6.960800
 20
3.270520
  0
VERTEX
  8
0
  6
CONTINUOUS
 10
6.983240
 20
3.216400
  0
VERTEX
  8
0
  6
CONTINUOUS
 10
6.993360
 20
3.179880
  0
VERTEX
  8
0
  6
CONTINUOUS
 10
6.999960
 20
3.142920
  0
VERTEX
  8
0
  6
CONTINUOUS
 10
7.003040
 20
3.090120
  0
VERTEX
  8
0
  6
CONTINUOUS
 10
7.002160
 20
3.060200
  0
VERTEX
  8
0
  6
CONTINUOUS
 10
6.998640
 20
3.033800
  0
VERTEX
  8
0
  6
CONTINUOUS
 10
6.989400
 20
2.999040
  0
VERTEX
  8
0
  6
CONTINUOUS
 10
6.975320
 20
2.969560
  0
VERTEX
  8
0
  6
CONTINUOUS
 10
6.958160
 20
2.944920
  0
VERTEX
  8
0
  6
CONTINUOUS
 10
6.944960
 20
2.930400
  0
VERTEX
  8
0
  6
CONTINUOUS
 10
6.916800
 20
2.906640
  0
VERTEX
  8
0
  6
CONTINUOUS
 10
6.834520
 20
2.855160
  0
VERTEX
  8
0
  6
CONTINUOUS
 10
6.833200
 20
2.855160
  0
VERTEX
  8
0
  6
CONTINUOUS
 10
6.833200
 20
2.761880
  0
VERTEX
  8
0
  6
CONTINUOUS
 10
5.687880
 20
2.761880
  0
VERTEX
  8
0
  6
CONTINUOUS
 10
5.687880
 20
3.872440
  0
VERTEX
  8
0
  6
CONTINUOUS
 10
5.691840
 20
3.872440
  0
SEQEND
  8
0
  0
SOLID
  8
0
 62
    15
 10
7.217320
 20
1.444960
 11
7.863240
 21
1.814120
 12
7.256040
 22
1.374120
 13
7.901960
 23
1.743280
  0
POLYLINE
  8
0
  6
CONTINUOUS
 66
     1
 40
0.000000
 41
0.000000
  0
VERTEX
  8
0
  6
CONTINUOUS
 10
7.217320
 20
1.444960
  0
VERTEX
  8
0
  6
CONTINUOUS
 10
7.863240
 20
1.814120
  0
VERTEX
  8
0
  6
CONTINUOUS
 10
7.901960
 20
1.743280
  0
VERTEX
  8
0
  6
CONTINUOUS
 10
7.256040
 20
1.374120
  0
VERTEX
  8
0
  6
CONTINUOUS
 10
7.217320
 20
1.444960
  0
SEQEND
  8
0
  0
SOLID
  8
0
 62
    15
 10
6.091360
 20
1.989680
 11
6.736840
 21
2.358840
 12
6.204880
 22
1.977360
 13
6.850800
 23
2.346520
  0
POLYLINE
  8
0
  6
CONTINUOUS
 66
     1
 40
0.000000
 41
0.000000
  0
VERTEX
  8
0
  6
CONTINUOUS
 10
6.091360
 20
1.989680
  0
VERTEX
  8
0
  6
CONTINUOUS
 10
6.736840
 20
2.358840
  0
VERTEX
  8
0
  6
CONTINUOUS
 10
6.850800
 20
2.346520
  0
VERTEX
  8
0
  6
CONTINUOUS
 10
6.204880
 20
1.977360
  0
VERTEX
  8
0
  6
CONTINUOUS
 10
6.091360
 20
1.989680
  0
SEQEND
  8
0
  0
SOLID
  8
0
 62
    15
 10
6.204880
 20
1.977360
 11
6.850800
 21
2.346520
 12
6.319280
 22
1.957120
 13
6.965200
 23
2.326280
  0
POLYLINE
  8
0
  6
CONTINUOUS
 66
     1
 40
0.000000
 41
0.000000
  0
VERTEX
  8
0
  6
CONTINUOUS
 10
6.204880
 20
1.977360
  0
VERTEX
  8
0
  6
CONTINUOUS
 10
6.850800
 20
2.346520
  0
VERTEX
  8
0
  6
CONTINUOUS
 10
6.965200
 20
2.326280
  0
VERTEX
  8
0
  6
CONTINUOUS
 10
6.319280
 20
1.957120
  0
VERTEX
  8
0
  6
CONTINUOUS
 10
6.204880
 20
1.977360
  0
SEQEND
  8
0
  0
SOLID
  8
0
 62
    15
 10
6.319280
 20
1.957120
 11
6.965200
 21
2.326280
 12
6.432800
 22
1.929840
 13
7.078720
 23
2.299000
  0
POLYLINE
  8
0
  6
CONTINUOUS
 66
     1
 40
0.000000
 41
0.000000
  0
VERTEX
  8
0
  6
CONTINUOUS
 10
6.319280
 20
1.957120
  0
VERTEX
  8
0
  6
CONTINUOUS
 10
6.965200
 20
2.326280
  0
VERTEX
  8
0
  6
CONTINUOUS
 10
7.078720
 20
2.299000
  0
VERTEX
  8
0
  6
CONTINUOUS
 10
6.432800
 20
1.929840
  0
VERTEX
  8
0
  6
CONTINUOUS
 10
6.319280
 20
1.957120
  0
SEQEND
  8
0
  0
SOLID
  8
0
 62
    15
 10
6.432800
 20
1.929840
 11
7.078720
 21
2.299000
 12
6.544120
 22
1.895960
 13
7.190040
 23
2.265120
  0
POLYLINE
  8
0
  6
CONTINUOUS
 66
     1
 40
0.000000
 41
0.000000
  0
VERTEX
  8
0
  6
CONTINUOUS
 10
6.432800
 20
1.929840
  0
VERTEX
  8
0
  6
CONTINUOUS
 10
7.078720
 20
2.299000
  0
VERTEX
  8
0
  6
CONTINUOUS
 10
7.190040
 20
2.265120
  0
VERTEX
  8
0
  6
CONTINUOUS
 10
6.544120
 20
1.895960
  0
VERTEX
  8
0
  6
CONTINUOUS
 10
6.432800
 20
1.929840
  0
SEQEND
  8
0
  0
SOLID
  8
0
 62
    15
 10
6.544120
 20
1.895960
 11
7.190040
 21
2.265120
 12
6.652360
 22
1.855920
 13
7.298280
 23
2.225080
  0
POLYLINE
  8
0
  6
CONTINUOUS
 66
     1
 40
0.000000
 41
0.000000
  0
VERTEX
  8
0
  6
CONTINUOUS
 10
6.544120
 20
1.895960
  0
VERTEX
  8
0
  6
CONTINUOUS
 10
7.190040
 20
2.265120
  0
VERTEX
  8
0
  6
CONTINUOUS
 10
7.298280
 20
2.225080
  0
VERTEX
  8
0
  6
CONTINUOUS
 10
6.652360
 20
1.855920
  0
VERTEX
  8
0
  6
CONTINUOUS
 10
6.544120
 20
1.895960
  0
SEQEND
  8
0
  0
SOLID
  8
0
 62
    15
 10
6.652360
 20
1.855920
 11
7.298280
 21
2.225080
 12
6.756200
 22
1.810160
 13
7.402120
 23
2.179320
  0
POLYLINE
  8
0
  6
CONTINUOUS
 66
     1
 40
0.000000
 41
0.000000
  0
VERTEX
  8
0
  6
CONTINUOUS
 10
6.652360
 20
1.855920
  0
VERTEX
  8
0
  6
CONTINUOUS
 10
7.298280
 20
2.225080
  0
VERTEX
  8
0
  6
CONTINUOUS
 10
7.402120
 20
2.179320
  0
VERTEX
  8
0
  6
CONTINUOUS
 10
6.756200
 20
1.810160
  0
VERTEX
  8
0
  6
CONTINUOUS
 10
6.652360
 20
1.855920
  0
SEQEND
  8
0
  0
SOLID
  8
0
 62
    15
 10
6.756200
 20
1.810160
 11
7.402120
 21
2.179320
 12
6.854320
 22
1.759120
 13
7.500240
 23
2.128280
  0
POLYLINE
  8
0
  6
CONTINUOUS
 66
     1
 40
0.000000
 41
0.000000
  0
VERTEX
  8
0
  6
CONTINUOUS
 10
6.756200
 20
1.810160
  0
VERTEX
  8
0
  6
CONTINUOUS
 10
7.402120
 20
2.179320
  0
VERTEX
  8
0
  6
CONTINUOUS
 10
7.500240
 20
2.128280
  0
VERTEX
  8
0
  6
CONTINUOUS
 10
6.854320
 20
1.759120
  0
VERTEX
  8
0
  6
CONTINUOUS
 10
6.756200
 20
1.810160
  0
SEQEND
  8
0
  0
SOLID
  8
0
 62
    15
 10
6.854320
 20
1.759120
 11
7.500240
 21
2.128280
 12
6.945400
 22
1.703680
 13
7.591320
 23
2.072840
  0
POLYLINE
  8
0
  6
CONTINUOUS
 66
     1
 40
0.000000
 41
0.000000
  0
VERTEX
  8
0
  6
CONTINUOUS
 10
6.854320
 20
1.759120
  0
VERTEX
  8
0
  6
CONTINUOUS
 10
7.500240
 20
2.128280
  0
VERTEX
  8
0
  6
CONTINUOUS
 10
7.591320
 20
2.072840
  0
VERTEX
  8
0
  6
CONTINUOUS
 10
6.945400
 20
1.703680
  0
VERTEX
  8
0
  6
CONTINUOUS
 10
6.854320
 20
1.759120
  0
SEQEND
  8
0
  0
SOLID
  8
0
 62
    15
 10
6.945400
 20
1.703680
 11
7.591320
 21
2.072840
 12
7.028560
 22
1.643840
 13
7.674480
 23
2.013000
  0
POLYLINE
  8
0
  6
CONTINUOUS
 66
     1
 40
0.000000
 41
0.000000
  0
VERTEX
  8
0
  6
CONTINUOUS
 10
6.945400
 20
1.703680
  0
VERTEX
  8
0
  6
CONTINUOUS
 10
7.591320
 20
2.072840
  0
VERTEX
  8
0
  6
CONTINUOUS
 10
7.674480
 20
2.013000
  0
VERTEX
  8
0
  6
CONTINUOUS
 10
7.028560
 20
1.643840
  0
VERTEX
  8
0
  6
CONTINUOUS
 10
6.945400
 20
1.703680
  0
SEQEND
  8
0
  0
SOLID
  8
0
 62
     7
 10
7.028560
 20
1.643840
 11
7.674480
 21
2.013000
 12
7.102480
 22
1.580480
 13
7.748400
 23
1.949640
  0
POLYLINE
  8
0
  6
CONTINUOUS
 66
     1
 40
0.000000
 41
0.000000
  0
VERTEX
  8
0
  6
CONTINUOUS
 10
7.028560
 20
1.643840
  0
VERTEX
  8
0
  6
CONTINUOUS
 10
7.674480
 20
2.013000
  0
VERTEX
  8
0
  6
CONTINUOUS
 10
7.748400
 20
1.949640
  0
VERTEX
  8
0
  6
CONTINUOUS
 10
7.102480
 20
1.580480
  0
VERTEX
  8
0
  6
CONTINUOUS
 10
7.028560
 20
1.643840
  0
SEQEND
  8
0
  0
SOLID
  8
0
 62
     7
 10
7.102480
 20
1.580480
 11
7.748400
 21
1.949640
 12
7.165840
 22
1.514040
 13
7.811760
 23
1.883200
  0
POLYLINE
  8
0
  6
CONTINUOUS
 66
     1
 40
0.000000
 41
0.000000
  0
VERTEX
  8
0
  6
CONTINUOUS
 10
7.102480
 20
1.580480
  0
VERTEX
  8
0
  6
CONTINUOUS
 10
7.748400
 20
1.949640
  0
VERTEX
  8
0
  6
CONTINUOUS
 10
7.811760
 20
1.883200
  0
VERTEX
  8
0
  6
CONTINUOUS
 10
7.165840
 20
1.514040
  0
VERTEX
  8
0
  6
CONTINUOUS
 10
7.102480
 20
1.580480
  0
SEQEND
  8
0
  0
SOLID
  8
0
 62
     7
 10
7.165840
 20
1.514040
 11
7.811760
 21
1.883200
 12
7.217320
 22
1.444960
 13
7.863240
 23
1.814120
  0
POLYLINE
  8
0
  6
CONTINUOUS
 66
     1
 40
0.000000
 41
0.000000
  0
VERTEX
  8
0
  6
CONTINUOUS
 10
7.165840
 20
1.514040
  0
VERTEX
  8
0
  6
CONTINUOUS
 10
7.811760
 20
1.883200
  0
VERTEX
  8
0
  6
CONTINUOUS
 10
7.863240
 20
1.814120
  0
VERTEX
  8
0
  6
CONTINUOUS
 10
7.217320
 20
1.444960
  0
VERTEX
  8
0
  6
CONTINUOUS
 10
7.165840
 20
1.514040
  0
SEQEND
  8
0
  0
SOLID
  8
0
 62
    15
 10
5.978720
 20
1.994080
 11
6.624640
 21
2.363240
 12
6.091360
 22
1.989680
 13
6.736840
 23
2.358840
  0
POLYLINE
  8
0
  6
CONTINUOUS
 66
     1
 40
0.000000
 41
0.000000
  0
VERTEX
  8
0
  6
CONTINUOUS
 10
5.978720
 20
1.994080
  0
VERTEX
  8
0
  6
CONTINUOUS
 10
6.624640
 20
2.363240
  0
VERTEX
  8
0
  6
CONTINUOUS
 10
6.736840
 20
2.358840
  0
VERTEX
  8
0
  6
CONTINUOUS
 10
6.091360
 20
1.989680
  0
VERTEX
  8
0
  6
CONTINUOUS
 10
5.978720
 20
1.994080
  0
SEQEND
  8
0
  0
SOLID
  8
0
 62
    15
 10
7.256040
 20
1.374120
 11
7.901960
 21
1.743280
 12
7.280680
 22
1.301080
 13
7.926160
 23
1.670240
  0
POLYLINE
  8
0
  6
CONTINUOUS
 66
     1
 40
0.000000
 41
0.000000
  0
VERTEX
  8
0
  6
CONTINUOUS
 10
7.256040
 20
1.374120
  0
VERTEX
  8
0
  6
CONTINUOUS
 10
7.901960
 20
1.743280
  0
VERTEX
  8
0
  6
CONTINUOUS
 10
7.926160
 20
1.670240
  0
VERTEX
  8
0
  6
CONTINUOUS
 10
7.280680
 20
1.301080
  0
VERTEX
  8
0
  6
CONTINUOUS
 10
7.256040
 20
1.374120
  0
SEQEND
  8
0
  0
SOLID
  8
0
 62
    15
 10
7.280680
 20
1.301080
 11
7.926160
 21
1.670240
 12
7.289480
 22
1.227160
 13
7.935400
 23
1.596320
  0
POLYLINE
  8
0
  6
CONTINUOUS
 66
     1
 40
0.000000
 41
0.000000
  0
VERTEX
  8
0
  6
CONTINUOUS
 10
7.280680
 20
1.301080
  0
VERTEX
  8
0
  6
CONTINUOUS
 10
7.926160
 20
1.670240
  0
VERTEX
  8
0
  6
CONTINUOUS
 10
7.935400
 20
1.596320
  0
VERTEX
  8
0
  6
CONTINUOUS
 10
7.289480
 20
1.227160
  0
VERTEX
  8
0
  6
CONTINUOUS
 10
7.280680
 20
1.301080
  0
SEQEND
  8
0
  0
SOLID
  8
0
 62
    15
 10
7.289480
 20
1.227160
 11
7.935400
 21
1.596320
 12
7.287720
 22
1.168200
 13
7.933640
 23
1.537360
  0
POLYLINE
  8
0
  6
CONTINUOUS
 66
     1
 40
0.000000
 41
0.000000
  0
VERTEX
  8
0
  6
CONTINUOUS
 10
7.289480
 20
1.227160
  0
VERTEX
  8
0
  6
CONTINUOUS
 10
7.935400
 20
1.596320
  0
VERTEX
  8
0
  6
CONTINUOUS
 10
7.933640
 20
1.537360
  0
VERTEX
  8
0
  6
CONTINUOUS
 10
7.287720
 20
1.168200
  0
VERTEX
  8
0
  6
CONTINUOUS
 10
7.289480
 20
1.227160
  0
SEQEND
  8
0
  0
SOLID
  8
0
 62
    15
 10
7.287720
 20
1.168200
 11
7.933640
 21
1.537360
 12
7.276280
 22
1.120240
 13
7.922200
 23
1.489400
  0
POLYLINE
  8
0
  6
CONTINUOUS
 66
     1
 40
0.000000
 41
0.000000
  0
VERTEX
  8
0
  6
CONTINUOUS
 10
7.287720
 20
1.168200
  0
VERTEX
  8
0
  6
CONTINUOUS
 10
7.933640
 20
1.537360
  0
VERTEX
  8
0
  6
CONTINUOUS
 10
7.922200
 20
1.489400
  0
VERTEX
  8
0
  6
CONTINUOUS
 10
7.276280
 20
1.120240
  0
VERTEX
  8
0
  6
CONTINUOUS
 10
7.287720
 20
1.168200
  0
SEQEND
  8
0
  0
SOLID
  8
0
 62
    15
 10
7.276280
 20
1.120240
 11
7.922200
 21
1.489400
 12
7.256920
 22
1.081960
 13
7.902840
 23
1.451560
  0
POLYLINE
  8
0
  6
CONTINUOUS
 66
     1
 40
0.000000
 41
0.000000
  0
VERTEX
  8
0
  6
CONTINUOUS
 10
7.276280
 20
1.120240
  0
VERTEX
  8
0
  6
CONTINUOUS
 10
7.922200
 20
1.489400
  0
VERTEX
  8
0
  6
CONTINUOUS
 10
7.902840
 20
1.451560
  0
VERTEX
  8
0
  6
CONTINUOUS
 10
7.256920
 20
1.081960
  0
VERTEX
  8
0
  6
CONTINUOUS
 10
7.276280
 20
1.120240
  0
SEQEND
  8
0
  0
SOLID
  8
0
 62
    15
 10
7.256920
 20
1.081960
 11
7.902840
 21
1.451560
 12
7.232280
 22
1.052040
 13
7.877760
 23
1.421200
  0
POLYLINE
  8
0
  6
CONTINUOUS
 66
     1
 40
0.000000
 41
0.000000
  0
VERTEX
  8
0
  6
CONTINUOUS
 10
7.256920
 20
1.081960
  0
VERTEX
  8
0
  6
CONTINUOUS
 10
7.902840
 20
1.451560
  0
VERTEX
  8
0
  6
CONTINUOUS
 10
7.877760
 20
1.421200
  0
VERTEX
  8
0
  6
CONTINUOUS
 10
7.232280
 20
1.052040
  0
VERTEX
  8
0
  6
CONTINUOUS
 10
7.256920
 20
1.081960
  0
SEQEND
  8
0
  0
SOLID
  8
0
 62
    15
 10
7.174640
 20
1.008480
 11
7.820560
 21
1.378080
 12
7.160120
 22
1.000120
 13
7.806040
 23
1.369280
  0
POLYLINE
  8
0
  6
CONTINUOUS
 66
     1
 40
0.000000
 41
0.000000
  0
VERTEX
  8
0
  6
CONTINUOUS
 10
7.174640
 20
1.008480
  0
VERTEX
  8
0
  6
CONTINUOUS
 10
7.820560
 20
1.378080
  0
VERTEX
  8
0
  6
CONTINUOUS
 10
7.806040
 20
1.369280
  0
VERTEX
  8
0
  6
CONTINUOUS
 10
7.160120
 20
1.000120
  0
VERTEX
  8
0
  6
CONTINUOUS
 10
7.174640
 20
1.008480
  0
SEQEND
  8
0
  0
SOLID
  8
0
 62
    15
 10
7.232280
 20
1.052040
 11
7.877760
 21
1.421200
 12
7.174640
 22
1.008480
 13
7.820560
 23
1.378080
  0
POLYLINE
  8
0
  6
CONTINUOUS
 66
     1
 40
0.000000
 41
0.000000
  0
VERTEX
  8
0
  6
CONTINUOUS
 10
7.232280
 20
1.052040
  0
VERTEX
  8
0
  6
CONTINUOUS
 10
7.877760
 20
1.421200
  0
VERTEX
  8
0
  6
CONTINUOUS
 10
7.820560
 20
1.378080
  0
VERTEX
  8
0
  6
CONTINUOUS
 10
7.174640
 20
1.008480
  0
VERTEX
  8
0
  6
CONTINUOUS
 10
7.232280
 20
1.052040
  0
SEQEND
  8
0
  0
SOLID
  8
0
 62
    15
 10
7.120080
 20
0.976360
 11
7.766000
 21
1.345960
 12
7.120080
 22
0.883080
 13
7.766000
 23
1.252680
  0
POLYLINE
  8
0
  6
CONTINUOUS
 66
     1
 40
0.000000
 41
0.000000
  0
VERTEX
  8
0
  6
CONTINUOUS
 10
7.120080
 20
0.976360
  0
VERTEX
  8
0
  6
CONTINUOUS
 10
7.766000
 20
1.345960
  0
VERTEX
  8
0
  6
CONTINUOUS
 10
7.766000
 20
1.252680
  0
VERTEX
  8
0
  6
CONTINUOUS
 10
7.120080
 20
0.883080
  0
VERTEX
  8
0
  6
CONTINUOUS
 10
7.120080
 20
0.976360
  0
SEQEND
  8
0
  0
SOLID
  8
0
 62
    15
 10
7.146480
 20
0.992200
 11
7.792400
 21
1.361360
 12
7.121400
 22
0.976800
 13
7.767320
 23
1.345960
  0
POLYLINE
  8
0
  6
CONTINUOUS
 66
     1
 40
0.000000
 41
0.000000
  0
VERTEX
  8
0
  6
CONTINUOUS
 10
7.146480
 20
0.992200
  0
VERTEX
  8
0
  6
CONTINUOUS
 10
7.792400
 20
1.361360
  0
VERTEX
  8
0
  6
CONTINUOUS
 10
7.767320
 20
1.345960
  0
VERTEX
  8
0
  6
CONTINUOUS
 10
7.121400
 20
0.976800
  0
VERTEX
  8
0
  6
CONTINUOUS
 10
7.146480
 20
0.992200
  0
SEQEND
  8
0
  0
SOLID
  8
0
 62
    15
 10
7.160120
 20
1.000120
 11
7.806040
 21
1.369280
 12
7.146480
 22
0.992200
 13
7.792400
 23
1.361360
  0
POLYLINE
  8
0
  6
CONTINUOUS
 66
     1
 40
0.000000
 41
0.000000
  0
VERTEX
  8
0
  6
CONTINUOUS
 10
7.160120
 20
1.000120
  0
VERTEX
  8
0
  6
CONTINUOUS
 10
7.806040
 20
1.369280
  0
VERTEX
  8
0
  6
CONTINUOUS
 10
7.792400
 20
1.361360
  0
VERTEX
  8
0
  6
CONTINUOUS
 10
7.146480
 20
0.992200
  0
VERTEX
  8
0
  6
CONTINUOUS
 10
7.160120
 20
1.000120
  0
SEQEND
  8
0
  0
SOLID
  8
0
 62
    15
 10
5.974760
 20
1.994080
 11
6.620680
 21
2.363240
 12
5.978720
 22
1.994080
 13
6.624640
 23
2.363240
  0
POLYLINE
  8
0
  6
CONTINUOUS
 66
     1
 40
0.000000
 41
0.000000
  0
VERTEX
  8
0
  6
CONTINUOUS
 10
5.974760
 20
1.994080
  0
VERTEX
  8
0
  6
CONTINUOUS
 10
6.620680
 20
2.363240
  0
VERTEX
  8
0
  6
CONTINUOUS
 10
6.624640
 20
2.363240
  0
VERTEX
  8
0
  6
CONTINUOUS
 10
5.978720
 20
1.994080
  0
VERTEX
  8
0
  6
CONTINUOUS
 10
5.974760
 20
1.994080
  0
SEQEND
  8
0
  0
POLYLINE
  8
0
  6
CONTINUOUS
 66
     1
 40
0.000000
 41
0.000000
  0
VERTEX
  8
0
  6
CONTINUOUS
 10
5.978720
 20
1.994080
  0
VERTEX
  8
0
  6
CONTINUOUS
 10
6.091360
 20
1.989680
  0
VERTEX
  8
0
  6
CONTINUOUS
 10
6.204880
 20
1.977360
  0
VERTEX
  8
0
  6
CONTINUOUS
 10
6.319280
 20
1.957120
  0
VERTEX
  8
0
  6
CONTINUOUS
 10
6.432800
 20
1.929840
  0
VERTEX
  8
0
  6
CONTINUOUS
 10
6.544120
 20
1.895960
  0
VERTEX
  8
0
  6
CONTINUOUS
 10
6.652360
 20
1.855920
  0
VERTEX
  8
0
  6
CONTINUOUS
 10
6.756200
 20
1.810160
  0
VERTEX
  8
0
  6
CONTINUOUS
 10
6.854320
 20
1.759120
  0
VERTEX
  8
0
  6
CONTINUOUS
 10
6.945400
 20
1.703680
  0
VERTEX
  8
0
  6
CONTINUOUS
 10
7.028560
 20
1.643840
  0
VERTEX
  8
0
  6
CONTINUOUS
 10
7.102480
 20
1.580480
  0
VERTEX
  8
0
  6
CONTINUOUS
 10
7.165840
 20
1.514040
  0
VERTEX
  8
0
  6
CONTINUOUS
 10
7.217320
 20
1.444960
  0
VERTEX
  8
0
  6
CONTINUOUS
 10
7.256040
 20
1.374120
  0
VERTEX
  8
0
  6
CONTINUOUS
 10
7.280680
 20
1.301080
  0
VERTEX
  8
0
  6
CONTINUOUS
 10
7.289480
 20
1.227160
  0
VERTEX
  8
0
  6
CONTINUOUS
 10
7.287720
 20
1.168200
  0
VERTEX
  8
0
  6
CONTINUOUS
 10
7.276280
 20
1.120240
  0
VERTEX
  8
0
  6
CONTINUOUS
 10
7.256920
 20
1.081960
  0
VERTEX
  8
0
  6
CONTINUOUS
 10
7.232280
 20
1.052040
  0
VERTEX
  8
0
  6
CONTINUOUS
 10
7.174640
 20
1.008480
  0
VERTEX
  8
0
  6
CONTINUOUS
 10
7.160120
 20
1.000120
  0
VERTEX
  8
0
  6
CONTINUOUS
 10
7.146480
 20
0.992200
  0
VERTEX
  8
0
  6
CONTINUOUS
 10
7.121400
 20
0.976800
  0
VERTEX
  8
0
  6
CONTINUOUS
 10
7.120080
 20
0.976360
  0
VERTEX
  8
0
  6
CONTINUOUS
 10
7.120080
 20
0.883080
  0
VERTEX
  8
0
  6
CONTINUOUS
 10
5.974760
 20
0.883080
  0
VERTEX
  8
0
  6
CONTINUOUS
 10
5.974760
 20
1.994080
  0
VERTEX
  8
0
  6
CONTINUOUS
 10
5.978720
 20
1.994080
  0
SEQEND
  8
0
  0
TEXT
  8
0
 10
6.658080
 20
0.600600
 40
0.138081
  1
BA  275
 41
1.000000
  7
SN0
 71
     0
 72
     5
 11
7.247983
 21
0.600600
  0
TEXT
  8
0
 10
6.382200
 20
0.408760
 40
0.138081
  1
1-1/8" x 1-5/16"
 41
1.000000
  7
SN0
 71
     0
 72
     5
 11
7.521861
 21
0.408760
  0
TEXT
  8
0
 10
7.561840
 20
3.766400
 40
0.138081
  1
panel
 41
1.000000
  7
SN0
 71
     0
 72
     5
 11
7.967542
 21
3.766400
  0
TEXT
  8
0
 10
7.626080
 20
3.575000
 40
0.138081
  1
275
 41
1.000000
  7
SN0
 71
     0
 72
     5
 11
7.903002
 21
3.575000
  0
ENDSEC
  0
EOF
