  0
SECTION
  2
HEADER
  9
$ACADVER
  1
AC1006
  9
$EXTMIN
 10
5.914480
 20
0.339680
  9
$EXTMAX
 10
7.987760
 20
5.287480
  9
$LTSCALE
 40
0.044000
  9
$PDMODE
 70
    35
  9
$PDSIZE
 40
0.035200
  0
ENDSEC
  0
SECTION
  2
TABLES
  0
TABLE
  2
LTYPE
 70
     9
  0
LTYPE
  2
CONTINUOUS
 70
    64
  3
Solid line
 72
    65
 73
     0
 40
0.000000
  0
LTYPE
  2
DASHED
 70
    64
  3
__ __ __ __ __ __ __ __ __ __ __ __ __ __ __
 72
    65
 73
     2
 40
0.000330
 49
0.000220
 49
-0.000110
  0
LTYPE
  2
HIDDEN
 70
    64
  3
 _ _ _ _ _ _ _ _ _ _ _ _ _ _ _ _ _ _ _ _ _ _
 72
    65
 73
     2
 40
0.000165
 49
0.000110
 49
-0.000055
  0
LTYPE
  2
CENTER
 70
    64
  3
____ _ ____ _ ____ _ ____ _ ____ _ ____ _ ____
 72
    65
 73
     4
 40
0.000880
 49
0.000550
 49
-0.000110
 49
0.000110
 49
-0.000110
  0
LTYPE
  2
PHANTOM
 70
    64
  3
_____ _ _ _____ _ _ _____ _ _ _____ _ _ ____
 72
    65
 73
     6
 40
0.001100
 49
0.000550
 49
-0.000110
 49
0.000110
 49
-0.000110
 49
0.000110
 49
-0.000110
  0
LTYPE
  2
DOT
 70
    64
  3
...............................................
 72
    65
 73
     2
 40
0.000110
 49
0.000000
 49
-0.000110
  0
LTYPE
  2
DASHDOT
 70
    64
  3
__ . __ . __ . __ . __ . __ . __ . __ . __ . __
 72
    65
 73
     4
 40
0.000440
 49
0.000220
 49
-0.000110
 49
0.000000
 49
-0.000110
  0
LTYPE
  2
BORDER
 70
    64
  3
__ __ . __ __ . __ __ . __ __ . __ __ . __ __
 72
    65
 73
     6
 40
0.000770
 49
0.000220
 49
-0.000110
 49
0.000220
 49
-0.000110
 49
0.000000
 49
-0.000110
  0
LTYPE
  2
DIVIDE
 70
    64
  3
__ . . __ . . __ . . __ . . __ . . __ . . __
 72
    65
 73
     6
 40
0.000550
 49
0.000220
 49
-0.000110
 49
0.000000
 49
-0.000110
 49
0.000000
 49
-0.000110
  0
LTYPE
  2
DOTDOT
 70
    64
  3
 . .  . .  . .  . .  . .  . . 
 72
    65
 73
     5
 40
0.000242
 49
-0.000110
 49
0.000000
 49
-0.000110
 49
0.000000
 49
-0.000110
  0
ENDTAB
  0
TABLE
  2
STYLE
 70
     2
  0
STYLE
 70
     0
  2
SN0
 40
0.000000
 41
0.000440
 50
0.000000
 71
     0
 42
0.000000
  3
ROMAND
  0
STYLE
 70
    68
  2
SV0
 40
0.000000
 41
0.000440
 50
0.000000
 71
     0
 42
0.000000
  3
ROMAND
  0
ENDTAB
  0
TABLE
  2
LAYER
 70
     3
  0
LAYER
  2
FOREGROUND
 70
    64
 62
     7
  6
CONTINUOUS
  0
LAYER
  2
BACKGROUND
 70
    65
 62
    -7
  6
CONTINUOUS
  0
LAYER
  2
0
 70
    64
 62
     7
  6
CONTINUOUS
  0
ENDTAB
  0
ENDSEC
  0
SECTION
  2
ENTITIES
  0
POLYLINE
  8
FOREGROUND
  6
CONTINUOUS
 66
     1
 40
0.000000
 41
0.000000
  0
VERTEX
  8
FOREGROUND
  6
CONTINUOUS
 10
0.000000
 20
5.627160
  0
VERTEX
  8
FOREGROUND
  6
CONTINUOUS
 10
8.499920
 20
5.627160
  0
VERTEX
  8
FOREGROUND
  6
CONTINUOUS
 10
8.499920
 20
-5.372840
  0
VERTEX
  8
FOREGROUND
  6
CONTINUOUS
 10
0.000000
 20
-5.372840
  0
VERTEX
  8
FOREGROUND
  6
CONTINUOUS
 10
0.000000
 20
5.627160
  0
SEQEND
  8
0
  0
POLYLINE
  8
FOREGROUND
  6
CONTINUOUS
 66
     1
 40
0.000000
 41
0.000000
  0
VERTEX
  8
FOREGROUND
  6
CONTINUOUS
 10
0.000000
 20
5.627160
  0
VERTEX
  8
FOREGROUND
  6
CONTINUOUS
 10
8.499920
 20
5.627160
  0
VERTEX
  8
FOREGROUND
  6
CONTINUOUS
 10
8.499920
 20
-5.372840
  0
VERTEX
  8
FOREGROUND
  6
CONTINUOUS
 10
0.000000
 20
-5.372840
  0
VERTEX
  8
FOREGROUND
  6
CONTINUOUS
 10
0.000000
 20
5.627160
  0
SEQEND
  8
0
  0
POLYLINE
  8
0
  6
CONTINUOUS
 66
     1
 40
0.014080
 41
0.014080
  0
VERTEX
  8
0
  6
CONTINUOUS
 10
5.921960
 20
5.117640
  0
VERTEX
  8
0
  6
CONTINUOUS
 10
6.006000
 20
5.117640
  0
VERTEX
  8
0
  6
CONTINUOUS
 10
6.006000
 20
5.000160
  0
VERTEX
  8
0
  6
CONTINUOUS
 10
6.024920
 20
4.995320
  0
VERTEX
  8
0
  6
CONTINUOUS
 10
6.042520
 20
4.987400
  0
VERTEX
  8
0
  6
CONTINUOUS
 10
6.058360
 20
4.975960
  0
VERTEX
  8
0
  6
CONTINUOUS
 10
6.072440
 20
4.962320
  0
VERTEX
  8
0
  6
CONTINUOUS
 10
6.088280
 20
4.938120
  0
VERTEX
  8
0
  6
CONTINUOUS
 10
6.095320
 20
4.919640
  0
VERTEX
  8
0
  6
CONTINUOUS
 10
6.098840
 20
4.899840
  0
VERTEX
  8
0
  6
CONTINUOUS
 10
6.098840
 20
4.880920
  0
VERTEX
  8
0
  6
CONTINUOUS
 10
6.094000
 20
4.856280
  0
VERTEX
  8
0
  6
CONTINUOUS
 10
6.083440
 20
4.833840
  0
VERTEX
  8
0
  6
CONTINUOUS
 10
6.068480
 20
4.814480
  0
VERTEX
  8
0
  6
CONTINUOUS
 10
6.049560
 20
4.799080
  0
VERTEX
  8
0
  6
CONTINUOUS
 10
6.027560
 20
4.788520
  0
VERTEX
  8
0
  6
CONTINUOUS
 10
6.026240
 20
4.786760
  0
VERTEX
  8
0
  6
CONTINUOUS
 10
6.026240
 20
4.717680
  0
VERTEX
  8
0
  6
CONTINUOUS
 10
6.145040
 20
4.679840
  0
VERTEX
  8
0
  6
CONTINUOUS
 10
6.201360
 20
4.659160
  0
VERTEX
  8
0
  6
CONTINUOUS
 10
6.307400
 20
4.614720
  0
VERTEX
  8
0
  6
CONTINUOUS
 10
6.404200
 20
4.567200
  0
VERTEX
  8
0
  6
CONTINUOUS
 10
6.491760
 20
4.517040
  0
VERTEX
  8
0
  6
CONTINUOUS
 10
6.569200
 20
4.466000
  0
VERTEX
  8
0
  6
CONTINUOUS
 10
6.636080
 20
4.413640
  0
VERTEX
  8
0
  6
CONTINUOUS
 10
6.679640
 20
4.374920
  0
VERTEX
  8
0
  6
CONTINUOUS
 10
6.716600
 20
4.336640
  0
VERTEX
  8
0
  6
CONTINUOUS
 10
6.755320
 20
4.286920
  0
VERTEX
  8
0
  6
CONTINUOUS
 10
6.776880
 20
4.250840
  0
VERTEX
  8
0
  6
CONTINUOUS
 10
6.791400
 20
4.216960
  0
VERTEX
  8
0
  6
CONTINUOUS
 10
6.798880
 20
4.184840
  0
VERTEX
  8
0
  6
CONTINUOUS
 10
6.799760
 20
4.164600
  0
VERTEX
  8
0
  6
CONTINUOUS
 10
6.797120
 20
4.145680
  0
VERTEX
  8
0
  6
CONTINUOUS
 10
6.791400
 20
4.128080
  0
VERTEX
  8
0
  6
CONTINUOUS
 10
6.782160
 20
4.111800
  0
VERTEX
  8
0
  6
CONTINUOUS
 10
6.761480
 20
4.090240
  0
VERTEX
  8
0
  6
CONTINUOUS
 10
6.733320
 20
4.072640
  0
VERTEX
  8
0
  6
CONTINUOUS
 10
6.709560
 20
4.062960
  0
VERTEX
  8
0
  6
CONTINUOUS
 10
6.667320
 20
4.052400
  0
VERTEX
  8
0
  6
CONTINUOUS
 10
6.666000
 20
4.051080
  0
VERTEX
  8
0
  6
CONTINUOUS
 10
6.666000
 20
4.004440
  0
VERTEX
  8
0
  6
CONTINUOUS
 10
6.667320
 20
4.004440
  0
VERTEX
  8
0
  6
CONTINUOUS
 10
6.822200
 20
3.924360
  0
VERTEX
  8
0
  6
CONTINUOUS
 10
6.822200
 20
3.401640
  0
VERTEX
  8
0
  6
CONTINUOUS
 10
5.921960
 20
3.400320
  0
VERTEX
  8
0
  6
CONTINUOUS
 10
5.921960
 20
5.117640
  0
SEQEND
  8
0
  0
SOLID
  8
0
 62
     7
 10
6.623760
 20
1.932040
 11
7.273640
 21
2.311760
 12
6.706480
 22
1.881440
 13
7.355920
 23
2.260720
  0
POLYLINE
  8
0
  6
CONTINUOUS
 66
     1
 40
0.000000
 41
0.000000
  0
VERTEX
  8
0
  6
CONTINUOUS
 10
6.623760
 20
1.932040
  0
VERTEX
  8
0
  6
CONTINUOUS
 10
7.273640
 20
2.311760
  0
VERTEX
  8
0
  6
CONTINUOUS
 10
7.355920
 20
2.260720
  0
VERTEX
  8
0
  6
CONTINUOUS
 10
6.706480
 20
1.881440
  0
VERTEX
  8
0
  6
CONTINUOUS
 10
6.623760
 20
1.932040
  0
SEQEND
  8
0
  0
SOLID
  8
0
 62
    15
 10
6.181120
 20
2.507560
 11
6.830560
 21
2.886840
 12
6.181120
 22
2.390080
 13
6.830560
 23
2.769800
  0
POLYLINE
  8
0
  6
CONTINUOUS
 66
     1
 40
0.000000
 41
0.000000
  0
VERTEX
  8
0
  6
CONTINUOUS
 10
6.181120
 20
2.507560
  0
VERTEX
  8
0
  6
CONTINUOUS
 10
6.830560
 20
2.886840
  0
VERTEX
  8
0
  6
CONTINUOUS
 10
6.830560
 20
2.769800
  0
VERTEX
  8
0
  6
CONTINUOUS
 10
6.181120
 20
2.390080
  0
VERTEX
  8
0
  6
CONTINUOUS
 10
6.181120
 20
2.507560
  0
SEQEND
  8
0
  0
SOLID
  8
0
 62
     7
 10
6.181120
 20
2.390080
 11
6.830560
 21
2.769800
 12
6.217640
 22
2.377320
 13
6.867080
 23
2.756600
  0
POLYLINE
  8
0
  6
CONTINUOUS
 66
     1
 40
0.000000
 41
0.000000
  0
VERTEX
  8
0
  6
CONTINUOUS
 10
6.181120
 20
2.390080
  0
VERTEX
  8
0
  6
CONTINUOUS
 10
6.830560
 20
2.769800
  0
VERTEX
  8
0
  6
CONTINUOUS
 10
6.867080
 20
2.756600
  0
VERTEX
  8
0
  6
CONTINUOUS
 10
6.217640
 20
2.377320
  0
VERTEX
  8
0
  6
CONTINUOUS
 10
6.181120
 20
2.390080
  0
SEQEND
  8
0
  0
SOLID
  8
0
 62
     7
 10
6.217640
 20
2.377320
 11
6.867080
 21
2.756600
 12
6.247120
 22
2.352240
 13
6.896560
 23
2.731960
  0
POLYLINE
  8
0
  6
CONTINUOUS
 66
     1
 40
0.000000
 41
0.000000
  0
VERTEX
  8
0
  6
CONTINUOUS
 10
6.217640
 20
2.377320
  0
VERTEX
  8
0
  6
CONTINUOUS
 10
6.867080
 20
2.756600
  0
VERTEX
  8
0
  6
CONTINUOUS
 10
6.896560
 20
2.731960
  0
VERTEX
  8
0
  6
CONTINUOUS
 10
6.247120
 20
2.352240
  0
VERTEX
  8
0
  6
CONTINUOUS
 10
6.217640
 20
2.377320
  0
SEQEND
  8
0
  0
SOLID
  8
0
 62
     7
 10
6.247120
 20
2.352240
 11
6.896560
 21
2.731960
 12
6.266920
 22
2.318800
 13
6.916800
 23
2.698520
  0
POLYLINE
  8
0
  6
CONTINUOUS
 66
     1
 40
0.000000
 41
0.000000
  0
VERTEX
  8
0
  6
CONTINUOUS
 10
6.247120
 20
2.352240
  0
VERTEX
  8
0
  6
CONTINUOUS
 10
6.896560
 20
2.731960
  0
VERTEX
  8
0
  6
CONTINUOUS
 10
6.916800
 20
2.698520
  0
VERTEX
  8
0
  6
CONTINUOUS
 10
6.266920
 20
2.318800
  0
VERTEX
  8
0
  6
CONTINUOUS
 10
6.247120
 20
2.352240
  0
SEQEND
  8
0
  0
SOLID
  8
0
 62
    15
 10
6.266920
 20
2.318800
 11
6.916800
 21
2.698520
 12
6.274400
 22
2.279640
 13
6.923840
 23
2.658920
  0
POLYLINE
  8
0
  6
CONTINUOUS
 66
     1
 40
0.000000
 41
0.000000
  0
VERTEX
  8
0
  6
CONTINUOUS
 10
6.266920
 20
2.318800
  0
VERTEX
  8
0
  6
CONTINUOUS
 10
6.916800
 20
2.698520
  0
VERTEX
  8
0
  6
CONTINUOUS
 10
6.923840
 20
2.658920
  0
VERTEX
  8
0
  6
CONTINUOUS
 10
6.274400
 20
2.279640
  0
VERTEX
  8
0
  6
CONTINUOUS
 10
6.266920
 20
2.318800
  0
SEQEND
  8
0
  0
SOLID
  8
0
 62
    15
 10
6.274400
 20
2.279640
 11
6.923840
 21
2.658920
 12
6.268680
 22
2.246200
 13
6.918560
 23
2.625480
  0
POLYLINE
  8
0
  6
CONTINUOUS
 66
     1
 40
0.000000
 41
0.000000
  0
VERTEX
  8
0
  6
CONTINUOUS
 10
6.274400
 20
2.279640
  0
VERTEX
  8
0
  6
CONTINUOUS
 10
6.923840
 20
2.658920
  0
VERTEX
  8
0
  6
CONTINUOUS
 10
6.918560
 20
2.625480
  0
VERTEX
  8
0
  6
CONTINUOUS
 10
6.268680
 20
2.246200
  0
VERTEX
  8
0
  6
CONTINUOUS
 10
6.274400
 20
2.279640
  0
SEQEND
  8
0
  0
SOLID
  8
0
 62
    15
 10
6.268680
 20
2.246200
 11
6.918560
 21
2.625480
 12
6.253720
 22
2.216720
 13
6.903600
 23
2.596440
  0
POLYLINE
  8
0
  6
CONTINUOUS
 66
     1
 40
0.000000
 41
0.000000
  0
VERTEX
  8
0
  6
CONTINUOUS
 10
6.268680
 20
2.246200
  0
VERTEX
  8
0
  6
CONTINUOUS
 10
6.918560
 20
2.625480
  0
VERTEX
  8
0
  6
CONTINUOUS
 10
6.903600
 20
2.596440
  0
VERTEX
  8
0
  6
CONTINUOUS
 10
6.253720
 20
2.216720
  0
VERTEX
  8
0
  6
CONTINUOUS
 10
6.268680
 20
2.246200
  0
SEQEND
  8
0
  0
SOLID
  8
0
 62
    15
 10
6.202240
 20
2.178000
 11
6.852120
 21
2.557720
 12
6.200920
 22
2.176680
 13
6.850800
 23
2.556400
  0
POLYLINE
  8
0
  6
CONTINUOUS
 66
     1
 40
0.000000
 41
0.000000
  0
VERTEX
  8
0
  6
CONTINUOUS
 10
6.202240
 20
2.178000
  0
VERTEX
  8
0
  6
CONTINUOUS
 10
6.852120
 20
2.557720
  0
VERTEX
  8
0
  6
CONTINUOUS
 10
6.850800
 20
2.556400
  0
VERTEX
  8
0
  6
CONTINUOUS
 10
6.200920
 20
2.176680
  0
VERTEX
  8
0
  6
CONTINUOUS
 10
6.202240
 20
2.178000
  0
SEQEND
  8
0
  0
SOLID
  8
0
 62
    15
 10
6.200920
 20
2.176680
 11
6.850800
 21
2.556400
 12
6.200920
 22
2.107600
 13
6.850800
 23
2.486880
  0
POLYLINE
  8
0
  6
CONTINUOUS
 66
     1
 40
0.000000
 41
0.000000
  0
VERTEX
  8
0
  6
CONTINUOUS
 10
6.200920
 20
2.176680
  0
VERTEX
  8
0
  6
CONTINUOUS
 10
6.850800
 20
2.556400
  0
VERTEX
  8
0
  6
CONTINUOUS
 10
6.850800
 20
2.486880
  0
VERTEX
  8
0
  6
CONTINUOUS
 10
6.200920
 20
2.107600
  0
VERTEX
  8
0
  6
CONTINUOUS
 10
6.200920
 20
2.176680
  0
SEQEND
  8
0
  0
SOLID
  8
0
 62
    15
 10
6.253720
 20
2.216720
 11
6.903600
 21
2.596440
 12
6.230840
 22
2.193400
 13
6.880720
 23
2.573120
  0
POLYLINE
  8
0
  6
CONTINUOUS
 66
     1
 40
0.000000
 41
0.000000
  0
VERTEX
  8
0
  6
CONTINUOUS
 10
6.253720
 20
2.216720
  0
VERTEX
  8
0
  6
CONTINUOUS
 10
6.903600
 20
2.596440
  0
VERTEX
  8
0
  6
CONTINUOUS
 10
6.880720
 20
2.573120
  0
VERTEX
  8
0
  6
CONTINUOUS
 10
6.230840
 20
2.193400
  0
VERTEX
  8
0
  6
CONTINUOUS
 10
6.253720
 20
2.216720
  0
SEQEND
  8
0
  0
SOLID
  8
0
 62
     7
 10
6.200920
 20
2.107600
 11
6.850800
 21
2.486880
 12
6.319720
 22
2.069320
 13
6.969160
 23
2.449040
  0
POLYLINE
  8
0
  6
CONTINUOUS
 66
     1
 40
0.000000
 41
0.000000
  0
VERTEX
  8
0
  6
CONTINUOUS
 10
6.200920
 20
2.107600
  0
VERTEX
  8
0
  6
CONTINUOUS
 10
6.850800
 20
2.486880
  0
VERTEX
  8
0
  6
CONTINUOUS
 10
6.969160
 20
2.449040
  0
VERTEX
  8
0
  6
CONTINUOUS
 10
6.319720
 20
2.069320
  0
VERTEX
  8
0
  6
CONTINUOUS
 10
6.200920
 20
2.107600
  0
SEQEND
  8
0
  0
SOLID
  8
0
 62
     7
 10
6.319720
 20
2.069320
 11
6.969160
 21
2.449040
 12
6.430160
 22
2.027080
 13
7.079600
 23
2.406360
  0
POLYLINE
  8
0
  6
CONTINUOUS
 66
     1
 40
0.000000
 41
0.000000
  0
VERTEX
  8
0
  6
CONTINUOUS
 10
6.319720
 20
2.069320
  0
VERTEX
  8
0
  6
CONTINUOUS
 10
6.969160
 20
2.449040
  0
VERTEX
  8
0
  6
CONTINUOUS
 10
7.079600
 20
2.406360
  0
VERTEX
  8
0
  6
CONTINUOUS
 10
6.430160
 20
2.027080
  0
VERTEX
  8
0
  6
CONTINUOUS
 10
6.319720
 20
2.069320
  0
SEQEND
  8
0
  0
SOLID
  8
0
 62
     7
 10
6.430160
 20
2.027080
 11
7.079600
 21
2.406360
 12
6.531800
 22
1.980880
 13
7.181240
 23
2.360600
  0
POLYLINE
  8
0
  6
CONTINUOUS
 66
     1
 40
0.000000
 41
0.000000
  0
VERTEX
  8
0
  6
CONTINUOUS
 10
6.430160
 20
2.027080
  0
VERTEX
  8
0
  6
CONTINUOUS
 10
7.079600
 20
2.406360
  0
VERTEX
  8
0
  6
CONTINUOUS
 10
7.181240
 20
2.360600
  0
VERTEX
  8
0
  6
CONTINUOUS
 10
6.531800
 20
1.980880
  0
VERTEX
  8
0
  6
CONTINUOUS
 10
6.430160
 20
2.027080
  0
SEQEND
  8
0
  0
SOLID
  8
0
 62
     7
 10
6.531800
 20
1.980880
 11
7.181240
 21
2.360600
 12
6.623760
 22
1.932040
 13
7.273640
 23
2.311760
  0
POLYLINE
  8
0
  6
CONTINUOUS
 66
     1
 40
0.000000
 41
0.000000
  0
VERTEX
  8
0
  6
CONTINUOUS
 10
6.531800
 20
1.980880
  0
VERTEX
  8
0
  6
CONTINUOUS
 10
7.181240
 20
2.360600
  0
VERTEX
  8
0
  6
CONTINUOUS
 10
7.273640
 20
2.311760
  0
VERTEX
  8
0
  6
CONTINUOUS
 10
6.623760
 20
1.932040
  0
VERTEX
  8
0
  6
CONTINUOUS
 10
6.531800
 20
1.980880
  0
SEQEND
  8
0
  0
SOLID
  8
0
 62
    15
 10
6.097080
 20
2.507560
 11
6.746520
 21
2.886840
 12
6.181120
 22
2.507560
 13
6.830560
 23
2.886840
  0
POLYLINE
  8
0
  6
CONTINUOUS
 66
     1
 40
0.000000
 41
0.000000
  0
VERTEX
  8
0
  6
CONTINUOUS
 10
6.097080
 20
2.507560
  0
VERTEX
  8
0
  6
CONTINUOUS
 10
6.746520
 20
2.886840
  0
VERTEX
  8
0
  6
CONTINUOUS
 10
6.830560
 20
2.886840
  0
VERTEX
  8
0
  6
CONTINUOUS
 10
6.181120
 20
2.507560
  0
VERTEX
  8
0
  6
CONTINUOUS
 10
6.097080
 20
2.507560
  0
SEQEND
  8
0
  0
SOLID
  8
0
 62
     7
 10
6.706480
 20
1.881440
 11
7.355920
 21
2.260720
 12
6.778640
 22
1.829520
 13
7.428520
 23
2.209240
  0
POLYLINE
  8
0
  6
CONTINUOUS
 66
     1
 40
0.000000
 41
0.000000
  0
VERTEX
  8
0
  6
CONTINUOUS
 10
6.706480
 20
1.881440
  0
VERTEX
  8
0
  6
CONTINUOUS
 10
7.355920
 20
2.260720
  0
VERTEX
  8
0
  6
CONTINUOUS
 10
7.428520
 20
2.209240
  0
VERTEX
  8
0
  6
CONTINUOUS
 10
6.778640
 20
1.829520
  0
VERTEX
  8
0
  6
CONTINUOUS
 10
6.706480
 20
1.881440
  0
SEQEND
  8
0
  0
SOLID
  8
0
 62
     7
 10
6.778640
 20
1.829520
 11
7.428520
 21
2.209240
 12
6.840680
 22
1.777600
 13
7.490120
 23
2.157320
  0
POLYLINE
  8
0
  6
CONTINUOUS
 66
     1
 40
0.000000
 41
0.000000
  0
VERTEX
  8
0
  6
CONTINUOUS
 10
6.778640
 20
1.829520
  0
VERTEX
  8
0
  6
CONTINUOUS
 10
7.428520
 20
2.209240
  0
VERTEX
  8
0
  6
CONTINUOUS
 10
7.490120
 20
2.157320
  0
VERTEX
  8
0
  6
CONTINUOUS
 10
6.840680
 20
1.777600
  0
VERTEX
  8
0
  6
CONTINUOUS
 10
6.778640
 20
1.829520
  0
SEQEND
  8
0
  0
SOLID
  8
0
 62
     7
 10
6.840680
 20
1.777600
 11
7.490120
 21
2.157320
 12
6.891280
 22
1.726120
 13
7.540720
 23
2.105840
  0
POLYLINE
  8
0
  6
CONTINUOUS
 66
     1
 40
0.000000
 41
0.000000
  0
VERTEX
  8
0
  6
CONTINUOUS
 10
6.840680
 20
1.777600
  0
VERTEX
  8
0
  6
CONTINUOUS
 10
7.490120
 20
2.157320
  0
VERTEX
  8
0
  6
CONTINUOUS
 10
7.540720
 20
2.105840
  0
VERTEX
  8
0
  6
CONTINUOUS
 10
6.891280
 20
1.726120
  0
VERTEX
  8
0
  6
CONTINUOUS
 10
6.840680
 20
1.777600
  0
SEQEND
  8
0
  0
SOLID
  8
0
 62
     7
 10
6.891280
 20
1.726120
 11
7.540720
 21
2.105840
 12
6.930440
 22
1.676400
 13
7.579880
 23
2.056120
  0
POLYLINE
  8
0
  6
CONTINUOUS
 66
     1
 40
0.000000
 41
0.000000
  0
VERTEX
  8
0
  6
CONTINUOUS
 10
6.891280
 20
1.726120
  0
VERTEX
  8
0
  6
CONTINUOUS
 10
7.540720
 20
2.105840
  0
VERTEX
  8
0
  6
CONTINUOUS
 10
7.579880
 20
2.056120
  0
VERTEX
  8
0
  6
CONTINUOUS
 10
6.930440
 20
1.676400
  0
VERTEX
  8
0
  6
CONTINUOUS
 10
6.891280
 20
1.726120
  0
SEQEND
  8
0
  0
SOLID
  8
0
 62
     7
 10
6.930440
 20
1.676400
 11
7.579880
 21
2.056120
 12
6.957280
 22
1.629320
 13
7.606720
 23
2.008600
  0
POLYLINE
  8
0
  6
CONTINUOUS
 66
     1
 40
0.000000
 41
0.000000
  0
VERTEX
  8
0
  6
CONTINUOUS
 10
6.930440
 20
1.676400
  0
VERTEX
  8
0
  6
CONTINUOUS
 10
7.579880
 20
2.056120
  0
VERTEX
  8
0
  6
CONTINUOUS
 10
7.606720
 20
2.008600
  0
VERTEX
  8
0
  6
CONTINUOUS
 10
6.957280
 20
1.629320
  0
VERTEX
  8
0
  6
CONTINUOUS
 10
6.930440
 20
1.676400
  0
SEQEND
  8
0
  0
SOLID
  8
0
 62
    15
 10
6.957280
 20
1.629320
 11
7.606720
 21
2.008600
 12
6.971800
 22
1.584880
 13
7.621680
 23
1.964600
  0
POLYLINE
  8
0
  6
CONTINUOUS
 66
     1
 40
0.000000
 41
0.000000
  0
VERTEX
  8
0
  6
CONTINUOUS
 10
6.957280
 20
1.629320
  0
VERTEX
  8
0
  6
CONTINUOUS
 10
7.606720
 20
2.008600
  0
VERTEX
  8
0
  6
CONTINUOUS
 10
7.621680
 20
1.964600
  0
VERTEX
  8
0
  6
CONTINUOUS
 10
6.971800
 20
1.584880
  0
VERTEX
  8
0
  6
CONTINUOUS
 10
6.957280
 20
1.629320
  0
SEQEND
  8
0
  0
SOLID
  8
0
 62
    15
 10
6.971800
 20
1.584880
 11
7.621680
 21
1.964600
 12
6.973560
 22
1.544840
 13
7.623440
 23
1.924560
  0
POLYLINE
  8
0
  6
CONTINUOUS
 66
     1
 40
0.000000
 41
0.000000
  0
VERTEX
  8
0
  6
CONTINUOUS
 10
6.971800
 20
1.584880
  0
VERTEX
  8
0
  6
CONTINUOUS
 10
7.621680
 20
1.964600
  0
VERTEX
  8
0
  6
CONTINUOUS
 10
7.623440
 20
1.924560
  0
VERTEX
  8
0
  6
CONTINUOUS
 10
6.973560
 20
1.544840
  0
VERTEX
  8
0
  6
CONTINUOUS
 10
6.971800
 20
1.584880
  0
SEQEND
  8
0
  0
SOLID
  8
0
 62
    15
 10
6.842440
 20
1.442320
 11
7.491880
 21
1.821600
 12
6.841120
 22
1.441000
 13
7.490560
 23
1.820280
  0
POLYLINE
  8
0
  6
CONTINUOUS
 66
     1
 40
0.000000
 41
0.000000
  0
VERTEX
  8
0
  6
CONTINUOUS
 10
6.842440
 20
1.442320
  0
VERTEX
  8
0
  6
CONTINUOUS
 10
7.491880
 20
1.821600
  0
VERTEX
  8
0
  6
CONTINUOUS
 10
7.490560
 20
1.820280
  0
VERTEX
  8
0
  6
CONTINUOUS
 10
6.841120
 20
1.441000
  0
VERTEX
  8
0
  6
CONTINUOUS
 10
6.842440
 20
1.442320
  0
SEQEND
  8
0
  0
SOLID
  8
0
 62
    15
 10
6.841120
 20
1.441000
 11
7.490560
 21
1.820280
 12
6.841120
 22
1.394360
 13
7.490560
 23
1.773640
  0
POLYLINE
  8
0
  6
CONTINUOUS
 66
     1
 40
0.000000
 41
0.000000
  0
VERTEX
  8
0
  6
CONTINUOUS
 10
6.841120
 20
1.441000
  0
VERTEX
  8
0
  6
CONTINUOUS
 10
7.490560
 20
1.820280
  0
VERTEX
  8
0
  6
CONTINUOUS
 10
7.490560
 20
1.773640
  0
VERTEX
  8
0
  6
CONTINUOUS
 10
6.841120
 20
1.394360
  0
VERTEX
  8
0
  6
CONTINUOUS
 10
6.841120
 20
1.441000
  0
SEQEND
  8
0
  0
SOLID
  8
0
 62
    15
 10
6.973560
 20
1.544840
 11
7.623440
 21
1.924560
 12
6.962120
 22
1.509640
 13
7.611560
 23
1.889360
  0
POLYLINE
  8
0
  6
CONTINUOUS
 66
     1
 40
0.000000
 41
0.000000
  0
VERTEX
  8
0
  6
CONTINUOUS
 10
6.973560
 20
1.544840
  0
VERTEX
  8
0
  6
CONTINUOUS
 10
7.623440
 20
1.924560
  0
VERTEX
  8
0
  6
CONTINUOUS
 10
7.611560
 20
1.889360
  0
VERTEX
  8
0
  6
CONTINUOUS
 10
6.962120
 20
1.509640
  0
VERTEX
  8
0
  6
CONTINUOUS
 10
6.973560
 20
1.544840
  0
SEQEND
  8
0
  0
SOLID
  8
0
 62
    15
 10
6.962120
 20
1.509640
 11
7.611560
 21
1.889360
 12
6.936600
 22
1.480160
 13
7.586040
 23
1.859880
  0
POLYLINE
  8
0
  6
CONTINUOUS
 66
     1
 40
0.000000
 41
0.000000
  0
VERTEX
  8
0
  6
CONTINUOUS
 10
6.962120
 20
1.509640
  0
VERTEX
  8
0
  6
CONTINUOUS
 10
7.611560
 20
1.889360
  0
VERTEX
  8
0
  6
CONTINUOUS
 10
7.586040
 20
1.859880
  0
VERTEX
  8
0
  6
CONTINUOUS
 10
6.936600
 20
1.480160
  0
VERTEX
  8
0
  6
CONTINUOUS
 10
6.962120
 20
1.509640
  0
SEQEND
  8
0
  0
SOLID
  8
0
 62
     7
 10
6.841120
 20
1.394360
 11
7.490560
 21
1.773640
 12
6.842440
 22
1.393920
 13
7.491880
 23
1.773640
  0
POLYLINE
  8
0
  6
CONTINUOUS
 66
     1
 40
0.000000
 41
0.000000
  0
VERTEX
  8
0
  6
CONTINUOUS
 10
6.841120
 20
1.394360
  0
VERTEX
  8
0
  6
CONTINUOUS
 10
7.490560
 20
1.773640
  0
VERTEX
  8
0
  6
CONTINUOUS
 10
7.491880
 20
1.773640
  0
VERTEX
  8
0
  6
CONTINUOUS
 10
6.842440
 20
1.393920
  0
VERTEX
  8
0
  6
CONTINUOUS
 10
6.841120
 20
1.394360
  0
SEQEND
  8
0
  0
SOLID
  8
0
 62
     7
 10
6.842440
 20
1.393920
 11
7.491880
 21
1.773640
 12
6.996880
 22
1.314280
 13
7.646760
 23
1.693560
  0
POLYLINE
  8
0
  6
CONTINUOUS
 66
     1
 40
0.000000
 41
0.000000
  0
VERTEX
  8
0
  6
CONTINUOUS
 10
6.842440
 20
1.393920
  0
VERTEX
  8
0
  6
CONTINUOUS
 10
7.491880
 20
1.773640
  0
VERTEX
  8
0
  6
CONTINUOUS
 10
7.646760
 20
1.693560
  0
VERTEX
  8
0
  6
CONTINUOUS
 10
6.996880
 20
1.314280
  0
VERTEX
  8
0
  6
CONTINUOUS
 10
6.842440
 20
1.393920
  0
SEQEND
  8
0
  0
SOLID
  8
0
 62
    15
 10
6.996880
 20
1.314280
 11
7.646760
 21
1.693560
 12
6.996880
 22
0.791560
 13
7.646760
 23
1.170840
  0
POLYLINE
  8
0
  6
CONTINUOUS
 66
     1
 40
0.000000
 41
0.000000
  0
VERTEX
  8
0
  6
CONTINUOUS
 10
6.996880
 20
1.314280
  0
VERTEX
  8
0
  6
CONTINUOUS
 10
7.646760
 20
1.693560
  0
VERTEX
  8
0
  6
CONTINUOUS
 10
7.646760
 20
1.170840
  0
VERTEX
  8
0
  6
CONTINUOUS
 10
6.996880
 20
0.791560
  0
VERTEX
  8
0
  6
CONTINUOUS
 10
6.996880
 20
1.314280
  0
SEQEND
  8
0
  0
POLYLINE
  8
0
  6
CONTINUOUS
 66
     1
 40
0.000000
 41
0.000000
  0
VERTEX
  8
0
  6
CONTINUOUS
 10
6.097080
 20
2.507560
  0
VERTEX
  8
0
  6
CONTINUOUS
 10
6.181120
 20
2.507560
  0
VERTEX
  8
0
  6
CONTINUOUS
 10
6.181120
 20
2.390080
  0
VERTEX
  8
0
  6
CONTINUOUS
 10
6.217640
 20
2.377320
  0
VERTEX
  8
0
  6
CONTINUOUS
 10
6.247120
 20
2.352240
  0
VERTEX
  8
0
  6
CONTINUOUS
 10
6.266920
 20
2.318800
  0
VERTEX
  8
0
  6
CONTINUOUS
 10
6.274400
 20
2.279640
  0
VERTEX
  8
0
  6
CONTINUOUS
 10
6.268680
 20
2.246200
  0
VERTEX
  8
0
  6
CONTINUOUS
 10
6.253720
 20
2.216720
  0
VERTEX
  8
0
  6
CONTINUOUS
 10
6.230840
 20
2.193400
  0
VERTEX
  8
0
  6
CONTINUOUS
 10
6.202240
 20
2.178000
  0
VERTEX
  8
0
  6
CONTINUOUS
 10
6.200920
 20
2.176680
  0
VERTEX
  8
0
  6
CONTINUOUS
 10
6.200920
 20
2.107600
  0
VERTEX
  8
0
  6
CONTINUOUS
 10
6.319720
 20
2.069320
  0
VERTEX
  8
0
  6
CONTINUOUS
 10
6.430160
 20
2.027080
  0
VERTEX
  8
0
  6
CONTINUOUS
 10
6.531800
 20
1.980880
  0
VERTEX
  8
0
  6
CONTINUOUS
 10
6.623760
 20
1.932040
  0
VERTEX
  8
0
  6
CONTINUOUS
 10
6.706480
 20
1.881440
  0
VERTEX
  8
0
  6
CONTINUOUS
 10
6.778640
 20
1.829520
  0
VERTEX
  8
0
  6
CONTINUOUS
 10
6.840680
 20
1.777600
  0
VERTEX
  8
0
  6
CONTINUOUS
 10
6.891280
 20
1.726120
  0
VERTEX
  8
0
  6
CONTINUOUS
 10
6.930440
 20
1.676400
  0
VERTEX
  8
0
  6
CONTINUOUS
 10
6.957280
 20
1.629320
  0
VERTEX
  8
0
  6
CONTINUOUS
 10
6.971800
 20
1.584880
  0
VERTEX
  8
0
  6
CONTINUOUS
 10
6.973560
 20
1.544840
  0
VERTEX
  8
0
  6
CONTINUOUS
 10
6.962120
 20
1.509640
  0
VERTEX
  8
0
  6
CONTINUOUS
 10
6.936600
 20
1.480160
  0
VERTEX
  8
0
  6
CONTINUOUS
 10
6.897000
 20
1.457280
  0
VERTEX
  8
0
  6
CONTINUOUS
 10
6.871480
 20
1.448920
  0
VERTEX
  8
0
  6
CONTINUOUS
 10
6.842440
 20
1.442320
  0
VERTEX
  8
0
  6
CONTINUOUS
 10
6.841120
 20
1.441000
  0
VERTEX
  8
0
  6
CONTINUOUS
 10
6.841120
 20
1.394360
  0
VERTEX
  8
0
  6
CONTINUOUS
 10
6.842440
 20
1.393920
  0
VERTEX
  8
0
  6
CONTINUOUS
 10
6.996880
 20
1.314280
  0
VERTEX
  8
0
  6
CONTINUOUS
 10
6.996880
 20
0.791560
  0
VERTEX
  8
0
  6
CONTINUOUS
 10
6.097080
 20
0.790240
  0
VERTEX
  8
0
  6
CONTINUOUS
 10
6.097080
 20
2.500960
  0
VERTEX
  8
0
  6
CONTINUOUS
 10
6.097080
 20
2.507560
  0
SEQEND
  8
0
  0
TEXT
  8
0
 10
6.732440
 20
0.569800
 40
0.138110
  1
274
 41
1.000000
  7
SN0
 71
     0
 72
     5
 11
7.009517
 21
0.569800
  0
TEXT
  8
0
 10
6.442480
 20
0.378400
 40
0.138110
  1
7/8" x1-3/4"
 41
1.000000
  7
SN0
 71
     0
 72
     5
 11
7.298202
 21
0.378400
  0
TEXT
  8
0
 10
7.627400
 20
5.135240
 40
0.138110
  1
base
 41
1.000000
  7
SN0
 71
     0
 72
     5
 11
7.987600
 21
5.135240
  0
TEXT
  8
0
 10
7.627400
 20
4.943840
 40
0.138110
  1
274
 41
1.000000
  7
SN0
 71
     0
 72
     5
 11
7.904477
 21
4.943840
  0
ENDSEC
  0
EOF
