  0
SECTION
  2
HEADER
  9
$ACADVER
  1
AC1006
  9
$EXTMIN
 10
5.859040
 20
0.451000
  9
$EXTMAX
 10
8.051560
 20
4.070880
  9
$LTSCALE
 40
0.044000
  9
$PDMODE
 70
    35
  9
$PDSIZE
 40
0.035200
  0
ENDSEC
  0
SECTION
  2
TABLES
  0
TABLE
  2
LTYPE
 70
     9
  0
LTYPE
  2
CONTINUOUS
 70
    64
  3
Solid line
 72
    65
 73
     0
 40
0.000000
  0
LTYPE
  2
DASHED
 70
    64
  3
__ __ __ __ __ __ __ __ __ __ __ __ __ __ __
 72
    65
 73
     2
 40
0.000330
 49
0.000220
 49
-0.000110
  0
LTYPE
  2
HIDDEN
 70
    64
  3
 _ _ _ _ _ _ _ _ _ _ _ _ _ _ _ _ _ _ _ _ _ _
 72
    65
 73
     2
 40
0.000165
 49
0.000110
 49
-0.000055
  0
LTYPE
  2
CENTER
 70
    64
  3
____ _ ____ _ ____ _ ____ _ ____ _ ____ _ ____
 72
    65
 73
     4
 40
0.000880
 49
0.000550
 49
-0.000110
 49
0.000110
 49
-0.000110
  0
LTYPE
  2
PHANTOM
 70
    64
  3
_____ _ _ _____ _ _ _____ _ _ _____ _ _ ____
 72
    65
 73
     6
 40
0.001100
 49
0.000550
 49
-0.000110
 49
0.000110
 49
-0.000110
 49
0.000110
 49
-0.000110
  0
LTYPE
  2
DOT
 70
    64
  3
...............................................
 72
    65
 73
     2
 40
0.000110
 49
0.000000
 49
-0.000110
  0
LTYPE
  2
DASHDOT
 70
    64
  3
__ . __ . __ . __ . __ . __ . __ . __ . __ . __
 72
    65
 73
     4
 40
0.000440
 49
0.000220
 49
-0.000110
 49
0.000000
 49
-0.000110
  0
LTYPE
  2
BORDER
 70
    64
  3
__ __ . __ __ . __ __ . __ __ . __ __ . __ __
 72
    65
 73
     6
 40
0.000770
 49
0.000220
 49
-0.000110
 49
0.000220
 49
-0.000110
 49
0.000000
 49
-0.000110
  0
LTYPE
  2
DIVIDE
 70
    64
  3
__ . . __ . . __ . . __ . . __ . . __ . . __
 72
    65
 73
     6
 40
0.000550
 49
0.000220
 49
-0.000110
 49
0.000000
 49
-0.000110
 49
0.000000
 49
-0.000110
  0
LTYPE
  2
DOTDOT
 70
    64
  3
 . .  . .  . .  . .  . .  . . 
 72
    65
 73
     5
 40
0.000242
 49
-0.000110
 49
0.000000
 49
-0.000110
 49
0.000000
 49
-0.000110
  0
ENDTAB
  0
TABLE
  2
STYLE
 70
     2
  0
STYLE
 70
     0
  2
SN0
 40
0.000000
 41
0.000440
 50
0.000000
 71
     0
 42
0.000000
  3
ROMAND
  0
STYLE
 70
    68
  2
SV0
 40
0.000000
 41
0.000440
 50
0.000000
 71
     0
 42
0.000000
  3
ROMAND
  0
ENDTAB
  0
TABLE
  2
LAYER
 70
     3
  0
LAYER
  2
FOREGROUND
 70
    64
 62
     7
  6
CONTINUOUS
  0
LAYER
  2
BACKGROUND
 70
    65
 62
    -7
  6
CONTINUOUS
  0
LAYER
  2
0
 70
    64
 62
     7
  6
CONTINUOUS
  0
ENDTAB
  0
ENDSEC
  0
SECTION
  2
ENTITIES
  0
POLYLINE
  8
FOREGROUND
  6
CONTINUOUS
 66
     1
 40
0.000000
 41
0.000000
  0
VERTEX
  8
FOREGROUND
  6
CONTINUOUS
 10
0.000000
 20
4.521880
  0
VERTEX
  8
FOREGROUND
  6
CONTINUOUS
 10
8.499920
 20
4.521880
  0
VERTEX
  8
FOREGROUND
  6
CONTINUOUS
 10
8.499920
 20
-6.478120
  0
VERTEX
  8
FOREGROUND
  6
CONTINUOUS
 10
0.000000
 20
-6.478120
  0
VERTEX
  8
FOREGROUND
  6
CONTINUOUS
 10
0.000000
 20
4.521880
  0
SEQEND
  8
0
  0
POLYLINE
  8
FOREGROUND
  6
CONTINUOUS
 66
     1
 40
0.000000
 41
0.000000
  0
VERTEX
  8
FOREGROUND
  6
CONTINUOUS
 10
0.000000
 20
4.521880
  0
VERTEX
  8
FOREGROUND
  6
CONTINUOUS
 10
8.499920
 20
4.521880
  0
VERTEX
  8
FOREGROUND
  6
CONTINUOUS
 10
8.499920
 20
-6.478120
  0
VERTEX
  8
FOREGROUND
  6
CONTINUOUS
 10
0.000000
 20
-6.478120
  0
VERTEX
  8
FOREGROUND
  6
CONTINUOUS
 10
0.000000
 20
4.521880
  0
SEQEND
  8
0
  0
POLYLINE
  8
0
  6
CONTINUOUS
 66
     1
 40
0.014080
 41
0.014080
  0
VERTEX
  8
0
  6
CONTINUOUS
 10
7.109080
 20
2.822600
  0
VERTEX
  8
0
  6
CONTINUOUS
 10
5.866520
 20
2.823920
  0
VERTEX
  8
0
  6
CONTINUOUS
 10
5.866520
 20
2.992000
  0
VERTEX
  8
0
  6
CONTINUOUS
 10
5.884120
 20
3.017960
  0
VERTEX
  8
0
  6
CONTINUOUS
 10
5.897320
 20
3.040840
  0
VERTEX
  8
0
  6
CONTINUOUS
 10
5.916680
 20
3.085720
  0
VERTEX
  8
0
  6
CONTINUOUS
 10
5.923720
 20
3.108160
  0
VERTEX
  8
0
  6
CONTINUOUS
 10
5.932080
 20
3.151280
  0
VERTEX
  8
0
  6
CONTINUOUS
 10
5.934280
 20
3.171960
  0
VERTEX
  8
0
  6
CONTINUOUS
 10
5.934720
 20
3.192640
  0
VERTEX
  8
0
  6
CONTINUOUS
 10
5.931640
 20
3.231360
  0
VERTEX
  8
0
  6
CONTINUOUS
 10
5.924600
 20
3.267440
  0
VERTEX
  8
0
  6
CONTINUOUS
 10
5.914040
 20
3.300440
  0
VERTEX
  8
0
  6
CONTINUOUS
 10
5.888520
 20
3.362480
  0
VERTEX
  8
0
  6
CONTINUOUS
 10
5.882360
 20
3.380520
  0
VERTEX
  8
0
  6
CONTINUOUS
 10
5.874000
 20
3.419240
  0
VERTEX
  8
0
  6
CONTINUOUS
 10
5.873120
 20
3.449600
  0
VERTEX
  8
0
  6
CONTINUOUS
 10
5.877520
 20
3.478640
  0
VERTEX
  8
0
  6
CONTINUOUS
 10
5.888520
 20
3.515600
  0
VERTEX
  8
0
  6
CONTINUOUS
 10
5.919760
 20
3.593920
  0
VERTEX
  8
0
  6
CONTINUOUS
 10
5.928560
 20
3.628240
  0
VERTEX
  8
0
  6
CONTINUOUS
 10
5.933840
 20
3.666080
  0
VERTEX
  8
0
  6
CONTINUOUS
 10
5.934280
 20
3.706120
  0
VERTEX
  8
0
  6
CONTINUOUS
 10
5.928560
 20
3.748360
  0
VERTEX
  8
0
  6
CONTINUOUS
 10
5.923720
 20
3.770360
  0
VERTEX
  8
0
  6
CONTINUOUS
 10
5.907880
 20
3.814800
  0
VERTEX
  8
0
  6
CONTINUOUS
 10
5.897320
 20
3.837680
  0
VERTEX
  8
0
  6
CONTINUOUS
 10
5.869160
 20
3.883880
  0
VERTEX
  8
0
  6
CONTINUOUS
 10
5.869160
 20
4.057240
  0
VERTEX
  8
0
  6
CONTINUOUS
 10
5.867840
 20
4.058560
  0
VERTEX
  8
0
  6
CONTINUOUS
 10
7.106440
 20
4.058560
  0
VERTEX
  8
0
  6
CONTINUOUS
 10
7.106440
 20
3.889160
  0
VERTEX
  8
0
  6
CONTINUOUS
 10
7.077400
 20
3.839000
  0
VERTEX
  8
0
  6
CONTINUOUS
 10
7.066400
 20
3.816120
  0
VERTEX
  8
0
  6
CONTINUOUS
 10
7.051000
 20
3.771680
  0
VERTEX
  8
0
  6
CONTINUOUS
 10
7.042640
 20
3.728120
  0
VERTEX
  8
0
  6
CONTINUOUS
 10
7.040440
 20
3.707440
  0
VERTEX
  8
0
  6
CONTINUOUS
 10
7.040000
 20
3.687200
  0
VERTEX
  8
0
  6
CONTINUOUS
 10
7.043080
 20
3.648040
  0
VERTEX
  8
0
  6
CONTINUOUS
 10
7.050120
 20
3.611960
  0
VERTEX
  8
0
  6
CONTINUOUS
 10
7.060680
 20
3.578960
  0
VERTEX
  8
0
  6
CONTINUOUS
 10
7.086200
 20
3.516920
  0
VERTEX
  8
0
  6
CONTINUOUS
 10
7.096760
 20
3.479960
  0
VERTEX
  8
0
  6
CONTINUOUS
 10
7.101160
 20
3.450920
  0
VERTEX
  8
0
  6
CONTINUOUS
 10
7.100280
 20
3.420560
  0
VERTEX
  8
0
  6
CONTINUOUS
 10
7.091920
 20
3.381840
  0
VERTEX
  8
0
  6
CONTINUOUS
 10
7.076960
 20
3.340920
  0
VERTEX
  8
0
  6
CONTINUOUS
 10
7.054960
 20
3.285920
  0
VERTEX
  8
0
  6
CONTINUOUS
 10
7.046600
 20
3.251160
  0
VERTEX
  8
0
  6
CONTINUOUS
 10
7.042200
 20
3.213320
  0
VERTEX
  8
0
  6
CONTINUOUS
 10
7.042640
 20
3.173280
  0
VERTEX
  8
0
  6
CONTINUOUS
 10
7.044840
 20
3.152600
  0
VERTEX
  8
0
  6
CONTINUOUS
 10
7.054080
 20
3.109480
  0
VERTEX
  8
0
  6
CONTINUOUS
 10
7.070360
 20
3.064600
  0
VERTEX
  8
0
  6
CONTINUOUS
 10
7.094560
 20
3.019280
  0
VERTEX
  8
0
  6
CONTINUOUS
 10
7.109520
 20
2.995960
  0
VERTEX
  8
0
  6
CONTINUOUS
 10
7.109080
 20
2.822600
  0
SEQEND
  8
0
  0
SOLID
  8
0
 62
    15
 10
7.396840
 20
1.520200
 11
8.043640
 21
1.891560
 12
7.396840
 22
1.518880
 13
8.043640
 23
1.890240
  0
POLYLINE
  8
0
  6
CONTINUOUS
 66
     1
 40
0.000000
 41
0.000000
  0
VERTEX
  8
0
  6
CONTINUOUS
 10
7.396840
 20
1.520200
  0
VERTEX
  8
0
  6
CONTINUOUS
 10
8.043640
 20
1.891560
  0
VERTEX
  8
0
  6
CONTINUOUS
 10
8.043640
 20
1.890240
  0
VERTEX
  8
0
  6
CONTINUOUS
 10
7.396840
 20
1.518880
  0
VERTEX
  8
0
  6
CONTINUOUS
 10
7.396840
 20
1.520200
  0
SEQEND
  8
0
  0
SOLID
  8
0
 62
    15
 10
7.402120
 20
2.137520
 11
8.048920
 21
2.508880
 12
7.402120
 22
1.968120
 13
8.048920
 23
2.339920
  0
POLYLINE
  8
0
  6
CONTINUOUS
 66
     1
 40
0.000000
 41
0.000000
  0
VERTEX
  8
0
  6
CONTINUOUS
 10
7.402120
 20
2.137520
  0
VERTEX
  8
0
  6
CONTINUOUS
 10
8.048920
 20
2.508880
  0
VERTEX
  8
0
  6
CONTINUOUS
 10
8.048920
 20
2.339920
  0
VERTEX
  8
0
  6
CONTINUOUS
 10
7.402120
 20
1.968120
  0
VERTEX
  8
0
  6
CONTINUOUS
 10
7.402120
 20
2.137520
  0
SEQEND
  8
0
  0
SOLID
  8
0
 62
    15
 10
7.402120
 20
1.968120
 11
8.048920
 21
2.339920
 12
7.400800
 22
1.964160
 13
8.047600
 23
2.335520
  0
POLYLINE
  8
0
  6
CONTINUOUS
 66
     1
 40
0.000000
 41
0.000000
  0
VERTEX
  8
0
  6
CONTINUOUS
 10
7.402120
 20
1.968120
  0
VERTEX
  8
0
  6
CONTINUOUS
 10
8.048920
 20
2.339920
  0
VERTEX
  8
0
  6
CONTINUOUS
 10
8.047600
 20
2.335520
  0
VERTEX
  8
0
  6
CONTINUOUS
 10
7.400800
 20
1.964160
  0
VERTEX
  8
0
  6
CONTINUOUS
 10
7.402120
 20
1.968120
  0
SEQEND
  8
0
  0
SOLID
  8
0
 62
    15
 10
7.400800
 20
1.964160
 11
8.047600
 21
2.335520
 12
7.372640
 22
1.917960
 13
8.019440
 23
2.289760
  0
POLYLINE
  8
0
  6
CONTINUOUS
 66
     1
 40
0.000000
 41
0.000000
  0
VERTEX
  8
0
  6
CONTINUOUS
 10
7.400800
 20
1.964160
  0
VERTEX
  8
0
  6
CONTINUOUS
 10
8.047600
 20
2.335520
  0
VERTEX
  8
0
  6
CONTINUOUS
 10
8.019440
 20
2.289760
  0
VERTEX
  8
0
  6
CONTINUOUS
 10
7.372640
 20
1.917960
  0
VERTEX
  8
0
  6
CONTINUOUS
 10
7.400800
 20
1.964160
  0
SEQEND
  8
0
  0
SOLID
  8
0
 62
    15
 10
7.372640
 20
1.917960
 11
8.019440
 21
2.289760
 12
7.353280
 22
1.872640
 13
8.000080
 23
2.244440
  0
POLYLINE
  8
0
  6
CONTINUOUS
 66
     1
 40
0.000000
 41
0.000000
  0
VERTEX
  8
0
  6
CONTINUOUS
 10
7.372640
 20
1.917960
  0
VERTEX
  8
0
  6
CONTINUOUS
 10
8.019440
 20
2.289760
  0
VERTEX
  8
0
  6
CONTINUOUS
 10
8.000080
 20
2.244440
  0
VERTEX
  8
0
  6
CONTINUOUS
 10
7.353280
 20
1.872640
  0
VERTEX
  8
0
  6
CONTINUOUS
 10
7.372640
 20
1.917960
  0
SEQEND
  8
0
  0
SOLID
  8
0
 62
    15
 10
7.353280
 20
1.872640
 11
8.000080
 21
2.244440
 12
7.341400
 22
1.828640
 13
7.988200
 23
2.200440
  0
POLYLINE
  8
0
  6
CONTINUOUS
 66
     1
 40
0.000000
 41
0.000000
  0
VERTEX
  8
0
  6
CONTINUOUS
 10
7.353280
 20
1.872640
  0
VERTEX
  8
0
  6
CONTINUOUS
 10
8.000080
 20
2.244440
  0
VERTEX
  8
0
  6
CONTINUOUS
 10
7.988200
 20
2.200440
  0
VERTEX
  8
0
  6
CONTINUOUS
 10
7.341400
 20
1.828640
  0
VERTEX
  8
0
  6
CONTINUOUS
 10
7.353280
 20
1.872640
  0
SEQEND
  8
0
  0
SOLID
  8
0
 62
    15
 10
7.341400
 20
1.828640
 11
7.988200
 21
2.200440
 12
7.335680
 22
1.786400
 13
7.982480
 23
2.158200
  0
POLYLINE
  8
0
  6
CONTINUOUS
 66
     1
 40
0.000000
 41
0.000000
  0
VERTEX
  8
0
  6
CONTINUOUS
 10
7.341400
 20
1.828640
  0
VERTEX
  8
0
  6
CONTINUOUS
 10
7.988200
 20
2.200440
  0
VERTEX
  8
0
  6
CONTINUOUS
 10
7.982480
 20
2.158200
  0
VERTEX
  8
0
  6
CONTINUOUS
 10
7.335680
 20
1.786400
  0
VERTEX
  8
0
  6
CONTINUOUS
 10
7.341400
 20
1.828640
  0
SEQEND
  8
0
  0
SOLID
  8
0
 62
    15
 10
7.335680
 20
1.786400
 11
7.982480
 21
2.158200
 12
7.341400
 22
1.708520
 13
7.988200
 23
2.080320
  0
POLYLINE
  8
0
  6
CONTINUOUS
 66
     1
 40
0.000000
 41
0.000000
  0
VERTEX
  8
0
  6
CONTINUOUS
 10
7.335680
 20
1.786400
  0
VERTEX
  8
0
  6
CONTINUOUS
 10
7.982480
 20
2.158200
  0
VERTEX
  8
0
  6
CONTINUOUS
 10
7.988200
 20
2.080320
  0
VERTEX
  8
0
  6
CONTINUOUS
 10
7.341400
 20
1.708520
  0
VERTEX
  8
0
  6
CONTINUOUS
 10
7.335680
 20
1.786400
  0
SEQEND
  8
0
  0
SOLID
  8
0
 62
     7
 10
7.341400
 20
1.708520
 11
7.988200
 21
2.080320
 12
7.362080
 22
1.642960
 13
8.008880
 23
2.014320
  0
POLYLINE
  8
0
  6
CONTINUOUS
 66
     1
 40
0.000000
 41
0.000000
  0
VERTEX
  8
0
  6
CONTINUOUS
 10
7.341400
 20
1.708520
  0
VERTEX
  8
0
  6
CONTINUOUS
 10
7.988200
 20
2.080320
  0
VERTEX
  8
0
  6
CONTINUOUS
 10
8.008880
 20
2.014320
  0
VERTEX
  8
0
  6
CONTINUOUS
 10
7.362080
 20
1.642960
  0
VERTEX
  8
0
  6
CONTINUOUS
 10
7.341400
 20
1.708520
  0
SEQEND
  8
0
  0
SOLID
  8
0
 62
     7
 10
7.362080
 20
1.642960
 11
8.008880
 21
2.014320
 12
7.364720
 22
1.635920
 13
8.011520
 23
2.007720
  0
POLYLINE
  8
0
  6
CONTINUOUS
 66
     1
 40
0.000000
 41
0.000000
  0
VERTEX
  8
0
  6
CONTINUOUS
 10
7.362080
 20
1.642960
  0
VERTEX
  8
0
  6
CONTINUOUS
 10
8.008880
 20
2.014320
  0
VERTEX
  8
0
  6
CONTINUOUS
 10
8.011520
 20
2.007720
  0
VERTEX
  8
0
  6
CONTINUOUS
 10
7.364720
 20
1.635920
  0
VERTEX
  8
0
  6
CONTINUOUS
 10
7.362080
 20
1.642960
  0
SEQEND
  8
0
  0
SOLID
  8
0
 62
     7
 10
7.364720
 20
1.635920
 11
8.011520
 21
2.007720
 12
7.369120
 22
1.625800
 13
8.015920
 23
1.997160
  0
POLYLINE
  8
0
  6
CONTINUOUS
 66
     1
 40
0.000000
 41
0.000000
  0
VERTEX
  8
0
  6
CONTINUOUS
 10
7.364720
 20
1.635920
  0
VERTEX
  8
0
  6
CONTINUOUS
 10
8.011520
 20
2.007720
  0
VERTEX
  8
0
  6
CONTINUOUS
 10
8.015920
 20
1.997160
  0
VERTEX
  8
0
  6
CONTINUOUS
 10
7.369120
 20
1.625800
  0
VERTEX
  8
0
  6
CONTINUOUS
 10
7.364720
 20
1.635920
  0
SEQEND
  8
0
  0
SOLID
  8
0
 62
     7
 10
7.369120
 20
1.625800
 11
8.015920
 21
1.997160
 12
7.381440
 22
1.595880
 13
8.028240
 23
1.967680
  0
POLYLINE
  8
0
  6
CONTINUOUS
 66
     1
 40
0.000000
 41
0.000000
  0
VERTEX
  8
0
  6
CONTINUOUS
 10
7.369120
 20
1.625800
  0
VERTEX
  8
0
  6
CONTINUOUS
 10
8.015920
 20
1.997160
  0
VERTEX
  8
0
  6
CONTINUOUS
 10
8.028240
 20
1.967680
  0
VERTEX
  8
0
  6
CONTINUOUS
 10
7.381440
 20
1.595880
  0
VERTEX
  8
0
  6
CONTINUOUS
 10
7.369120
 20
1.625800
  0
SEQEND
  8
0
  0
SOLID
  8
0
 62
     7
 10
7.381440
 20
1.595880
 11
8.028240
 21
1.967680
 12
7.392440
 22
1.558920
 13
8.039240
 23
1.930720
  0
POLYLINE
  8
0
  6
CONTINUOUS
 66
     1
 40
0.000000
 41
0.000000
  0
VERTEX
  8
0
  6
CONTINUOUS
 10
7.381440
 20
1.595880
  0
VERTEX
  8
0
  6
CONTINUOUS
 10
8.028240
 20
1.967680
  0
VERTEX
  8
0
  6
CONTINUOUS
 10
8.039240
 20
1.930720
  0
VERTEX
  8
0
  6
CONTINUOUS
 10
7.392440
 20
1.558920
  0
VERTEX
  8
0
  6
CONTINUOUS
 10
7.381440
 20
1.595880
  0
SEQEND
  8
0
  0
SOLID
  8
0
 62
    15
 10
7.392440
 20
1.558920
 11
8.039240
 21
1.930720
 12
7.396840
 22
1.520200
 13
8.043640
 23
1.891560
  0
POLYLINE
  8
0
  6
CONTINUOUS
 66
     1
 40
0.000000
 41
0.000000
  0
VERTEX
  8
0
  6
CONTINUOUS
 10
7.392440
 20
1.558920
  0
VERTEX
  8
0
  6
CONTINUOUS
 10
8.039240
 20
1.930720
  0
VERTEX
  8
0
  6
CONTINUOUS
 10
8.043640
 20
1.891560
  0
VERTEX
  8
0
  6
CONTINUOUS
 10
7.396840
 20
1.520200
  0
VERTEX
  8
0
  6
CONTINUOUS
 10
7.392440
 20
1.558920
  0
SEQEND
  8
0
  0
SOLID
  8
0
 62
    15
 10
6.163520
 20
2.137520
 11
6.810320
 21
2.508880
 12
7.402120
 22
2.137520
 13
8.048920
 23
2.508880
  0
POLYLINE
  8
0
  6
CONTINUOUS
 66
     1
 40
0.000000
 41
0.000000
  0
VERTEX
  8
0
  6
CONTINUOUS
 10
6.163520
 20
2.137520
  0
VERTEX
  8
0
  6
CONTINUOUS
 10
6.810320
 20
2.508880
  0
VERTEX
  8
0
  6
CONTINUOUS
 10
8.048920
 20
2.508880
  0
VERTEX
  8
0
  6
CONTINUOUS
 10
7.402120
 20
2.137520
  0
VERTEX
  8
0
  6
CONTINUOUS
 10
6.163520
 20
2.137520
  0
SEQEND
  8
0
  0
SOLID
  8
0
 62
    15
 10
7.396840
 20
1.518880
 11
8.043640
 21
1.890240
 12
7.392440
 22
1.479720
 13
8.039240
 23
1.851520
  0
POLYLINE
  8
0
  6
CONTINUOUS
 66
     1
 40
0.000000
 41
0.000000
  0
VERTEX
  8
0
  6
CONTINUOUS
 10
7.396840
 20
1.518880
  0
VERTEX
  8
0
  6
CONTINUOUS
 10
8.043640
 20
1.890240
  0
VERTEX
  8
0
  6
CONTINUOUS
 10
8.039240
 20
1.851520
  0
VERTEX
  8
0
  6
CONTINUOUS
 10
7.392440
 20
1.479720
  0
VERTEX
  8
0
  6
CONTINUOUS
 10
7.396840
 20
1.518880
  0
SEQEND
  8
0
  0
SOLID
  8
0
 62
    15
 10
7.392440
 20
1.479720
 11
8.039240
 21
1.851520
 12
7.381440
 22
1.442760
 13
8.028240
 23
1.814560
  0
POLYLINE
  8
0
  6
CONTINUOUS
 66
     1
 40
0.000000
 41
0.000000
  0
VERTEX
  8
0
  6
CONTINUOUS
 10
7.392440
 20
1.479720
  0
VERTEX
  8
0
  6
CONTINUOUS
 10
8.039240
 20
1.851520
  0
VERTEX
  8
0
  6
CONTINUOUS
 10
8.028240
 20
1.814560
  0
VERTEX
  8
0
  6
CONTINUOUS
 10
7.381440
 20
1.442760
  0
VERTEX
  8
0
  6
CONTINUOUS
 10
7.392440
 20
1.479720
  0
SEQEND
  8
0
  0
SOLID
  8
0
 62
    15
 10
7.381440
 20
1.442760
 11
8.028240
 21
1.814560
 12
7.369120
 22
1.413280
 13
8.015920
 23
1.784640
  0
POLYLINE
  8
0
  6
CONTINUOUS
 66
     1
 40
0.000000
 41
0.000000
  0
VERTEX
  8
0
  6
CONTINUOUS
 10
7.381440
 20
1.442760
  0
VERTEX
  8
0
  6
CONTINUOUS
 10
8.028240
 20
1.814560
  0
VERTEX
  8
0
  6
CONTINUOUS
 10
8.015920
 20
1.784640
  0
VERTEX
  8
0
  6
CONTINUOUS
 10
7.369120
 20
1.413280
  0
VERTEX
  8
0
  6
CONTINUOUS
 10
7.381440
 20
1.442760
  0
SEQEND
  8
0
  0
SOLID
  8
0
 62
    15
 10
7.369120
 20
1.413280
 11
8.015920
 21
1.784640
 12
7.364720
 22
1.402720
 13
8.011520
 23
1.774520
  0
POLYLINE
  8
0
  6
CONTINUOUS
 66
     1
 40
0.000000
 41
0.000000
  0
VERTEX
  8
0
  6
CONTINUOUS
 10
7.369120
 20
1.413280
  0
VERTEX
  8
0
  6
CONTINUOUS
 10
8.015920
 20
1.784640
  0
VERTEX
  8
0
  6
CONTINUOUS
 10
8.011520
 20
1.774520
  0
VERTEX
  8
0
  6
CONTINUOUS
 10
7.364720
 20
1.402720
  0
VERTEX
  8
0
  6
CONTINUOUS
 10
7.369120
 20
1.413280
  0
SEQEND
  8
0
  0
SOLID
  8
0
 62
    15
 10
7.364720
 20
1.402720
 11
8.011520
 21
1.774520
 12
7.362080
 22
1.396120
 13
8.008880
 23
1.767920
  0
POLYLINE
  8
0
  6
CONTINUOUS
 66
     1
 40
0.000000
 41
0.000000
  0
VERTEX
  8
0
  6
CONTINUOUS
 10
7.364720
 20
1.402720
  0
VERTEX
  8
0
  6
CONTINUOUS
 10
8.011520
 20
1.774520
  0
VERTEX
  8
0
  6
CONTINUOUS
 10
8.008880
 20
1.767920
  0
VERTEX
  8
0
  6
CONTINUOUS
 10
7.362080
 20
1.396120
  0
VERTEX
  8
0
  6
CONTINUOUS
 10
7.364720
 20
1.402720
  0
SEQEND
  8
0
  0
SOLID
  8
0
 62
    15
 10
7.362080
 20
1.396120
 11
8.008880
 21
1.767920
 12
7.341840
 22
1.330120
 13
7.988640
 23
1.701920
  0
POLYLINE
  8
0
  6
CONTINUOUS
 66
     1
 40
0.000000
 41
0.000000
  0
VERTEX
  8
0
  6
CONTINUOUS
 10
7.362080
 20
1.396120
  0
VERTEX
  8
0
  6
CONTINUOUS
 10
8.008880
 20
1.767920
  0
VERTEX
  8
0
  6
CONTINUOUS
 10
7.988640
 20
1.701920
  0
VERTEX
  8
0
  6
CONTINUOUS
 10
7.341840
 20
1.330120
  0
VERTEX
  8
0
  6
CONTINUOUS
 10
7.362080
 20
1.396120
  0
SEQEND
  8
0
  0
SOLID
  8
0
 62
    15
 10
7.341840
 20
1.330120
 11
7.988640
 21
1.701920
 12
7.337880
 22
1.252240
 13
7.984680
 23
1.624040
  0
POLYLINE
  8
0
  6
CONTINUOUS
 66
     1
 40
0.000000
 41
0.000000
  0
VERTEX
  8
0
  6
CONTINUOUS
 10
7.341840
 20
1.330120
  0
VERTEX
  8
0
  6
CONTINUOUS
 10
7.988640
 20
1.701920
  0
VERTEX
  8
0
  6
CONTINUOUS
 10
7.984680
 20
1.624040
  0
VERTEX
  8
0
  6
CONTINUOUS
 10
7.337880
 20
1.252240
  0
VERTEX
  8
0
  6
CONTINUOUS
 10
7.341840
 20
1.330120
  0
SEQEND
  8
0
  0
SOLID
  8
0
 62
    15
 10
7.337880
 20
1.252240
 11
7.984680
 21
1.624040
 12
7.344040
 22
1.210000
 13
7.990840
 23
1.581800
  0
POLYLINE
  8
0
  6
CONTINUOUS
 66
     1
 40
0.000000
 41
0.000000
  0
VERTEX
  8
0
  6
CONTINUOUS
 10
7.337880
 20
1.252240
  0
VERTEX
  8
0
  6
CONTINUOUS
 10
7.984680
 20
1.624040
  0
VERTEX
  8
0
  6
CONTINUOUS
 10
7.990840
 20
1.581800
  0
VERTEX
  8
0
  6
CONTINUOUS
 10
7.344040
 20
1.210000
  0
VERTEX
  8
0
  6
CONTINUOUS
 10
7.337880
 20
1.252240
  0
SEQEND
  8
0
  0
SOLID
  8
0
 62
     7
 10
7.344040
 20
1.210000
 11
7.990840
 21
1.581800
 12
7.356360
 22
1.166000
 13
8.003160
 23
1.537800
  0
POLYLINE
  8
0
  6
CONTINUOUS
 66
     1
 40
0.000000
 41
0.000000
  0
VERTEX
  8
0
  6
CONTINUOUS
 10
7.344040
 20
1.210000
  0
VERTEX
  8
0
  6
CONTINUOUS
 10
7.990840
 20
1.581800
  0
VERTEX
  8
0
  6
CONTINUOUS
 10
8.003160
 20
1.537800
  0
VERTEX
  8
0
  6
CONTINUOUS
 10
7.356360
 20
1.166000
  0
VERTEX
  8
0
  6
CONTINUOUS
 10
7.344040
 20
1.210000
  0
SEQEND
  8
0
  0
SOLID
  8
0
 62
     7
 10
7.356360
 20
1.166000
 11
8.003160
 21
1.537800
 12
7.376600
 22
1.120680
 13
8.023400
 23
1.492480
  0
POLYLINE
  8
0
  6
CONTINUOUS
 66
     1
 40
0.000000
 41
0.000000
  0
VERTEX
  8
0
  6
CONTINUOUS
 10
7.356360
 20
1.166000
  0
VERTEX
  8
0
  6
CONTINUOUS
 10
8.003160
 20
1.537800
  0
VERTEX
  8
0
  6
CONTINUOUS
 10
8.023400
 20
1.492480
  0
VERTEX
  8
0
  6
CONTINUOUS
 10
7.376600
 20
1.120680
  0
VERTEX
  8
0
  6
CONTINUOUS
 10
7.356360
 20
1.166000
  0
SEQEND
  8
0
  0
SOLID
  8
0
 62
     7
 10
7.376600
 20
1.120680
 11
8.023400
 21
1.492480
 12
7.404760
 22
1.074920
 13
8.051560
 23
1.446280
  0
POLYLINE
  8
0
  6
CONTINUOUS
 66
     1
 40
0.000000
 41
0.000000
  0
VERTEX
  8
0
  6
CONTINUOUS
 10
7.376600
 20
1.120680
  0
VERTEX
  8
0
  6
CONTINUOUS
 10
8.023400
 20
1.492480
  0
VERTEX
  8
0
  6
CONTINUOUS
 10
8.051560
 20
1.446280
  0
VERTEX
  8
0
  6
CONTINUOUS
 10
7.404760
 20
1.074920
  0
VERTEX
  8
0
  6
CONTINUOUS
 10
7.376600
 20
1.120680
  0
SEQEND
  8
0
  0
SOLID
  8
0
 62
    15
 10
7.404760
 20
1.074920
 11
8.051560
 21
1.446280
 12
7.404760
 22
0.905520
 13
8.051560
 23
1.276880
  0
POLYLINE
  8
0
  6
CONTINUOUS
 66
     1
 40
0.000000
 41
0.000000
  0
VERTEX
  8
0
  6
CONTINUOUS
 10
7.404760
 20
1.074920
  0
VERTEX
  8
0
  6
CONTINUOUS
 10
8.051560
 20
1.446280
  0
VERTEX
  8
0
  6
CONTINUOUS
 10
8.051560
 20
1.276880
  0
VERTEX
  8
0
  6
CONTINUOUS
 10
7.404760
 20
0.905520
  0
VERTEX
  8
0
  6
CONTINUOUS
 10
7.404760
 20
1.074920
  0
SEQEND
  8
0
  0
SOLID
  8
0
 62
    15
 10
7.404760
 20
0.905520
 11
8.051560
 21
1.276880
 12
7.404760
 22
0.901560
 13
8.051560
 23
1.272920
  0
POLYLINE
  8
0
  6
CONTINUOUS
 66
     1
 40
0.000000
 41
0.000000
  0
VERTEX
  8
0
  6
CONTINUOUS
 10
7.404760
 20
0.905520
  0
VERTEX
  8
0
  6
CONTINUOUS
 10
8.051560
 20
1.276880
  0
VERTEX
  8
0
  6
CONTINUOUS
 10
8.051560
 20
1.272920
  0
VERTEX
  8
0
  6
CONTINUOUS
 10
7.404760
 20
0.901560
  0
VERTEX
  8
0
  6
CONTINUOUS
 10
7.404760
 20
0.905520
  0
SEQEND
  8
0
  0
POLYLINE
  8
0
  6
CONTINUOUS
 66
     1
 40
0.000000
 41
0.000000
  0
VERTEX
  8
0
  6
CONTINUOUS
 10
7.404760
 20
0.901560
  0
VERTEX
  8
0
  6
CONTINUOUS
 10
6.162200
 20
0.902880
  0
VERTEX
  8
0
  6
CONTINUOUS
 10
6.162200
 20
1.070520
  0
VERTEX
  8
0
  6
CONTINUOUS
 10
6.192560
 20
1.119360
  0
VERTEX
  8
0
  6
CONTINUOUS
 10
6.212360
 20
1.164680
  0
VERTEX
  8
0
  6
CONTINUOUS
 10
6.224240
 20
1.208680
  0
VERTEX
  8
0
  6
CONTINUOUS
 10
6.229520
 20
1.250920
  0
VERTEX
  8
0
  6
CONTINUOUS
 10
6.224240
 20
1.328800
  0
VERTEX
  8
0
  6
CONTINUOUS
 10
6.203560
 20
1.394800
  0
VERTEX
  8
0
  6
CONTINUOUS
 10
6.184200
 20
1.441440
  0
VERTEX
  8
0
  6
CONTINUOUS
 10
6.172760
 20
1.478400
  0
VERTEX
  8
0
  6
CONTINUOUS
 10
6.168800
 20
1.518880
  0
VERTEX
  8
0
  6
CONTINUOUS
 10
6.172760
 20
1.557600
  0
VERTEX
  8
0
  6
CONTINUOUS
 10
6.184200
 20
1.594560
  0
VERTEX
  8
0
  6
CONTINUOUS
 10
6.203560
 20
1.641200
  0
VERTEX
  8
0
  6
CONTINUOUS
 10
6.224240
 20
1.707200
  0
VERTEX
  8
0
  6
CONTINUOUS
 10
6.229520
 20
1.785080
  0
VERTEX
  8
0
  6
CONTINUOUS
 10
6.224240
 20
1.827320
  0
VERTEX
  8
0
  6
CONTINUOUS
 10
6.212360
 20
1.871320
  0
VERTEX
  8
0
  6
CONTINUOUS
 10
6.192560
 20
1.916640
  0
VERTEX
  8
0
  6
CONTINUOUS
 10
6.164840
 20
1.962840
  0
VERTEX
  8
0
  6
CONTINUOUS
 10
6.164840
 20
2.136200
  0
VERTEX
  8
0
  6
CONTINUOUS
 10
6.163520
 20
2.137520
  0
VERTEX
  8
0
  6
CONTINUOUS
 10
7.402120
 20
2.137520
  0
VERTEX
  8
0
  6
CONTINUOUS
 10
7.402120
 20
1.968120
  0
VERTEX
  8
0
  6
CONTINUOUS
 10
7.372640
 20
1.917960
  0
VERTEX
  8
0
  6
CONTINUOUS
 10
7.353280
 20
1.872640
  0
VERTEX
  8
0
  6
CONTINUOUS
 10
7.341400
 20
1.828640
  0
VERTEX
  8
0
  6
CONTINUOUS
 10
7.335680
 20
1.786400
  0
VERTEX
  8
0
  6
CONTINUOUS
 10
7.341400
 20
1.708520
  0
VERTEX
  8
0
  6
CONTINUOUS
 10
7.364720
 20
1.635920
  0
VERTEX
  8
0
  6
CONTINUOUS
 10
7.381440
 20
1.595880
  0
VERTEX
  8
0
  6
CONTINUOUS
 10
7.392440
 20
1.558920
  0
VERTEX
  8
0
  6
CONTINUOUS
 10
7.396840
 20
1.518880
  0
VERTEX
  8
0
  6
CONTINUOUS
 10
7.392440
 20
1.479720
  0
VERTEX
  8
0
  6
CONTINUOUS
 10
7.381440
 20
1.442760
  0
VERTEX
  8
0
  6
CONTINUOUS
 10
7.362080
 20
1.396120
  0
VERTEX
  8
0
  6
CONTINUOUS
 10
7.341840
 20
1.330120
  0
VERTEX
  8
0
  6
CONTINUOUS
 10
7.337880
 20
1.252240
  0
VERTEX
  8
0
  6
CONTINUOUS
 10
7.344040
 20
1.210000
  0
VERTEX
  8
0
  6
CONTINUOUS
 10
7.356360
 20
1.166000
  0
VERTEX
  8
0
  6
CONTINUOUS
 10
7.376600
 20
1.120680
  0
VERTEX
  8
0
  6
CONTINUOUS
 10
7.404760
 20
1.074920
  0
VERTEX
  8
0
  6
CONTINUOUS
 10
7.404760
 20
0.901560
  0
SEQEND
  8
0
  0
TEXT
  8
0
 10
6.812520
 20
0.686400
 40
0.138209
  1
BA  273
 41
1.000000
  7
SN0
 71
     0
 72
     5
 11
7.403284
 21
0.686400
  0
TEXT
  8
0
 10
6.582840
 20
0.494560
 40
0.138209
  1
1-1/4" x 1-1/4"
 41
1.000000
  7
SN0
 71
     0
 72
     5
 11
7.631519
 21
0.494560
  0
TEXT
  8
0
 10
7.736080
 20
3.919080
 40
0.138209
  1
trim
 41
1.000000
  7
SN0
 71
     0
 72
     5
 11
8.013363
 21
3.919080
  0
TEXT
  8
0
 10
7.736080
 20
3.727680
 40
0.138209
  1
273
 41
1.000000
  7
SN0
 71
     0
 72
     5
 11
8.013363
 21
3.727680
  0
ENDSEC
  0
EOF
