  0
SECTION
  2
HEADER
  9
$ACADVER
  1
AC1006
  9
$EXTMIN
 10
2.012120
 20
0.416680
  9
$EXTMAX
 10
8.048920
 20
4.038320
  9
$LTSCALE
 40
0.044000
  9
$PDMODE
 70
    35
  9
$PDSIZE
 40
0.035200
  0
ENDSEC
  0
SECTION
  2
TABLES
  0
TABLE
  2
LTYPE
 70
     9
  0
LTYPE
  2
CONTINUOUS
 70
    64
  3
Solid line
 72
    65
 73
     0
 40
0.000000
  0
LTYPE
  2
DASHED
 70
    64
  3
__ __ __ __ __ __ __ __ __ __ __ __ __ __ __
 72
    65
 73
     2
 40
0.000330
 49
0.000220
 49
-0.000110
  0
LTYPE
  2
HIDDEN
 70
    64
  3
 _ _ _ _ _ _ _ _ _ _ _ _ _ _ _ _ _ _ _ _ _ _
 72
    65
 73
     2
 40
0.000165
 49
0.000110
 49
-0.000055
  0
LTYPE
  2
CENTER
 70
    64
  3
____ _ ____ _ ____ _ ____ _ ____ _ ____ _ ____
 72
    65
 73
     4
 40
0.000880
 49
0.000550
 49
-0.000110
 49
0.000110
 49
-0.000110
  0
LTYPE
  2
PHANTOM
 70
    64
  3
_____ _ _ _____ _ _ _____ _ _ _____ _ _ ____
 72
    65
 73
     6
 40
0.001100
 49
0.000550
 49
-0.000110
 49
0.000110
 49
-0.000110
 49
0.000110
 49
-0.000110
  0
LTYPE
  2
DOT
 70
    64
  3
...............................................
 72
    65
 73
     2
 40
0.000110
 49
0.000000
 49
-0.000110
  0
LTYPE
  2
DASHDOT
 70
    64
  3
__ . __ . __ . __ . __ . __ . __ . __ . __ . __
 72
    65
 73
     4
 40
0.000440
 49
0.000220
 49
-0.000110
 49
0.000000
 49
-0.000110
  0
LTYPE
  2
BORDER
 70
    64
  3
__ __ . __ __ . __ __ . __ __ . __ __ . __ __
 72
    65
 73
     6
 40
0.000770
 49
0.000220
 49
-0.000110
 49
0.000220
 49
-0.000110
 49
0.000000
 49
-0.000110
  0
LTYPE
  2
DIVIDE
 70
    64
  3
__ . . __ . . __ . . __ . . __ . . __ . . __
 72
    65
 73
     6
 40
0.000550
 49
0.000220
 49
-0.000110
 49
0.000000
 49
-0.000110
 49
0.000000
 49
-0.000110
  0
LTYPE
  2
DOTDOT
 70
    64
  3
 . .  . .  . .  . .  . .  . . 
 72
    65
 73
     5
 40
0.000242
 49
-0.000110
 49
0.000000
 49
-0.000110
 49
0.000000
 49
-0.000110
  0
ENDTAB
  0
TABLE
  2
STYLE
 70
     2
  0
STYLE
 70
     0
  2
SN0
 40
0.000000
 41
0.000440
 50
0.000000
 71
     0
 42
0.000000
  3
ROMAND
  0
STYLE
 70
    68
  2
SV0
 40
0.000000
 41
0.000440
 50
0.000000
 71
     0
 42
0.000000
  3
ROMAND
  0
ENDTAB
  0
TABLE
  2
LAYER
 70
     3
  0
LAYER
  2
FOREGROUND
 70
    64
 62
     7
  6
CONTINUOUS
  0
LAYER
  2
BACKGROUND
 70
    65
 62
    -7
  6
CONTINUOUS
  0
LAYER
  2
0
 70
    64
 62
     7
  6
CONTINUOUS
  0
ENDTAB
  0
ENDSEC
  0
SECTION
  2
ENTITIES
  0
POLYLINE
  8
FOREGROUND
  6
CONTINUOUS
 66
     1
 40
0.000000
 41
0.000000
  0
VERTEX
  8
FOREGROUND
  6
CONTINUOUS
 10
0.000000
 20
4.455000
  0
VERTEX
  8
FOREGROUND
  6
CONTINUOUS
 10
8.499920
 20
4.455000
  0
VERTEX
  8
FOREGROUND
  6
CONTINUOUS
 10
8.499920
 20
-6.545000
  0
VERTEX
  8
FOREGROUND
  6
CONTINUOUS
 10
0.000000
 20
-6.545000
  0
VERTEX
  8
FOREGROUND
  6
CONTINUOUS
 10
0.000000
 20
4.455000
  0
SEQEND
  8
0
  0
POLYLINE
  8
FOREGROUND
  6
CONTINUOUS
 66
     1
 40
0.000000
 41
0.000000
  0
VERTEX
  8
FOREGROUND
  6
CONTINUOUS
 10
0.000000
 20
4.455000
  0
VERTEX
  8
FOREGROUND
  6
CONTINUOUS
 10
8.499920
 20
4.455000
  0
VERTEX
  8
FOREGROUND
  6
CONTINUOUS
 10
8.499920
 20
-6.545000
  0
VERTEX
  8
FOREGROUND
  6
CONTINUOUS
 10
0.000000
 20
-6.545000
  0
VERTEX
  8
FOREGROUND
  6
CONTINUOUS
 10
0.000000
 20
4.455000
  0
SEQEND
  8
0
  0
POLYLINE
  8
0
  6
CONTINUOUS
 66
     1
 40
0.014080
 41
0.014080
  0
VERTEX
  8
0
  6
CONTINUOUS
 10
5.562480
 20
3.465440
  0
VERTEX
  8
0
  6
CONTINUOUS
 10
5.710760
 20
3.233560
  0
VERTEX
  8
0
  6
CONTINUOUS
 10
5.712080
 20
3.233120
  0
VERTEX
  8
0
  6
CONTINUOUS
 10
6.847720
 20
3.233120
  0
VERTEX
  8
0
  6
CONTINUOUS
 10
6.852120
 20
3.233120
  0
VERTEX
  8
0
  6
CONTINUOUS
 10
6.998640
 20
3.003880
  0
VERTEX
  8
0
  6
CONTINUOUS
 10
6.997320
 20
3.001240
  0
VERTEX
  8
0
  6
CONTINUOUS
 10
6.997320
 20
2.937440
  0
VERTEX
  8
0
  6
CONTINUOUS
 10
6.997320
 20
2.936120
  0
VERTEX
  8
0
  6
CONTINUOUS
 10
2.020040
 20
2.937440
  0
VERTEX
  8
0
  6
CONTINUOUS
 10
2.021360
 20
3.701280
  0
VERTEX
  8
0
  6
CONTINUOUS
 10
4.274600
 20
3.701280
  0
VERTEX
  8
0
  6
CONTINUOUS
 10
4.275920
 20
3.701280
  0
VERTEX
  8
0
  6
CONTINUOUS
 10
4.442680
 20
3.472040
  0
VERTEX
  8
0
  6
CONTINUOUS
 10
4.445320
 20
3.469400
  0
VERTEX
  8
0
  6
CONTINUOUS
 10
5.559840
 20
3.468080
  0
VERTEX
  8
0
  6
CONTINUOUS
 10
5.562480
 20
3.465440
  0
SEQEND
  8
0
  0
SOLID
  8
0
 62
    15
 10
2.429680
 20
0.933240
 11
2.417800
 21
1.665840
 12
2.431000
 22
1.697520
 13
2.419120
 23
2.430120
  0
POLYLINE
  8
0
  6
CONTINUOUS
 66
     1
 40
0.000000
 41
0.000000
  0
VERTEX
  8
0
  6
CONTINUOUS
 10
2.429680
 20
0.933240
  0
VERTEX
  8
0
  6
CONTINUOUS
 10
2.417800
 20
1.665840
  0
VERTEX
  8
0
  6
CONTINUOUS
 10
2.419120
 20
2.430120
  0
VERTEX
  8
0
  6
CONTINUOUS
 10
2.431000
 20
1.697520
  0
VERTEX
  8
0
  6
CONTINUOUS
 10
2.429680
 20
0.933240
  0
SEQEND
  8
0
  0
SOLID
  8
0
 62
    15
 10
6.120400
 20
1.229360
 11
6.108520
 21
1.961960
 12
7.261760
 22
1.229360
 13
7.249880
 23
1.961960
  0
POLYLINE
  8
0
  6
CONTINUOUS
 66
     1
 40
0.000000
 41
0.000000
  0
VERTEX
  8
0
  6
CONTINUOUS
 10
6.120400
 20
1.229360
  0
VERTEX
  8
0
  6
CONTINUOUS
 10
6.108520
 20
1.961960
  0
VERTEX
  8
0
  6
CONTINUOUS
 10
7.249880
 20
1.961960
  0
VERTEX
  8
0
  6
CONTINUOUS
 10
7.261760
 20
1.229360
  0
VERTEX
  8
0
  6
CONTINUOUS
 10
6.120400
 20
1.229360
  0
SEQEND
  8
0
  0
SOLID
  8
0
 62
    15
 10
7.261760
 20
1.229360
 11
7.249880
 21
1.961960
 12
7.408280
 22
1.000120
 13
7.396840
 23
1.732720
  0
POLYLINE
  8
0
  6
CONTINUOUS
 66
     1
 40
0.000000
 41
0.000000
  0
VERTEX
  8
0
  6
CONTINUOUS
 10
7.261760
 20
1.229360
  0
VERTEX
  8
0
  6
CONTINUOUS
 10
7.249880
 20
1.961960
  0
VERTEX
  8
0
  6
CONTINUOUS
 10
7.396840
 20
1.732720
  0
VERTEX
  8
0
  6
CONTINUOUS
 10
7.408280
 20
1.000120
  0
VERTEX
  8
0
  6
CONTINUOUS
 10
7.261760
 20
1.229360
  0
SEQEND
  8
0
  0
SOLID
  8
0
 62
    15
 10
2.431000
 20
1.697520
 11
2.419120
 21
2.430120
 12
4.685560
 22
1.697520
 13
4.674120
 23
2.430120
  0
POLYLINE
  8
0
  6
CONTINUOUS
 66
     1
 40
0.000000
 41
0.000000
  0
VERTEX
  8
0
  6
CONTINUOUS
 10
2.431000
 20
1.697520
  0
VERTEX
  8
0
  6
CONTINUOUS
 10
2.419120
 20
2.430120
  0
VERTEX
  8
0
  6
CONTINUOUS
 10
4.674120
 20
2.430120
  0
VERTEX
  8
0
  6
CONTINUOUS
 10
4.685560
 20
1.697520
  0
VERTEX
  8
0
  6
CONTINUOUS
 10
2.431000
 20
1.697520
  0
SEQEND
  8
0
  0
SOLID
  8
0
 62
    15
 10
5.972120
 20
1.461240
 11
5.960680
 21
2.193840
 12
6.120400
 22
1.229360
 13
6.108520
 23
1.961960
  0
POLYLINE
  8
0
  6
CONTINUOUS
 66
     1
 40
0.000000
 41
0.000000
  0
VERTEX
  8
0
  6
CONTINUOUS
 10
5.972120
 20
1.461240
  0
VERTEX
  8
0
  6
CONTINUOUS
 10
5.960680
 20
2.193840
  0
VERTEX
  8
0
  6
CONTINUOUS
 10
6.108520
 20
1.961960
  0
VERTEX
  8
0
  6
CONTINUOUS
 10
6.120400
 20
1.229360
  0
VERTEX
  8
0
  6
CONTINUOUS
 10
5.972120
 20
1.461240
  0
SEQEND
  8
0
  0
SOLID
  8
0
 62
    15
 10
4.685560
 20
1.697520
 11
4.674120
 21
2.430120
 12
4.852320
 22
1.467840
 13
4.840440
 23
2.200880
  0
POLYLINE
  8
0
  6
CONTINUOUS
 66
     1
 40
0.000000
 41
0.000000
  0
VERTEX
  8
0
  6
CONTINUOUS
 10
4.685560
 20
1.697520
  0
VERTEX
  8
0
  6
CONTINUOUS
 10
4.674120
 20
2.430120
  0
VERTEX
  8
0
  6
CONTINUOUS
 10
4.840440
 20
2.200880
  0
VERTEX
  8
0
  6
CONTINUOUS
 10
4.852320
 20
1.467840
  0
VERTEX
  8
0
  6
CONTINUOUS
 10
4.685560
 20
1.697520
  0
SEQEND
  8
0
  0
SOLID
  8
0
 62
    15
 10
4.852320
 20
1.467840
 11
4.840440
 21
2.200880
 12
4.854960
 22
1.465200
 13
4.843520
 23
2.198240
  0
POLYLINE
  8
0
  6
CONTINUOUS
 66
     1
 40
0.000000
 41
0.000000
  0
VERTEX
  8
0
  6
CONTINUOUS
 10
4.852320
 20
1.467840
  0
VERTEX
  8
0
  6
CONTINUOUS
 10
4.840440
 20
2.200880
  0
VERTEX
  8
0
  6
CONTINUOUS
 10
4.843520
 20
2.198240
  0
VERTEX
  8
0
  6
CONTINUOUS
 10
4.854960
 20
1.465200
  0
VERTEX
  8
0
  6
CONTINUOUS
 10
4.852320
 20
1.467840
  0
SEQEND
  8
0
  0
SOLID
  8
0
 62
    15
 10
4.854960
 20
1.465200
 11
4.843520
 21
2.198240
 12
5.969480
 22
1.463880
 13
5.958040
 23
2.196920
  0
POLYLINE
  8
0
  6
CONTINUOUS
 66
     1
 40
0.000000
 41
0.000000
  0
VERTEX
  8
0
  6
CONTINUOUS
 10
4.854960
 20
1.465200
  0
VERTEX
  8
0
  6
CONTINUOUS
 10
4.843520
 20
2.198240
  0
VERTEX
  8
0
  6
CONTINUOUS
 10
5.958040
 20
2.196920
  0
VERTEX
  8
0
  6
CONTINUOUS
 10
5.969480
 20
1.463880
  0
VERTEX
  8
0
  6
CONTINUOUS
 10
4.854960
 20
1.465200
  0
SEQEND
  8
0
  0
SOLID
  8
0
 62
    15
 10
5.969480
 20
1.463880
 11
5.958040
 21
2.196920
 12
5.972120
 22
1.461240
 13
5.960680
 23
2.193840
  0
POLYLINE
  8
0
  6
CONTINUOUS
 66
     1
 40
0.000000
 41
0.000000
  0
VERTEX
  8
0
  6
CONTINUOUS
 10
5.969480
 20
1.463880
  0
VERTEX
  8
0
  6
CONTINUOUS
 10
5.958040
 20
2.196920
  0
VERTEX
  8
0
  6
CONTINUOUS
 10
5.960680
 20
2.193840
  0
VERTEX
  8
0
  6
CONTINUOUS
 10
5.972120
 20
1.461240
  0
VERTEX
  8
0
  6
CONTINUOUS
 10
5.969480
 20
1.463880
  0
SEQEND
  8
0
  0
POLYLINE
  8
0
  6
CONTINUOUS
 66
     1
 40
0.000000
 41
0.000000
  0
VERTEX
  8
0
  6
CONTINUOUS
 10
5.972120
 20
1.461240
  0
VERTEX
  8
0
  6
CONTINUOUS
 10
6.120400
 20
1.229360
  0
VERTEX
  8
0
  6
CONTINUOUS
 10
7.261760
 20
1.229360
  0
VERTEX
  8
0
  6
CONTINUOUS
 10
7.408280
 20
1.000120
  0
VERTEX
  8
0
  6
CONTINUOUS
 10
7.406960
 20
0.997480
  0
VERTEX
  8
0
  6
CONTINUOUS
 10
7.406960
 20
0.931920
  0
VERTEX
  8
0
  6
CONTINUOUS
 10
2.429680
 20
0.933240
  0
VERTEX
  8
0
  6
CONTINUOUS
 10
2.431000
 20
1.697520
  0
VERTEX
  8
0
  6
CONTINUOUS
 10
4.685560
 20
1.697520
  0
VERTEX
  8
0
  6
CONTINUOUS
 10
4.852320
 20
1.467840
  0
VERTEX
  8
0
  6
CONTINUOUS
 10
4.854960
 20
1.465200
  0
VERTEX
  8
0
  6
CONTINUOUS
 10
5.969480
 20
1.463880
  0
VERTEX
  8
0
  6
CONTINUOUS
 10
5.972120
 20
1.461240
  0
SEQEND
  8
0
  0
TEXT
  8
0
 10
4.618240
 20
0.652520
 40
0.138072
  1
BA  272
 41
1.000000
  7
SN0
 71
     0
 72
     5
 11
5.208035
 21
0.652520
  0
TEXT
  8
0
 10
4.605480
 20
0.460680
 40
0.138072
  1
3/4" x 5"
 41
1.000000
  7
SN0
 71
     0
 72
     5
 11
5.220328
 21
0.460680
  0
TEXT
  8
0
 10
7.698680
 20
3.886960
 40
0.138072
  1
case
 41
1.000000
  7
SN0
 71
     0
 72
     5
 11
8.049116
 21
3.886960
  0
TEXT
  8
0
 10
7.735640
 20
3.695560
 40
0.138072
  1
272
 41
1.000000
  7
SN0
 71
     0
 72
     5
 11
8.012125
 21
3.695560
  0
ENDSEC
  0
EOF
