  0
SECTION
  2
HEADER
  9
$ACADVER
  1
AC1006
  9
$EXTMIN
 10
5.708560
 20
0.462880
  9
$EXTMAX
 10
8.043640
 20
4.400440
  9
$LTSCALE
 40
0.044000
  9
$PDMODE
 70
    35
  9
$PDSIZE
 40
0.035200
  0
ENDSEC
  0
SECTION
  2
TABLES
  0
TABLE
  2
LTYPE
 70
     9
  0
LTYPE
  2
CONTINUOUS
 70
    64
  3
Solid line
 72
    65
 73
     0
 40
0.000000
  0
LTYPE
  2
DASHED
 70
    64
  3
__ __ __ __ __ __ __ __ __ __ __ __ __ __ __
 72
    65
 73
     2
 40
0.000330
 49
0.000220
 49
-0.000110
  0
LTYPE
  2
HIDDEN
 70
    64
  3
 _ _ _ _ _ _ _ _ _ _ _ _ _ _ _ _ _ _ _ _ _ _
 72
    65
 73
     2
 40
0.000165
 49
0.000110
 49
-0.000055
  0
LTYPE
  2
CENTER
 70
    64
  3
____ _ ____ _ ____ _ ____ _ ____ _ ____ _ ____
 72
    65
 73
     4
 40
0.000880
 49
0.000550
 49
-0.000110
 49
0.000110
 49
-0.000110
  0
LTYPE
  2
PHANTOM
 70
    64
  3
_____ _ _ _____ _ _ _____ _ _ _____ _ _ ____
 72
    65
 73
     6
 40
0.001100
 49
0.000550
 49
-0.000110
 49
0.000110
 49
-0.000110
 49
0.000110
 49
-0.000110
  0
LTYPE
  2
DOT
 70
    64
  3
...............................................
 72
    65
 73
     2
 40
0.000110
 49
0.000000
 49
-0.000110
  0
LTYPE
  2
DASHDOT
 70
    64
  3
__ . __ . __ . __ . __ . __ . __ . __ . __ . __
 72
    65
 73
     4
 40
0.000440
 49
0.000220
 49
-0.000110
 49
0.000000
 49
-0.000110
  0
LTYPE
  2
BORDER
 70
    64
  3
__ __ . __ __ . __ __ . __ __ . __ __ . __ __
 72
    65
 73
     6
 40
0.000770
 49
0.000220
 49
-0.000110
 49
0.000220
 49
-0.000110
 49
0.000000
 49
-0.000110
  0
LTYPE
  2
DIVIDE
 70
    64
  3
__ . . __ . . __ . . __ . . __ . . __ . . __
 72
    65
 73
     6
 40
0.000550
 49
0.000220
 49
-0.000110
 49
0.000000
 49
-0.000110
 49
0.000000
 49
-0.000110
  0
LTYPE
  2
DOTDOT
 70
    64
  3
 . .  . .  . .  . .  . .  . . 
 72
    65
 73
     5
 40
0.000242
 49
-0.000110
 49
0.000000
 49
-0.000110
 49
0.000000
 49
-0.000110
  0
ENDTAB
  0
TABLE
  2
STYLE
 70
     2
  0
STYLE
 70
     0
  2
SN0
 40
0.000000
 41
0.000440
 50
0.000000
 71
     0
 42
0.000000
  3
ROMAND
  0
STYLE
 70
    68
  2
SV0
 40
0.000000
 41
0.000440
 50
0.000000
 71
     0
 42
0.000000
  3
ROMAND
  0
ENDTAB
  0
TABLE
  2
LAYER
 70
     3
  0
LAYER
  2
FOREGROUND
 70
    64
 62
     7
  6
CONTINUOUS
  0
LAYER
  2
BACKGROUND
 70
    65
 62
    -7
  6
CONTINUOUS
  0
LAYER
  2
0
 70
    64
 62
     7
  6
CONTINUOUS
  0
ENDTAB
  0
ENDSEC
  0
SECTION
  2
ENTITIES
  0
POLYLINE
  8
FOREGROUND
  6
CONTINUOUS
 66
     1
 40
0.000000
 41
0.000000
  0
VERTEX
  8
FOREGROUND
  6
CONTINUOUS
 10
0.000000
 20
4.863320
  0
VERTEX
  8
FOREGROUND
  6
CONTINUOUS
 10
8.499920
 20
4.863320
  0
VERTEX
  8
FOREGROUND
  6
CONTINUOUS
 10
8.499920
 20
-6.136680
  0
VERTEX
  8
FOREGROUND
  6
CONTINUOUS
 10
0.000000
 20
-6.136680
  0
VERTEX
  8
FOREGROUND
  6
CONTINUOUS
 10
0.000000
 20
4.863320
  0
SEQEND
  8
0
  0
POLYLINE
  8
FOREGROUND
  6
CONTINUOUS
 66
     1
 40
0.000000
 41
0.000000
  0
VERTEX
  8
FOREGROUND
  6
CONTINUOUS
 10
0.000000
 20
4.863320
  0
VERTEX
  8
FOREGROUND
  6
CONTINUOUS
 10
8.499920
 20
4.863320
  0
VERTEX
  8
FOREGROUND
  6
CONTINUOUS
 10
8.499920
 20
-6.136680
  0
VERTEX
  8
FOREGROUND
  6
CONTINUOUS
 10
0.000000
 20
-6.136680
  0
VERTEX
  8
FOREGROUND
  6
CONTINUOUS
 10
0.000000
 20
4.863320
  0
SEQEND
  8
0
  0
POLYLINE
  8
0
  6
CONTINUOUS
 66
     1
 40
0.014080
 41
0.014080
  0
VERTEX
  8
0
  6
CONTINUOUS
 10
5.846720
 20
4.377560
  0
VERTEX
  8
0
  6
CONTINUOUS
 10
6.014800
 20
4.095080
  0
VERTEX
  8
0
  6
CONTINUOUS
 10
5.992800
 20
4.078360
  0
VERTEX
  8
0
  6
CONTINUOUS
 10
5.974320
 20
4.060320
  0
VERTEX
  8
0
  6
CONTINUOUS
 10
5.953640
 20
4.030400
  0
VERTEX
  8
0
  6
CONTINUOUS
 10
5.940880
 20
3.997400
  0
VERTEX
  8
0
  6
CONTINUOUS
 10
5.936920
 20
3.974080
  0
VERTEX
  8
0
  6
CONTINUOUS
 10
5.936480
 20
3.949880
  0
VERTEX
  8
0
  6
CONTINUOUS
 10
5.939560
 20
3.924800
  0
VERTEX
  8
0
  6
CONTINUOUS
 10
5.945720
 20
3.899280
  0
VERTEX
  8
0
  6
CONTINUOUS
 10
5.962000
 20
3.860120
  0
VERTEX
  8
0
  6
CONTINUOUS
 10
5.985760
 20
3.820520
  0
VERTEX
  8
0
  6
CONTINUOUS
 10
6.017440
 20
3.780480
  0
VERTEX
  8
0
  6
CONTINUOUS
 10
6.056600
 20
3.740880
  0
VERTEX
  8
0
  6
CONTINUOUS
 10
6.118640
 20
3.689840
  0
VERTEX
  8
0
  6
CONTINUOUS
 10
6.234360
 20
3.600080
  0
VERTEX
  8
0
  6
CONTINUOUS
 10
6.284080
 20
3.557840
  0
VERTEX
  8
0
  6
CONTINUOUS
 10
6.326320
 20
3.514280
  0
VERTEX
  8
0
  6
CONTINUOUS
 10
6.352280
 20
3.479960
  0
VERTEX
  8
0
  6
CONTINUOUS
 10
6.372960
 20
3.443000
  0
VERTEX
  8
0
  6
CONTINUOUS
 10
6.387920
 20
3.402520
  0
VERTEX
  8
0
  6
CONTINUOUS
 10
6.394080
 20
3.373480
  0
VERTEX
  8
0
  6
CONTINUOUS
 10
6.397160
 20
3.342240
  0
VERTEX
  8
0
  6
CONTINUOUS
 10
6.397160
 20
3.309240
  0
VERTEX
  8
0
  6
CONTINUOUS
 10
6.392760
 20
3.278880
  0
VERTEX
  8
0
  6
CONTINUOUS
 10
6.384400
 20
3.252480
  0
VERTEX
  8
0
  6
CONTINUOUS
 10
6.365920
 20
3.218600
  0
VERTEX
  8
0
  6
CONTINUOUS
 10
6.342160
 20
3.191760
  0
VERTEX
  8
0
  6
CONTINUOUS
 10
6.314880
 20
3.170640
  0
VERTEX
  8
0
  6
CONTINUOUS
 10
6.277480
 20
3.150400
  0
VERTEX
  8
0
  6
CONTINUOUS
 10
6.241840
 20
3.138080
  0
VERTEX
  8
0
  6
CONTINUOUS
 10
6.207960
 20
3.130160
  0
VERTEX
  8
0
  6
CONTINUOUS
 10
6.194760
 20
3.128400
  0
VERTEX
  8
0
  6
CONTINUOUS
 10
6.194760
 20
3.013560
  0
VERTEX
  8
0
  6
CONTINUOUS
 10
5.717360
 20
3.013560
  0
VERTEX
  8
0
  6
CONTINUOUS
 10
5.716040
 20
4.380200
  0
VERTEX
  8
0
  6
CONTINUOUS
 10
5.844080
 20
4.380200
  0
VERTEX
  8
0
  6
CONTINUOUS
 10
5.846720
 20
4.377560
  0
SEQEND
  8
0
  0
SOLID
  8
0
 62
     7
 10
6.944960
 20
1.606440
 11
7.589560
 21
1.980880
 12
6.974880
 22
1.584000
 13
7.619480
 23
1.958000
  0
POLYLINE
  8
0
  6
CONTINUOUS
 66
     1
 40
0.000000
 41
0.000000
  0
VERTEX
  8
0
  6
CONTINUOUS
 10
6.944960
 20
1.606440
  0
VERTEX
  8
0
  6
CONTINUOUS
 10
7.589560
 20
1.980880
  0
VERTEX
  8
0
  6
CONTINUOUS
 10
7.619480
 20
1.958000
  0
VERTEX
  8
0
  6
CONTINUOUS
 10
6.974880
 20
1.584000
  0
VERTEX
  8
0
  6
CONTINUOUS
 10
6.944960
 20
1.606440
  0
SEQEND
  8
0
  0
SOLID
  8
0
 62
     7
 10
6.810760
 20
2.036760
 11
7.455360
 21
2.410760
 12
6.810760
 22
2.035440
 13
7.455360
 23
2.409440
  0
POLYLINE
  8
0
  6
CONTINUOUS
 66
     1
 40
0.000000
 41
0.000000
  0
VERTEX
  8
0
  6
CONTINUOUS
 10
6.810760
 20
2.036760
  0
VERTEX
  8
0
  6
CONTINUOUS
 10
7.455360
 20
2.410760
  0
VERTEX
  8
0
  6
CONTINUOUS
 10
7.455360
 20
2.409440
  0
VERTEX
  8
0
  6
CONTINUOUS
 10
6.810760
 20
2.035440
  0
VERTEX
  8
0
  6
CONTINUOUS
 10
6.810760
 20
2.036760
  0
SEQEND
  8
0
  0
SOLID
  8
0
 62
    15
 10
6.810760
 20
2.035440
 11
7.455360
 21
2.409440
 12
6.788760
 22
2.018720
 13
7.433360
 23
2.393160
  0
POLYLINE
  8
0
  6
CONTINUOUS
 66
     1
 40
0.000000
 41
0.000000
  0
VERTEX
  8
0
  6
CONTINUOUS
 10
6.810760
 20
2.035440
  0
VERTEX
  8
0
  6
CONTINUOUS
 10
7.455360
 20
2.409440
  0
VERTEX
  8
0
  6
CONTINUOUS
 10
7.433360
 20
2.393160
  0
VERTEX
  8
0
  6
CONTINUOUS
 10
6.788760
 20
2.018720
  0
VERTEX
  8
0
  6
CONTINUOUS
 10
6.810760
 20
2.035440
  0
SEQEND
  8
0
  0
SOLID
  8
0
 62
    15
 10
6.788760
 20
2.018720
 11
7.433360
 21
2.393160
 12
6.770280
 22
2.000680
 13
7.414880
 23
2.374680
  0
POLYLINE
  8
0
  6
CONTINUOUS
 66
     1
 40
0.000000
 41
0.000000
  0
VERTEX
  8
0
  6
CONTINUOUS
 10
6.788760
 20
2.018720
  0
VERTEX
  8
0
  6
CONTINUOUS
 10
7.433360
 20
2.393160
  0
VERTEX
  8
0
  6
CONTINUOUS
 10
7.414880
 20
2.374680
  0
VERTEX
  8
0
  6
CONTINUOUS
 10
6.770280
 20
2.000680
  0
VERTEX
  8
0
  6
CONTINUOUS
 10
6.788760
 20
2.018720
  0
SEQEND
  8
0
  0
SOLID
  8
0
 62
    15
 10
6.770280
 20
2.000680
 11
7.414880
 21
2.374680
 12
6.755760
 22
1.980880
 13
7.400360
 23
2.355320
  0
POLYLINE
  8
0
  6
CONTINUOUS
 66
     1
 40
0.000000
 41
0.000000
  0
VERTEX
  8
0
  6
CONTINUOUS
 10
6.770280
 20
2.000680
  0
VERTEX
  8
0
  6
CONTINUOUS
 10
7.414880
 20
2.374680
  0
VERTEX
  8
0
  6
CONTINUOUS
 10
7.400360
 20
2.355320
  0
VERTEX
  8
0
  6
CONTINUOUS
 10
6.755760
 20
1.980880
  0
VERTEX
  8
0
  6
CONTINUOUS
 10
6.770280
 20
2.000680
  0
SEQEND
  8
0
  0
SOLID
  8
0
 62
    15
 10
6.755760
 20
1.980880
 11
7.400360
 21
2.355320
 12
6.744760
 22
1.959760
 13
7.388920
 23
2.334200
  0
POLYLINE
  8
0
  6
CONTINUOUS
 66
     1
 40
0.000000
 41
0.000000
  0
VERTEX
  8
0
  6
CONTINUOUS
 10
6.755760
 20
1.980880
  0
VERTEX
  8
0
  6
CONTINUOUS
 10
7.400360
 20
2.355320
  0
VERTEX
  8
0
  6
CONTINUOUS
 10
7.388920
 20
2.334200
  0
VERTEX
  8
0
  6
CONTINUOUS
 10
6.744760
 20
1.959760
  0
VERTEX
  8
0
  6
CONTINUOUS
 10
6.755760
 20
1.980880
  0
SEQEND
  8
0
  0
SOLID
  8
0
 62
    15
 10
6.744760
 20
1.959760
 11
7.388920
 21
2.334200
 12
6.736840
 22
1.937760
 13
7.381440
 23
2.311760
  0
POLYLINE
  8
0
  6
CONTINUOUS
 66
     1
 40
0.000000
 41
0.000000
  0
VERTEX
  8
0
  6
CONTINUOUS
 10
6.744760
 20
1.959760
  0
VERTEX
  8
0
  6
CONTINUOUS
 10
7.388920
 20
2.334200
  0
VERTEX
  8
0
  6
CONTINUOUS
 10
7.381440
 20
2.311760
  0
VERTEX
  8
0
  6
CONTINUOUS
 10
6.736840
 20
1.937760
  0
VERTEX
  8
0
  6
CONTINUOUS
 10
6.744760
 20
1.959760
  0
SEQEND
  8
0
  0
SOLID
  8
0
 62
    15
 10
6.736840
 20
1.937760
 11
7.381440
 21
2.311760
 12
6.732880
 22
1.914440
 13
7.377480
 23
2.288880
  0
POLYLINE
  8
0
  6
CONTINUOUS
 66
     1
 40
0.000000
 41
0.000000
  0
VERTEX
  8
0
  6
CONTINUOUS
 10
6.736840
 20
1.937760
  0
VERTEX
  8
0
  6
CONTINUOUS
 10
7.381440
 20
2.311760
  0
VERTEX
  8
0
  6
CONTINUOUS
 10
7.377480
 20
2.288880
  0
VERTEX
  8
0
  6
CONTINUOUS
 10
6.732880
 20
1.914440
  0
VERTEX
  8
0
  6
CONTINUOUS
 10
6.736840
 20
1.937760
  0
SEQEND
  8
0
  0
SOLID
  8
0
 62
     7
 10
6.732880
 20
1.914440
 11
7.377480
 21
2.288880
 12
6.732440
 22
1.890240
 13
7.376600
 23
2.264680
  0
POLYLINE
  8
0
  6
CONTINUOUS
 66
     1
 40
0.000000
 41
0.000000
  0
VERTEX
  8
0
  6
CONTINUOUS
 10
6.732880
 20
1.914440
  0
VERTEX
  8
0
  6
CONTINUOUS
 10
7.377480
 20
2.288880
  0
VERTEX
  8
0
  6
CONTINUOUS
 10
7.376600
 20
2.264680
  0
VERTEX
  8
0
  6
CONTINUOUS
 10
6.732440
 20
1.890240
  0
VERTEX
  8
0
  6
CONTINUOUS
 10
6.732880
 20
1.914440
  0
SEQEND
  8
0
  0
SOLID
  8
0
 62
     7
 10
6.732440
 20
1.890240
 11
7.376600
 21
2.264680
 12
6.735080
 22
1.865160
 13
7.379680
 23
2.239600
  0
POLYLINE
  8
0
  6
CONTINUOUS
 66
     1
 40
0.000000
 41
0.000000
  0
VERTEX
  8
0
  6
CONTINUOUS
 10
6.732440
 20
1.890240
  0
VERTEX
  8
0
  6
CONTINUOUS
 10
7.376600
 20
2.264680
  0
VERTEX
  8
0
  6
CONTINUOUS
 10
7.379680
 20
2.239600
  0
VERTEX
  8
0
  6
CONTINUOUS
 10
6.735080
 20
1.865160
  0
VERTEX
  8
0
  6
CONTINUOUS
 10
6.732440
 20
1.890240
  0
SEQEND
  8
0
  0
SOLID
  8
0
 62
     7
 10
6.735080
 20
1.865160
 11
7.379680
 21
2.239600
 12
6.741680
 22
1.839640
 13
7.386280
 23
2.214080
  0
POLYLINE
  8
0
  6
CONTINUOUS
 66
     1
 40
0.000000
 41
0.000000
  0
VERTEX
  8
0
  6
CONTINUOUS
 10
6.735080
 20
1.865160
  0
VERTEX
  8
0
  6
CONTINUOUS
 10
7.379680
 20
2.239600
  0
VERTEX
  8
0
  6
CONTINUOUS
 10
7.386280
 20
2.214080
  0
VERTEX
  8
0
  6
CONTINUOUS
 10
6.741680
 20
1.839640
  0
VERTEX
  8
0
  6
CONTINUOUS
 10
6.735080
 20
1.865160
  0
SEQEND
  8
0
  0
SOLID
  8
0
 62
     7
 10
6.741680
 20
1.839640
 11
7.386280
 21
2.214080
 12
6.751360
 22
1.813680
 13
7.395960
 23
2.188120
  0
POLYLINE
  8
0
  6
CONTINUOUS
 66
     1
 40
0.000000
 41
0.000000
  0
VERTEX
  8
0
  6
CONTINUOUS
 10
6.741680
 20
1.839640
  0
VERTEX
  8
0
  6
CONTINUOUS
 10
7.386280
 20
2.214080
  0
VERTEX
  8
0
  6
CONTINUOUS
 10
7.395960
 20
2.188120
  0
VERTEX
  8
0
  6
CONTINUOUS
 10
6.751360
 20
1.813680
  0
VERTEX
  8
0
  6
CONTINUOUS
 10
6.741680
 20
1.839640
  0
SEQEND
  8
0
  0
SOLID
  8
0
 62
     7
 10
6.751360
 20
1.813680
 11
7.395960
 21
2.188120
 12
6.765000
 22
1.787280
 13
7.409600
 23
2.161720
  0
POLYLINE
  8
0
  6
CONTINUOUS
 66
     1
 40
0.000000
 41
0.000000
  0
VERTEX
  8
0
  6
CONTINUOUS
 10
6.751360
 20
1.813680
  0
VERTEX
  8
0
  6
CONTINUOUS
 10
7.395960
 20
2.188120
  0
VERTEX
  8
0
  6
CONTINUOUS
 10
7.409600
 20
2.161720
  0
VERTEX
  8
0
  6
CONTINUOUS
 10
6.765000
 20
1.787280
  0
VERTEX
  8
0
  6
CONTINUOUS
 10
6.751360
 20
1.813680
  0
SEQEND
  8
0
  0
SOLID
  8
0
 62
     7
 10
6.765000
 20
1.787280
 11
7.409600
 21
2.161720
 12
6.781720
 22
1.760880
 13
7.426320
 23
2.135320
  0
POLYLINE
  8
0
  6
CONTINUOUS
 66
     1
 40
0.000000
 41
0.000000
  0
VERTEX
  8
0
  6
CONTINUOUS
 10
6.765000
 20
1.787280
  0
VERTEX
  8
0
  6
CONTINUOUS
 10
7.409600
 20
2.161720
  0
VERTEX
  8
0
  6
CONTINUOUS
 10
7.426320
 20
2.135320
  0
VERTEX
  8
0
  6
CONTINUOUS
 10
6.781720
 20
1.760880
  0
VERTEX
  8
0
  6
CONTINUOUS
 10
6.765000
 20
1.787280
  0
SEQEND
  8
0
  0
SOLID
  8
0
 62
     7
 10
6.781720
 20
1.760880
 11
7.426320
 21
2.135320
 12
6.801960
 22
1.734480
 13
7.446560
 23
2.108480
  0
POLYLINE
  8
0
  6
CONTINUOUS
 66
     1
 40
0.000000
 41
0.000000
  0
VERTEX
  8
0
  6
CONTINUOUS
 10
6.781720
 20
1.760880
  0
VERTEX
  8
0
  6
CONTINUOUS
 10
7.426320
 20
2.135320
  0
VERTEX
  8
0
  6
CONTINUOUS
 10
7.446560
 20
2.108480
  0
VERTEX
  8
0
  6
CONTINUOUS
 10
6.801960
 20
1.734480
  0
VERTEX
  8
0
  6
CONTINUOUS
 10
6.781720
 20
1.760880
  0
SEQEND
  8
0
  0
SOLID
  8
0
 62
     7
 10
6.801960
 20
1.734480
 11
7.446560
 21
2.108480
 12
6.825280
 22
1.707640
 13
7.469880
 23
2.082080
  0
POLYLINE
  8
0
  6
CONTINUOUS
 66
     1
 40
0.000000
 41
0.000000
  0
VERTEX
  8
0
  6
CONTINUOUS
 10
6.801960
 20
1.734480
  0
VERTEX
  8
0
  6
CONTINUOUS
 10
7.446560
 20
2.108480
  0
VERTEX
  8
0
  6
CONTINUOUS
 10
7.469880
 20
2.082080
  0
VERTEX
  8
0
  6
CONTINUOUS
 10
6.825280
 20
1.707640
  0
VERTEX
  8
0
  6
CONTINUOUS
 10
6.801960
 20
1.734480
  0
SEQEND
  8
0
  0
SOLID
  8
0
 62
     7
 10
6.825280
 20
1.707640
 11
7.469880
 21
2.082080
 12
6.852560
 22
1.681240
 13
7.496720
 23
2.055680
  0
POLYLINE
  8
0
  6
CONTINUOUS
 66
     1
 40
0.000000
 41
0.000000
  0
VERTEX
  8
0
  6
CONTINUOUS
 10
6.825280
 20
1.707640
  0
VERTEX
  8
0
  6
CONTINUOUS
 10
7.469880
 20
2.082080
  0
VERTEX
  8
0
  6
CONTINUOUS
 10
7.496720
 20
2.055680
  0
VERTEX
  8
0
  6
CONTINUOUS
 10
6.852560
 20
1.681240
  0
VERTEX
  8
0
  6
CONTINUOUS
 10
6.825280
 20
1.707640
  0
SEQEND
  8
0
  0
SOLID
  8
0
 62
     7
 10
6.852560
 20
1.681240
 11
7.496720
 21
2.055680
 12
6.882920
 22
1.655280
 13
7.527080
 23
2.029720
  0
POLYLINE
  8
0
  6
CONTINUOUS
 66
     1
 40
0.000000
 41
0.000000
  0
VERTEX
  8
0
  6
CONTINUOUS
 10
6.852560
 20
1.681240
  0
VERTEX
  8
0
  6
CONTINUOUS
 10
7.496720
 20
2.055680
  0
VERTEX
  8
0
  6
CONTINUOUS
 10
7.527080
 20
2.029720
  0
VERTEX
  8
0
  6
CONTINUOUS
 10
6.882920
 20
1.655280
  0
VERTEX
  8
0
  6
CONTINUOUS
 10
6.852560
 20
1.681240
  0
SEQEND
  8
0
  0
SOLID
  8
0
 62
     7
 10
6.882920
 20
1.655280
 11
7.527080
 21
2.029720
 12
6.944960
 22
1.606440
 13
7.589560
 23
1.980880
  0
POLYLINE
  8
0
  6
CONTINUOUS
 66
     1
 40
0.000000
 41
0.000000
  0
VERTEX
  8
0
  6
CONTINUOUS
 10
6.882920
 20
1.655280
  0
VERTEX
  8
0
  6
CONTINUOUS
 10
7.527080
 20
2.029720
  0
VERTEX
  8
0
  6
CONTINUOUS
 10
7.589560
 20
1.980880
  0
VERTEX
  8
0
  6
CONTINUOUS
 10
6.944960
 20
1.606440
  0
VERTEX
  8
0
  6
CONTINUOUS
 10
6.882920
 20
1.655280
  0
SEQEND
  8
0
  0
SOLID
  8
0
 62
     7
 10
6.642680
 20
2.317920
 11
7.287280
 21
2.692360
 12
6.810760
 22
2.036760
 13
7.455360
 23
2.410760
  0
POLYLINE
  8
0
  6
CONTINUOUS
 66
     1
 40
0.000000
 41
0.000000
  0
VERTEX
  8
0
  6
CONTINUOUS
 10
6.642680
 20
2.317920
  0
VERTEX
  8
0
  6
CONTINUOUS
 10
7.287280
 20
2.692360
  0
VERTEX
  8
0
  6
CONTINUOUS
 10
7.455360
 20
2.410760
  0
VERTEX
  8
0
  6
CONTINUOUS
 10
6.810760
 20
2.036760
  0
VERTEX
  8
0
  6
CONTINUOUS
 10
6.642680
 20
2.317920
  0
SEQEND
  8
0
  0
SOLID
  8
0
 62
     7
 10
6.974880
 20
1.584000
 11
7.619480
 21
1.958000
 12
7.003480
 22
1.562000
 13
7.647640
 23
1.936000
  0
POLYLINE
  8
0
  6
CONTINUOUS
 66
     1
 40
0.000000
 41
0.000000
  0
VERTEX
  8
0
  6
CONTINUOUS
 10
6.974880
 20
1.584000
  0
VERTEX
  8
0
  6
CONTINUOUS
 10
7.619480
 20
1.958000
  0
VERTEX
  8
0
  6
CONTINUOUS
 10
7.647640
 20
1.936000
  0
VERTEX
  8
0
  6
CONTINUOUS
 10
7.003480
 20
1.562000
  0
VERTEX
  8
0
  6
CONTINUOUS
 10
6.974880
 20
1.584000
  0
SEQEND
  8
0
  0
SOLID
  8
0
 62
     7
 10
7.003480
 20
1.562000
 11
7.647640
 21
1.936000
 12
7.055840
 22
1.519320
 13
7.700440
 23
1.893760
  0
POLYLINE
  8
0
  6
CONTINUOUS
 66
     1
 40
0.000000
 41
0.000000
  0
VERTEX
  8
0
  6
CONTINUOUS
 10
7.003480
 20
1.562000
  0
VERTEX
  8
0
  6
CONTINUOUS
 10
7.647640
 20
1.936000
  0
VERTEX
  8
0
  6
CONTINUOUS
 10
7.700440
 20
1.893760
  0
VERTEX
  8
0
  6
CONTINUOUS
 10
7.055840
 20
1.519320
  0
VERTEX
  8
0
  6
CONTINUOUS
 10
7.003480
 20
1.562000
  0
SEQEND
  8
0
  0
SOLID
  8
0
 62
     7
 10
7.055840
 20
1.519320
 11
7.700440
 21
1.893760
 12
7.102040
 22
1.476640
 13
7.746640
 23
1.851080
  0
POLYLINE
  8
0
  6
CONTINUOUS
 66
     1
 40
0.000000
 41
0.000000
  0
VERTEX
  8
0
  6
CONTINUOUS
 10
7.055840
 20
1.519320
  0
VERTEX
  8
0
  6
CONTINUOUS
 10
7.700440
 20
1.893760
  0
VERTEX
  8
0
  6
CONTINUOUS
 10
7.746640
 20
1.851080
  0
VERTEX
  8
0
  6
CONTINUOUS
 10
7.102040
 20
1.476640
  0
VERTEX
  8
0
  6
CONTINUOUS
 10
7.055840
 20
1.519320
  0
SEQEND
  8
0
  0
SOLID
  8
0
 62
     7
 10
7.102040
 20
1.476640
 11
7.746640
 21
1.851080
 12
7.139880
 22
1.432200
 13
7.784480
 23
1.806200
  0
POLYLINE
  8
0
  6
CONTINUOUS
 66
     1
 40
0.000000
 41
0.000000
  0
VERTEX
  8
0
  6
CONTINUOUS
 10
7.102040
 20
1.476640
  0
VERTEX
  8
0
  6
CONTINUOUS
 10
7.746640
 20
1.851080
  0
VERTEX
  8
0
  6
CONTINUOUS
 10
7.784480
 20
1.806200
  0
VERTEX
  8
0
  6
CONTINUOUS
 10
7.139880
 20
1.432200
  0
VERTEX
  8
0
  6
CONTINUOUS
 10
7.102040
 20
1.476640
  0
SEQEND
  8
0
  0
SOLID
  8
0
 62
     7
 10
7.139880
 20
1.432200
 11
7.784480
 21
1.806200
 12
7.168920
 22
1.383360
 13
7.813520
 23
1.757800
  0
POLYLINE
  8
0
  6
CONTINUOUS
 66
     1
 40
0.000000
 41
0.000000
  0
VERTEX
  8
0
  6
CONTINUOUS
 10
7.139880
 20
1.432200
  0
VERTEX
  8
0
  6
CONTINUOUS
 10
7.784480
 20
1.806200
  0
VERTEX
  8
0
  6
CONTINUOUS
 10
7.813520
 20
1.757800
  0
VERTEX
  8
0
  6
CONTINUOUS
 10
7.168920
 20
1.383360
  0
VERTEX
  8
0
  6
CONTINUOUS
 10
7.139880
 20
1.432200
  0
SEQEND
  8
0
  0
SOLID
  8
0
 62
     7
 10
7.168920
 20
1.383360
 11
7.813520
 21
1.757800
 12
7.179480
 22
1.356960
 13
7.823640
 23
1.731400
  0
POLYLINE
  8
0
  6
CONTINUOUS
 66
     1
 40
0.000000
 41
0.000000
  0
VERTEX
  8
0
  6
CONTINUOUS
 10
7.168920
 20
1.383360
  0
VERTEX
  8
0
  6
CONTINUOUS
 10
7.813520
 20
1.757800
  0
VERTEX
  8
0
  6
CONTINUOUS
 10
7.823640
 20
1.731400
  0
VERTEX
  8
0
  6
CONTINUOUS
 10
7.179480
 20
1.356960
  0
VERTEX
  8
0
  6
CONTINUOUS
 10
7.168920
 20
1.383360
  0
SEQEND
  8
0
  0
SOLID
  8
0
 62
     7
 10
7.179480
 20
1.356960
 11
7.823640
 21
1.731400
 12
7.186960
 22
1.328800
 13
7.831560
 23
1.703240
  0
POLYLINE
  8
0
  6
CONTINUOUS
 66
     1
 40
0.000000
 41
0.000000
  0
VERTEX
  8
0
  6
CONTINUOUS
 10
7.179480
 20
1.356960
  0
VERTEX
  8
0
  6
CONTINUOUS
 10
7.823640
 20
1.731400
  0
VERTEX
  8
0
  6
CONTINUOUS
 10
7.831560
 20
1.703240
  0
VERTEX
  8
0
  6
CONTINUOUS
 10
7.186960
 20
1.328800
  0
VERTEX
  8
0
  6
CONTINUOUS
 10
7.179480
 20
1.356960
  0
SEQEND
  8
0
  0
SOLID
  8
0
 62
     7
 10
7.186960
 20
1.328800
 11
7.831560
 21
1.703240
 12
7.191800
 22
1.298440
 13
7.836400
 23
1.672880
  0
POLYLINE
  8
0
  6
CONTINUOUS
 66
     1
 40
0.000000
 41
0.000000
  0
VERTEX
  8
0
  6
CONTINUOUS
 10
7.186960
 20
1.328800
  0
VERTEX
  8
0
  6
CONTINUOUS
 10
7.831560
 20
1.703240
  0
VERTEX
  8
0
  6
CONTINUOUS
 10
7.836400
 20
1.672880
  0
VERTEX
  8
0
  6
CONTINUOUS
 10
7.191800
 20
1.298440
  0
VERTEX
  8
0
  6
CONTINUOUS
 10
7.186960
 20
1.328800
  0
SEQEND
  8
0
  0
SOLID
  8
0
 62
    15
 10
7.191800
 20
1.298440
 11
7.836400
 21
1.672880
 12
7.193560
 22
1.265880
 13
7.837720
 23
1.640320
  0
POLYLINE
  8
0
  6
CONTINUOUS
 66
     1
 40
0.000000
 41
0.000000
  0
VERTEX
  8
0
  6
CONTINUOUS
 10
7.191800
 20
1.298440
  0
VERTEX
  8
0
  6
CONTINUOUS
 10
7.836400
 20
1.672880
  0
VERTEX
  8
0
  6
CONTINUOUS
 10
7.837720
 20
1.640320
  0
VERTEX
  8
0
  6
CONTINUOUS
 10
7.193560
 20
1.265880
  0
VERTEX
  8
0
  6
CONTINUOUS
 10
7.191800
 20
1.298440
  0
SEQEND
  8
0
  0
SOLID
  8
0
 62
    15
 10
7.193560
 20
1.265880
 11
7.837720
 21
1.640320
 12
7.190920
 22
1.234200
 13
7.835520
 23
1.608200
  0
POLYLINE
  8
0
  6
CONTINUOUS
 66
     1
 40
0.000000
 41
0.000000
  0
VERTEX
  8
0
  6
CONTINUOUS
 10
7.193560
 20
1.265880
  0
VERTEX
  8
0
  6
CONTINUOUS
 10
7.837720
 20
1.640320
  0
VERTEX
  8
0
  6
CONTINUOUS
 10
7.835520
 20
1.608200
  0
VERTEX
  8
0
  6
CONTINUOUS
 10
7.190920
 20
1.234200
  0
VERTEX
  8
0
  6
CONTINUOUS
 10
7.193560
 20
1.265880
  0
SEQEND
  8
0
  0
SOLID
  8
0
 62
    15
 10
7.190920
 20
1.234200
 11
7.835520
 21
1.608200
 12
7.184760
 22
1.206040
 13
7.829360
 23
1.580040
  0
POLYLINE
  8
0
  6
CONTINUOUS
 66
     1
 40
0.000000
 41
0.000000
  0
VERTEX
  8
0
  6
CONTINUOUS
 10
7.190920
 20
1.234200
  0
VERTEX
  8
0
  6
CONTINUOUS
 10
7.835520
 20
1.608200
  0
VERTEX
  8
0
  6
CONTINUOUS
 10
7.829360
 20
1.580040
  0
VERTEX
  8
0
  6
CONTINUOUS
 10
7.184760
 20
1.206040
  0
VERTEX
  8
0
  6
CONTINUOUS
 10
7.190920
 20
1.234200
  0
SEQEND
  8
0
  0
SOLID
  8
0
 62
    15
 10
7.184760
 20
1.206040
 11
7.829360
 21
1.580040
 12
7.174640
 22
1.180960
 13
7.819240
 23
1.555400
  0
POLYLINE
  8
0
  6
CONTINUOUS
 66
     1
 40
0.000000
 41
0.000000
  0
VERTEX
  8
0
  6
CONTINUOUS
 10
7.184760
 20
1.206040
  0
VERTEX
  8
0
  6
CONTINUOUS
 10
7.829360
 20
1.580040
  0
VERTEX
  8
0
  6
CONTINUOUS
 10
7.819240
 20
1.555400
  0
VERTEX
  8
0
  6
CONTINUOUS
 10
7.174640
 20
1.180960
  0
VERTEX
  8
0
  6
CONTINUOUS
 10
7.184760
 20
1.206040
  0
SEQEND
  8
0
  0
SOLID
  8
0
 62
    15
 10
6.990720
 20
1.068760
 11
7.635320
 21
1.442760
 12
6.990720
 22
0.953920
 13
7.635320
 23
1.328360
  0
POLYLINE
  8
0
  6
CONTINUOUS
 66
     1
 40
0.000000
 41
0.000000
  0
VERTEX
  8
0
  6
CONTINUOUS
 10
6.990720
 20
1.068760
  0
VERTEX
  8
0
  6
CONTINUOUS
 10
7.635320
 20
1.442760
  0
VERTEX
  8
0
  6
CONTINUOUS
 10
7.635320
 20
1.328360
  0
VERTEX
  8
0
  6
CONTINUOUS
 10
6.990720
 20
0.953920
  0
VERTEX
  8
0
  6
CONTINUOUS
 10
6.990720
 20
1.068760
  0
SEQEND
  8
0
  0
SOLID
  8
0
 62
    15
 10
7.161880
 20
1.159400
 11
7.806040
 21
1.533400
 12
7.146480
 22
1.140480
 13
7.791080
 23
1.514920
  0
POLYLINE
  8
0
  6
CONTINUOUS
 66
     1
 40
0.000000
 41
0.000000
  0
VERTEX
  8
0
  6
CONTINUOUS
 10
7.161880
 20
1.159400
  0
VERTEX
  8
0
  6
CONTINUOUS
 10
7.806040
 20
1.533400
  0
VERTEX
  8
0
  6
CONTINUOUS
 10
7.791080
 20
1.514920
  0
VERTEX
  8
0
  6
CONTINUOUS
 10
7.146480
 20
1.140480
  0
VERTEX
  8
0
  6
CONTINUOUS
 10
7.161880
 20
1.159400
  0
SEQEND
  8
0
  0
SOLID
  8
0
 62
    15
 10
7.146480
 20
1.140480
 11
7.791080
 21
1.514920
 12
7.129320
 22
1.124640
 13
7.773920
 23
1.498640
  0
POLYLINE
  8
0
  6
CONTINUOUS
 66
     1
 40
0.000000
 41
0.000000
  0
VERTEX
  8
0
  6
CONTINUOUS
 10
7.146480
 20
1.140480
  0
VERTEX
  8
0
  6
CONTINUOUS
 10
7.791080
 20
1.514920
  0
VERTEX
  8
0
  6
CONTINUOUS
 10
7.773920
 20
1.498640
  0
VERTEX
  8
0
  6
CONTINUOUS
 10
7.129320
 20
1.124640
  0
VERTEX
  8
0
  6
CONTINUOUS
 10
7.146480
 20
1.140480
  0
SEQEND
  8
0
  0
SOLID
  8
0
 62
    15
 10
7.129320
 20
1.124640
 11
7.773920
 21
1.498640
 12
7.091920
 22
1.100000
 13
7.736520
 23
1.474000
  0
POLYLINE
  8
0
  6
CONTINUOUS
 66
     1
 40
0.000000
 41
0.000000
  0
VERTEX
  8
0
  6
CONTINUOUS
 10
7.129320
 20
1.124640
  0
VERTEX
  8
0
  6
CONTINUOUS
 10
7.773920
 20
1.498640
  0
VERTEX
  8
0
  6
CONTINUOUS
 10
7.736520
 20
1.474000
  0
VERTEX
  8
0
  6
CONTINUOUS
 10
7.091920
 20
1.100000
  0
VERTEX
  8
0
  6
CONTINUOUS
 10
7.129320
 20
1.124640
  0
SEQEND
  8
0
  0
SOLID
  8
0
 62
    15
 10
7.174640
 20
1.180960
 11
7.819240
 21
1.555400
 12
7.161880
 22
1.159400
 13
7.806040
 23
1.533400
  0
POLYLINE
  8
0
  6
CONTINUOUS
 66
     1
 40
0.000000
 41
0.000000
  0
VERTEX
  8
0
  6
CONTINUOUS
 10
7.174640
 20
1.180960
  0
VERTEX
  8
0
  6
CONTINUOUS
 10
7.819240
 20
1.555400
  0
VERTEX
  8
0
  6
CONTINUOUS
 10
7.806040
 20
1.533400
  0
VERTEX
  8
0
  6
CONTINUOUS
 10
7.161880
 20
1.159400
  0
VERTEX
  8
0
  6
CONTINUOUS
 10
7.174640
 20
1.180960
  0
SEQEND
  8
0
  0
SOLID
  8
0
 62
    15
 10
6.512000
 20
2.320560
 11
7.156600
 21
2.695000
 12
6.640040
 22
2.320560
 13
7.284640
 23
2.695000
  0
POLYLINE
  8
0
  6
CONTINUOUS
 66
     1
 40
0.000000
 41
0.000000
  0
VERTEX
  8
0
  6
CONTINUOUS
 10
6.512000
 20
2.320560
  0
VERTEX
  8
0
  6
CONTINUOUS
 10
7.156600
 20
2.695000
  0
VERTEX
  8
0
  6
CONTINUOUS
 10
7.284640
 20
2.695000
  0
VERTEX
  8
0
  6
CONTINUOUS
 10
6.640040
 20
2.320560
  0
VERTEX
  8
0
  6
CONTINUOUS
 10
6.512000
 20
2.320560
  0
SEQEND
  8
0
  0
SOLID
  8
0
 62
     7
 10
6.640040
 20
2.320560
 11
7.284640
 21
2.695000
 12
6.642680
 22
2.317920
 13
7.287280
 23
2.692360
  0
POLYLINE
  8
0
  6
CONTINUOUS
 66
     1
 40
0.000000
 41
0.000000
  0
VERTEX
  8
0
  6
CONTINUOUS
 10
6.640040
 20
2.320560
  0
VERTEX
  8
0
  6
CONTINUOUS
 10
7.284640
 20
2.695000
  0
VERTEX
  8
0
  6
CONTINUOUS
 10
7.287280
 20
2.692360
  0
VERTEX
  8
0
  6
CONTINUOUS
 10
6.642680
 20
2.317920
  0
VERTEX
  8
0
  6
CONTINUOUS
 10
6.640040
 20
2.320560
  0
SEQEND
  8
0
  0
POLYLINE
  8
0
  6
CONTINUOUS
 66
     1
 40
0.000000
 41
0.000000
  0
VERTEX
  8
0
  6
CONTINUOUS
 10
6.642680
 20
2.317920
  0
VERTEX
  8
0
  6
CONTINUOUS
 10
6.810760
 20
2.036760
  0
VERTEX
  8
0
  6
CONTINUOUS
 10
6.810760
 20
2.035440
  0
VERTEX
  8
0
  6
CONTINUOUS
 10
6.788760
 20
2.018720
  0
VERTEX
  8
0
  6
CONTINUOUS
 10
6.770280
 20
2.000680
  0
VERTEX
  8
0
  6
CONTINUOUS
 10
6.755760
 20
1.980880
  0
VERTEX
  8
0
  6
CONTINUOUS
 10
6.744760
 20
1.959760
  0
VERTEX
  8
0
  6
CONTINUOUS
 10
6.736840
 20
1.937760
  0
VERTEX
  8
0
  6
CONTINUOUS
 10
6.732880
 20
1.914440
  0
VERTEX
  8
0
  6
CONTINUOUS
 10
6.732440
 20
1.890240
  0
VERTEX
  8
0
  6
CONTINUOUS
 10
6.735080
 20
1.865160
  0
VERTEX
  8
0
  6
CONTINUOUS
 10
6.741680
 20
1.839640
  0
VERTEX
  8
0
  6
CONTINUOUS
 10
6.751360
 20
1.813680
  0
VERTEX
  8
0
  6
CONTINUOUS
 10
6.765000
 20
1.787280
  0
VERTEX
  8
0
  6
CONTINUOUS
 10
6.781720
 20
1.760880
  0
VERTEX
  8
0
  6
CONTINUOUS
 10
6.801960
 20
1.734480
  0
VERTEX
  8
0
  6
CONTINUOUS
 10
6.825280
 20
1.707640
  0
VERTEX
  8
0
  6
CONTINUOUS
 10
6.852560
 20
1.681240
  0
VERTEX
  8
0
  6
CONTINUOUS
 10
6.882920
 20
1.655280
  0
VERTEX
  8
0
  6
CONTINUOUS
 10
6.944960
 20
1.606440
  0
VERTEX
  8
0
  6
CONTINUOUS
 10
6.974880
 20
1.584000
  0
VERTEX
  8
0
  6
CONTINUOUS
 10
7.003480
 20
1.562000
  0
VERTEX
  8
0
  6
CONTINUOUS
 10
7.055840
 20
1.519320
  0
VERTEX
  8
0
  6
CONTINUOUS
 10
7.102040
 20
1.476640
  0
VERTEX
  8
0
  6
CONTINUOUS
 10
7.139880
 20
1.432200
  0
VERTEX
  8
0
  6
CONTINUOUS
 10
7.168920
 20
1.383360
  0
VERTEX
  8
0
  6
CONTINUOUS
 10
7.179480
 20
1.356960
  0
VERTEX
  8
0
  6
CONTINUOUS
 10
7.186960
 20
1.328800
  0
VERTEX
  8
0
  6
CONTINUOUS
 10
7.191800
 20
1.298440
  0
VERTEX
  8
0
  6
CONTINUOUS
 10
7.193560
 20
1.265880
  0
VERTEX
  8
0
  6
CONTINUOUS
 10
7.190920
 20
1.234200
  0
VERTEX
  8
0
  6
CONTINUOUS
 10
7.184760
 20
1.206040
  0
VERTEX
  8
0
  6
CONTINUOUS
 10
7.174640
 20
1.180960
  0
VERTEX
  8
0
  6
CONTINUOUS
 10
7.161880
 20
1.159400
  0
VERTEX
  8
0
  6
CONTINUOUS
 10
7.146480
 20
1.140480
  0
VERTEX
  8
0
  6
CONTINUOUS
 10
7.129320
 20
1.124640
  0
VERTEX
  8
0
  6
CONTINUOUS
 10
7.091920
 20
1.100000
  0
VERTEX
  8
0
  6
CONTINUOUS
 10
7.054960
 20
1.083720
  0
VERTEX
  8
0
  6
CONTINUOUS
 10
7.022400
 20
1.074040
  0
VERTEX
  8
0
  6
CONTINUOUS
 10
7.009640
 20
1.071400
  0
VERTEX
  8
0
  6
CONTINUOUS
 10
6.999520
 20
1.069640
  0
VERTEX
  8
0
  6
CONTINUOUS
 10
6.992920
 20
1.068760
  0
VERTEX
  8
0
  6
CONTINUOUS
 10
6.990720
 20
1.068760
  0
VERTEX
  8
0
  6
CONTINUOUS
 10
6.990720
 20
0.953920
  0
VERTEX
  8
0
  6
CONTINUOUS
 10
6.513320
 20
0.953920
  0
VERTEX
  8
0
  6
CONTINUOUS
 10
6.512000
 20
2.320560
  0
VERTEX
  8
0
  6
CONTINUOUS
 10
6.640040
 20
2.320560
  0
VERTEX
  8
0
  6
CONTINUOUS
 10
6.642680
 20
2.317920
  0
SEQEND
  8
0
  0
TEXT
  8
0
 10
6.878520
 20
0.698720
 40
0.138066
  1
BA  271
 41
1.000000
  7
SN0
 71
     0
 72
     5
 11
7.468366
 21
0.698720
  0
TEXT
  8
0
 10
6.630360
 20
0.506880
 40
0.138066
  1
11/16" x 1-3/8"
 41
1.000000
  7
SN0
 71
     0
 72
     5
 11
7.714370
 21
0.506880
  0
TEXT
  8
0
 10
7.370440
 20
4.249080
 40
0.138066
  1
base cap
 41
1.000000
  7
SN0
 71
     0
 72
     5
 11
8.043172
 21
4.249080
  0
TEXT
  8
0
 10
7.568880
 20
4.057240
 40
0.138066
  1
271
 41
1.000000
  7
SN0
 71
     0
 72
     5
 11
7.845690
 21
4.057240
  0
TEXT
  8
0
 10
7.652040
 20
3.865840
 40
0.138066
  1
B
 41
1.000000
  7
SN0
 71
     0
 72
     5
 11
7.763079
 21
3.865840
  0
ENDSEC
  0
EOF
