  0
SECTION
  2
HEADER
  9
$ACADVER
  1
AC1006
  9
$EXTMIN
 10
3.485240
 20
0.367840
  9
$EXTMAX
 10
8.070480
 20
5.087720
  9
$LTSCALE
 40
0.044000
  9
$PDMODE
 70
    35
  9
$PDSIZE
 40
0.035200
  0
ENDSEC
  0
SECTION
  2
TABLES
  0
TABLE
  2
LTYPE
 70
     9
  0
LTYPE
  2
CONTINUOUS
 70
    64
  3
Solid line
 72
    65
 73
     0
 40
0.000000
  0
LTYPE
  2
DASHED
 70
    64
  3
__ __ __ __ __ __ __ __ __ __ __ __ __ __ __
 72
    65
 73
     2
 40
0.000330
 49
0.000220
 49
-0.000110
  0
LTYPE
  2
HIDDEN
 70
    64
  3
 _ _ _ _ _ _ _ _ _ _ _ _ _ _ _ _ _ _ _ _ _ _
 72
    65
 73
     2
 40
0.000165
 49
0.000110
 49
-0.000055
  0
LTYPE
  2
CENTER
 70
    64
  3
____ _ ____ _ ____ _ ____ _ ____ _ ____ _ ____
 72
    65
 73
     4
 40
0.000880
 49
0.000550
 49
-0.000110
 49
0.000110
 49
-0.000110
  0
LTYPE
  2
PHANTOM
 70
    64
  3
_____ _ _ _____ _ _ _____ _ _ _____ _ _ ____
 72
    65
 73
     6
 40
0.001100
 49
0.000550
 49
-0.000110
 49
0.000110
 49
-0.000110
 49
0.000110
 49
-0.000110
  0
LTYPE
  2
DOT
 70
    64
  3
...............................................
 72
    65
 73
     2
 40
0.000110
 49
0.000000
 49
-0.000110
  0
LTYPE
  2
DASHDOT
 70
    64
  3
__ . __ . __ . __ . __ . __ . __ . __ . __ . __
 72
    65
 73
     4
 40
0.000440
 49
0.000220
 49
-0.000110
 49
0.000000
 49
-0.000110
  0
LTYPE
  2
BORDER
 70
    64
  3
__ __ . __ __ . __ __ . __ __ . __ __ . __ __
 72
    65
 73
     6
 40
0.000770
 49
0.000220
 49
-0.000110
 49
0.000220
 49
-0.000110
 49
0.000000
 49
-0.000110
  0
LTYPE
  2
DIVIDE
 70
    64
  3
__ . . __ . . __ . . __ . . __ . . __ . . __
 72
    65
 73
     6
 40
0.000550
 49
0.000220
 49
-0.000110
 49
0.000000
 49
-0.000110
 49
0.000000
 49
-0.000110
  0
LTYPE
  2
DOTDOT
 70
    64
  3
 . .  . .  . .  . .  . .  . . 
 72
    65
 73
     5
 40
0.000242
 49
-0.000110
 49
0.000000
 49
-0.000110
 49
0.000000
 49
-0.000110
  0
ENDTAB
  0
TABLE
  2
STYLE
 70
     2
  0
STYLE
 70
     0
  2
SN0
 40
0.000000
 41
0.000440
 50
0.000000
 71
     0
 42
0.000000
  3
ROMAND
  0
STYLE
 70
    68
  2
SV0
 40
0.000000
 41
0.000440
 50
0.000000
 71
     0
 42
0.000000
  3
ROMAND
  0
ENDTAB
  0
TABLE
  2
LAYER
 70
     3
  0
LAYER
  2
FOREGROUND
 70
    64
 62
     7
  6
CONTINUOUS
  0
LAYER
  2
BACKGROUND
 70
    65
 62
    -7
  6
CONTINUOUS
  0
LAYER
  2
0
 70
    64
 62
     7
  6
CONTINUOUS
  0
ENDTAB
  0
ENDSEC
  0
SECTION
  2
ENTITIES
  0
POLYLINE
  8
FOREGROUND
  6
CONTINUOUS
 66
     1
 40
0.000000
 41
0.000000
  0
VERTEX
  8
FOREGROUND
  6
CONTINUOUS
 10
0.000000
 20
5.455560
  0
VERTEX
  8
FOREGROUND
  6
CONTINUOUS
 10
8.499920
 20
5.455560
  0
VERTEX
  8
FOREGROUND
  6
CONTINUOUS
 10
8.499920
 20
-5.544440
  0
VERTEX
  8
FOREGROUND
  6
CONTINUOUS
 10
0.000000
 20
-5.544440
  0
VERTEX
  8
FOREGROUND
  6
CONTINUOUS
 10
0.000000
 20
5.455560
  0
SEQEND
  8
0
  0
POLYLINE
  8
FOREGROUND
  6
CONTINUOUS
 66
     1
 40
0.000000
 41
0.000000
  0
VERTEX
  8
FOREGROUND
  6
CONTINUOUS
 10
0.000000
 20
5.455560
  0
VERTEX
  8
FOREGROUND
  6
CONTINUOUS
 10
8.499920
 20
5.455560
  0
VERTEX
  8
FOREGROUND
  6
CONTINUOUS
 10
8.499920
 20
-5.544440
  0
VERTEX
  8
FOREGROUND
  6
CONTINUOUS
 10
0.000000
 20
-5.544440
  0
VERTEX
  8
FOREGROUND
  6
CONTINUOUS
 10
0.000000
 20
5.455560
  0
SEQEND
  8
0
  0
POLYLINE
  8
0
  6
CONTINUOUS
 66
     1
 40
0.014080
 41
0.014080
  0
VERTEX
  8
0
  6
CONTINUOUS
 10
3.492720
 20
4.855840
  0
VERTEX
  8
0
  6
CONTINUOUS
 10
3.669600
 20
4.859360
  0
VERTEX
  8
0
  6
CONTINUOUS
 10
3.832400
 20
4.860240
  0
VERTEX
  8
0
  6
CONTINUOUS
 10
4.032600
 20
4.857160
  0
VERTEX
  8
0
  6
CONTINUOUS
 10
4.213000
 20
4.851000
  0
VERTEX
  8
0
  6
CONTINUOUS
 10
4.356440
 20
4.843520
  0
VERTEX
  8
0
  6
CONTINUOUS
 10
4.455000
 20
4.836920
  0
VERTEX
  8
0
  6
CONTINUOUS
 10
4.656080
 20
4.818880
  0
VERTEX
  8
0
  6
CONTINUOUS
 10
4.857600
 20
4.793800
  0
VERTEX
  8
0
  6
CONTINUOUS
 10
5.005880
 20
4.769600
  0
VERTEX
  8
0
  6
CONTINUOUS
 10
5.102240
 20
4.751120
  0
VERTEX
  8
0
  6
CONTINUOUS
 10
5.195960
 20
4.730000
  0
VERTEX
  8
0
  6
CONTINUOUS
 10
5.286600
 20
4.706680
  0
VERTEX
  8
0
  6
CONTINUOUS
 10
5.372840
 20
4.680720
  0
VERTEX
  8
0
  6
CONTINUOUS
 10
5.454680
 20
4.651680
  0
VERTEX
  8
0
  6
CONTINUOUS
 10
5.531240
 20
4.620000
  0
VERTEX
  8
0
  6
CONTINUOUS
 10
5.601640
 20
4.585680
  0
VERTEX
  8
0
  6
CONTINUOUS
 10
5.665440
 20
4.547840
  0
VERTEX
  8
0
  6
CONTINUOUS
 10
5.721760
 20
4.506920
  0
VERTEX
  8
0
  6
CONTINUOUS
 10
5.747280
 20
4.485360
  0
VERTEX
  8
0
  6
CONTINUOUS
 10
5.770600
 20
4.462480
  0
VERTEX
  8
0
  6
CONTINUOUS
 10
5.801400
 20
4.426840
  0
VERTEX
  8
0
  6
CONTINUOUS
 10
5.827360
 20
4.389440
  0
VERTEX
  8
0
  6
CONTINUOUS
 10
5.827360
 20
4.389000
  0
VERTEX
  8
0
  6
CONTINUOUS
 10
6.215440
 20
4.389000
  0
VERTEX
  8
0
  6
CONTINUOUS
 10
6.215440
 20
4.235880
  0
VERTEX
  8
0
  6
CONTINUOUS
 10
6.215440
 20
4.237200
  0
VERTEX
  8
0
  6
CONTINUOUS
 10
3.492720
 20
4.235880
  0
VERTEX
  8
0
  6
CONTINUOUS
 10
3.492720
 20
4.855840
  0
SEQEND
  8
0
  0
SOLID
  8
0
 62
    15
 10
6.881160
 20
2.152480
 11
7.514760
 21
2.530000
 12
6.902720
 22
1.950520
 13
7.536320
 23
2.328040
  0
POLYLINE
  8
0
  6
CONTINUOUS
 66
     1
 40
0.000000
 41
0.000000
  0
VERTEX
  8
0
  6
CONTINUOUS
 10
6.881160
 20
2.152480
  0
VERTEX
  8
0
  6
CONTINUOUS
 10
7.514760
 20
2.530000
  0
VERTEX
  8
0
  6
CONTINUOUS
 10
7.536320
 20
2.328040
  0
VERTEX
  8
0
  6
CONTINUOUS
 10
6.902720
 20
1.950520
  0
VERTEX
  8
0
  6
CONTINUOUS
 10
6.881160
 20
2.152480
  0
SEQEND
  8
0
  0
SOLID
  8
0
 62
    15
 10
6.463160
 20
3.610640
 11
7.096760
 21
3.988600
 12
6.463160
 22
3.223000
 13
7.096760
 23
3.600520
  0
POLYLINE
  8
0
  6
CONTINUOUS
 66
     1
 40
0.000000
 41
0.000000
  0
VERTEX
  8
0
  6
CONTINUOUS
 10
6.463160
 20
3.610640
  0
VERTEX
  8
0
  6
CONTINUOUS
 10
7.096760
 20
3.988600
  0
VERTEX
  8
0
  6
CONTINUOUS
 10
7.096760
 20
3.600520
  0
VERTEX
  8
0
  6
CONTINUOUS
 10
6.463160
 20
3.223000
  0
VERTEX
  8
0
  6
CONTINUOUS
 10
6.463160
 20
3.610640
  0
SEQEND
  8
0
  0
SOLID
  8
0
 62
    15
 10
6.463160
 20
3.223000
 11
7.096760
 21
3.600520
 12
6.512880
 22
3.187360
 13
7.146480
 23
3.564880
  0
POLYLINE
  8
0
  6
CONTINUOUS
 66
     1
 40
0.000000
 41
0.000000
  0
VERTEX
  8
0
  6
CONTINUOUS
 10
6.463160
 20
3.223000
  0
VERTEX
  8
0
  6
CONTINUOUS
 10
7.096760
 20
3.600520
  0
VERTEX
  8
0
  6
CONTINUOUS
 10
7.146480
 20
3.564880
  0
VERTEX
  8
0
  6
CONTINUOUS
 10
6.512880
 20
3.187360
  0
VERTEX
  8
0
  6
CONTINUOUS
 10
6.463160
 20
3.223000
  0
SEQEND
  8
0
  0
SOLID
  8
0
 62
    15
 10
6.512880
 20
3.187360
 11
7.146480
 21
3.564880
 12
6.559080
 22
3.142920
 13
7.192680
 23
3.520440
  0
POLYLINE
  8
0
  6
CONTINUOUS
 66
     1
 40
0.000000
 41
0.000000
  0
VERTEX
  8
0
  6
CONTINUOUS
 10
6.512880
 20
3.187360
  0
VERTEX
  8
0
  6
CONTINUOUS
 10
7.146480
 20
3.564880
  0
VERTEX
  8
0
  6
CONTINUOUS
 10
7.192680
 20
3.520440
  0
VERTEX
  8
0
  6
CONTINUOUS
 10
6.559080
 20
3.142920
  0
VERTEX
  8
0
  6
CONTINUOUS
 10
6.512880
 20
3.187360
  0
SEQEND
  8
0
  0
SOLID
  8
0
 62
    15
 10
6.559080
 20
3.142920
 11
7.192680
 21
3.520440
 12
6.601760
 22
3.090120
 13
7.235360
 23
3.467640
  0
POLYLINE
  8
0
  6
CONTINUOUS
 66
     1
 40
0.000000
 41
0.000000
  0
VERTEX
  8
0
  6
CONTINUOUS
 10
6.559080
 20
3.142920
  0
VERTEX
  8
0
  6
CONTINUOUS
 10
7.192680
 20
3.520440
  0
VERTEX
  8
0
  6
CONTINUOUS
 10
7.235360
 20
3.467640
  0
VERTEX
  8
0
  6
CONTINUOUS
 10
6.601760
 20
3.090120
  0
VERTEX
  8
0
  6
CONTINUOUS
 10
6.559080
 20
3.142920
  0
SEQEND
  8
0
  0
SOLID
  8
0
 62
    15
 10
6.601760
 20
3.090120
 11
7.235360
 21
3.467640
 12
6.640920
 22
3.029840
 13
7.274520
 23
3.407360
  0
POLYLINE
  8
0
  6
CONTINUOUS
 66
     1
 40
0.000000
 41
0.000000
  0
VERTEX
  8
0
  6
CONTINUOUS
 10
6.601760
 20
3.090120
  0
VERTEX
  8
0
  6
CONTINUOUS
 10
7.235360
 20
3.467640
  0
VERTEX
  8
0
  6
CONTINUOUS
 10
7.274520
 20
3.407360
  0
VERTEX
  8
0
  6
CONTINUOUS
 10
6.640920
 20
3.029840
  0
VERTEX
  8
0
  6
CONTINUOUS
 10
6.601760
 20
3.090120
  0
SEQEND
  8
0
  0
SOLID
  8
0
 62
    15
 10
6.640920
 20
3.029840
 11
7.274520
 21
3.407360
 12
6.677000
 22
2.962520
 13
7.310600
 23
3.340040
  0
POLYLINE
  8
0
  6
CONTINUOUS
 66
     1
 40
0.000000
 41
0.000000
  0
VERTEX
  8
0
  6
CONTINUOUS
 10
6.640920
 20
3.029840
  0
VERTEX
  8
0
  6
CONTINUOUS
 10
7.274520
 20
3.407360
  0
VERTEX
  8
0
  6
CONTINUOUS
 10
7.310600
 20
3.340040
  0
VERTEX
  8
0
  6
CONTINUOUS
 10
6.677000
 20
2.962520
  0
VERTEX
  8
0
  6
CONTINUOUS
 10
6.640920
 20
3.029840
  0
SEQEND
  8
0
  0
SOLID
  8
0
 62
    15
 10
6.677000
 20
2.962520
 11
7.310600
 21
3.340040
 12
6.710440
 22
2.889040
 13
7.343600
 23
3.266560
  0
POLYLINE
  8
0
  6
CONTINUOUS
 66
     1
 40
0.000000
 41
0.000000
  0
VERTEX
  8
0
  6
CONTINUOUS
 10
6.677000
 20
2.962520
  0
VERTEX
  8
0
  6
CONTINUOUS
 10
7.310600
 20
3.340040
  0
VERTEX
  8
0
  6
CONTINUOUS
 10
7.343600
 20
3.266560
  0
VERTEX
  8
0
  6
CONTINUOUS
 10
6.710440
 20
2.889040
  0
VERTEX
  8
0
  6
CONTINUOUS
 10
6.677000
 20
2.962520
  0
SEQEND
  8
0
  0
SOLID
  8
0
 62
    15
 10
6.710440
 20
2.889040
 11
7.343600
 21
3.266560
 12
6.740360
 22
2.809840
 13
7.373960
 23
3.187360
  0
POLYLINE
  8
0
  6
CONTINUOUS
 66
     1
 40
0.000000
 41
0.000000
  0
VERTEX
  8
0
  6
CONTINUOUS
 10
6.710440
 20
2.889040
  0
VERTEX
  8
0
  6
CONTINUOUS
 10
7.343600
 20
3.266560
  0
VERTEX
  8
0
  6
CONTINUOUS
 10
7.373960
 20
3.187360
  0
VERTEX
  8
0
  6
CONTINUOUS
 10
6.740360
 20
2.809840
  0
VERTEX
  8
0
  6
CONTINUOUS
 10
6.710440
 20
2.889040
  0
SEQEND
  8
0
  0
SOLID
  8
0
 62
    15
 10
6.740360
 20
2.809840
 11
7.373960
 21
3.187360
 12
6.768080
 22
2.725800
 13
7.401240
 23
3.103320
  0
POLYLINE
  8
0
  6
CONTINUOUS
 66
     1
 40
0.000000
 41
0.000000
  0
VERTEX
  8
0
  6
CONTINUOUS
 10
6.740360
 20
2.809840
  0
VERTEX
  8
0
  6
CONTINUOUS
 10
7.373960
 20
3.187360
  0
VERTEX
  8
0
  6
CONTINUOUS
 10
7.401240
 20
3.103320
  0
VERTEX
  8
0
  6
CONTINUOUS
 10
6.768080
 20
2.725800
  0
VERTEX
  8
0
  6
CONTINUOUS
 10
6.740360
 20
2.809840
  0
SEQEND
  8
0
  0
SOLID
  8
0
 62
    15
 10
6.768080
 20
2.725800
 11
7.401240
 21
3.103320
 12
6.792720
 22
2.637360
 13
7.426320
 23
3.014880
  0
POLYLINE
  8
0
  6
CONTINUOUS
 66
     1
 40
0.000000
 41
0.000000
  0
VERTEX
  8
0
  6
CONTINUOUS
 10
6.768080
 20
2.725800
  0
VERTEX
  8
0
  6
CONTINUOUS
 10
7.401240
 20
3.103320
  0
VERTEX
  8
0
  6
CONTINUOUS
 10
7.426320
 20
3.014880
  0
VERTEX
  8
0
  6
CONTINUOUS
 10
6.792720
 20
2.637360
  0
VERTEX
  8
0
  6
CONTINUOUS
 10
6.768080
 20
2.725800
  0
SEQEND
  8
0
  0
SOLID
  8
0
 62
    15
 10
6.792720
 20
2.637360
 11
7.426320
 21
3.014880
 12
6.814720
 22
2.544960
 13
7.448320
 23
2.922920
  0
POLYLINE
  8
0
  6
CONTINUOUS
 66
     1
 40
0.000000
 41
0.000000
  0
VERTEX
  8
0
  6
CONTINUOUS
 10
6.792720
 20
2.637360
  0
VERTEX
  8
0
  6
CONTINUOUS
 10
7.426320
 20
3.014880
  0
VERTEX
  8
0
  6
CONTINUOUS
 10
7.448320
 20
2.922920
  0
VERTEX
  8
0
  6
CONTINUOUS
 10
6.814720
 20
2.544960
  0
VERTEX
  8
0
  6
CONTINUOUS
 10
6.792720
 20
2.637360
  0
SEQEND
  8
0
  0
SOLID
  8
0
 62
    15
 10
6.814720
 20
2.544960
 11
7.448320
 21
2.922920
 12
6.834520
 22
2.449920
 13
7.468120
 23
2.827440
  0
POLYLINE
  8
0
  6
CONTINUOUS
 66
     1
 40
0.000000
 41
0.000000
  0
VERTEX
  8
0
  6
CONTINUOUS
 10
6.814720
 20
2.544960
  0
VERTEX
  8
0
  6
CONTINUOUS
 10
7.448320
 20
2.922920
  0
VERTEX
  8
0
  6
CONTINUOUS
 10
7.468120
 20
2.827440
  0
VERTEX
  8
0
  6
CONTINUOUS
 10
6.834520
 20
2.449920
  0
VERTEX
  8
0
  6
CONTINUOUS
 10
6.814720
 20
2.544960
  0
SEQEND
  8
0
  0
SOLID
  8
0
 62
    15
 10
6.834520
 20
2.449920
 11
7.468120
 21
2.827440
 12
6.852120
 22
2.352240
 13
7.485720
 23
2.729760
  0
POLYLINE
  8
0
  6
CONTINUOUS
 66
     1
 40
0.000000
 41
0.000000
  0
VERTEX
  8
0
  6
CONTINUOUS
 10
6.834520
 20
2.449920
  0
VERTEX
  8
0
  6
CONTINUOUS
 10
7.468120
 20
2.827440
  0
VERTEX
  8
0
  6
CONTINUOUS
 10
7.485720
 20
2.729760
  0
VERTEX
  8
0
  6
CONTINUOUS
 10
6.852120
 20
2.352240
  0
VERTEX
  8
0
  6
CONTINUOUS
 10
6.834520
 20
2.449920
  0
SEQEND
  8
0
  0
SOLID
  8
0
 62
    15
 10
6.852120
 20
2.352240
 11
7.485720
 21
2.729760
 12
6.881160
 22
2.152480
 13
7.514760
 23
2.530000
  0
POLYLINE
  8
0
  6
CONTINUOUS
 66
     1
 40
0.000000
 41
0.000000
  0
VERTEX
  8
0
  6
CONTINUOUS
 10
6.852120
 20
2.352240
  0
VERTEX
  8
0
  6
CONTINUOUS
 10
7.485720
 20
2.729760
  0
VERTEX
  8
0
  6
CONTINUOUS
 10
7.514760
 20
2.530000
  0
VERTEX
  8
0
  6
CONTINUOUS
 10
6.881160
 20
2.152480
  0
VERTEX
  8
0
  6
CONTINUOUS
 10
6.852120
 20
2.352240
  0
SEQEND
  8
0
  0
SOLID
  8
0
 62
    15
 10
6.311360
 20
3.610640
 11
6.944960
 21
3.988600
 12
6.463160
 22
3.610640
 13
7.096760
 23
3.988600
  0
POLYLINE
  8
0
  6
CONTINUOUS
 66
     1
 40
0.000000
 41
0.000000
  0
VERTEX
  8
0
  6
CONTINUOUS
 10
6.311360
 20
3.610640
  0
VERTEX
  8
0
  6
CONTINUOUS
 10
6.944960
 20
3.988600
  0
VERTEX
  8
0
  6
CONTINUOUS
 10
7.096760
 20
3.988600
  0
VERTEX
  8
0
  6
CONTINUOUS
 10
6.463160
 20
3.610640
  0
VERTEX
  8
0
  6
CONTINUOUS
 10
6.311360
 20
3.610640
  0
SEQEND
  8
0
  0
SOLID
  8
0
 62
    15
 10
6.902720
 20
1.950520
 11
7.536320
 21
2.328040
 12
6.917680
 22
1.752080
 13
7.550840
 23
2.129600
  0
POLYLINE
  8
0
  6
CONTINUOUS
 66
     1
 40
0.000000
 41
0.000000
  0
VERTEX
  8
0
  6
CONTINUOUS
 10
6.902720
 20
1.950520
  0
VERTEX
  8
0
  6
CONTINUOUS
 10
7.536320
 20
2.328040
  0
VERTEX
  8
0
  6
CONTINUOUS
 10
7.550840
 20
2.129600
  0
VERTEX
  8
0
  6
CONTINUOUS
 10
6.917680
 20
1.752080
  0
VERTEX
  8
0
  6
CONTINUOUS
 10
6.902720
 20
1.950520
  0
SEQEND
  8
0
  0
SOLID
  8
0
 62
    15
 10
6.917680
 20
1.752080
 11
7.550840
 21
2.129600
 12
6.922960
 22
1.655720
 13
7.556560
 23
2.033240
  0
POLYLINE
  8
0
  6
CONTINUOUS
 66
     1
 40
0.000000
 41
0.000000
  0
VERTEX
  8
0
  6
CONTINUOUS
 10
6.917680
 20
1.752080
  0
VERTEX
  8
0
  6
CONTINUOUS
 10
7.550840
 20
2.129600
  0
VERTEX
  8
0
  6
CONTINUOUS
 10
7.556560
 20
2.033240
  0
VERTEX
  8
0
  6
CONTINUOUS
 10
6.922960
 20
1.655720
  0
VERTEX
  8
0
  6
CONTINUOUS
 10
6.917680
 20
1.752080
  0
SEQEND
  8
0
  0
SOLID
  8
0
 62
    15
 10
6.922960
 20
1.655720
 11
7.556560
 21
2.033240
 12
6.926920
 22
1.562000
 13
7.560520
 23
1.939520
  0
POLYLINE
  8
0
  6
CONTINUOUS
 66
     1
 40
0.000000
 41
0.000000
  0
VERTEX
  8
0
  6
CONTINUOUS
 10
6.922960
 20
1.655720
  0
VERTEX
  8
0
  6
CONTINUOUS
 10
7.556560
 20
2.033240
  0
VERTEX
  8
0
  6
CONTINUOUS
 10
7.560520
 20
1.939520
  0
VERTEX
  8
0
  6
CONTINUOUS
 10
6.926920
 20
1.562000
  0
VERTEX
  8
0
  6
CONTINUOUS
 10
6.922960
 20
1.655720
  0
SEQEND
  8
0
  0
SOLID
  8
0
 62
    15
 10
6.926920
 20
1.562000
 11
7.560520
 21
1.939520
 12
6.930000
 22
1.471800
 13
7.563600
 23
1.849320
  0
POLYLINE
  8
0
  6
CONTINUOUS
 66
     1
 40
0.000000
 41
0.000000
  0
VERTEX
  8
0
  6
CONTINUOUS
 10
6.926920
 20
1.562000
  0
VERTEX
  8
0
  6
CONTINUOUS
 10
7.560520
 20
1.939520
  0
VERTEX
  8
0
  6
CONTINUOUS
 10
7.563600
 20
1.849320
  0
VERTEX
  8
0
  6
CONTINUOUS
 10
6.930000
 20
1.471800
  0
VERTEX
  8
0
  6
CONTINUOUS
 10
6.926920
 20
1.562000
  0
SEQEND
  8
0
  0
SOLID
  8
0
 62
    15
 10
6.930000
 20
1.471800
 11
7.563600
 21
1.849320
 12
6.932200
 22
1.385560
 13
7.565800
 23
1.763080
  0
POLYLINE
  8
0
  6
CONTINUOUS
 66
     1
 40
0.000000
 41
0.000000
  0
VERTEX
  8
0
  6
CONTINUOUS
 10
6.930000
 20
1.471800
  0
VERTEX
  8
0
  6
CONTINUOUS
 10
7.563600
 20
1.849320
  0
VERTEX
  8
0
  6
CONTINUOUS
 10
7.565800
 20
1.763080
  0
VERTEX
  8
0
  6
CONTINUOUS
 10
6.932200
 20
1.385560
  0
VERTEX
  8
0
  6
CONTINUOUS
 10
6.930000
 20
1.471800
  0
SEQEND
  8
0
  0
SOLID
  8
0
 62
    15
 10
6.932200
 20
1.385560
 11
7.565800
 21
1.763080
 12
6.933520
 22
1.304160
 13
7.567120
 23
1.681680
  0
POLYLINE
  8
0
  6
CONTINUOUS
 66
     1
 40
0.000000
 41
0.000000
  0
VERTEX
  8
0
  6
CONTINUOUS
 10
6.932200
 20
1.385560
  0
VERTEX
  8
0
  6
CONTINUOUS
 10
7.565800
 20
1.763080
  0
VERTEX
  8
0
  6
CONTINUOUS
 10
7.567120
 20
1.681680
  0
VERTEX
  8
0
  6
CONTINUOUS
 10
6.933520
 20
1.304160
  0
VERTEX
  8
0
  6
CONTINUOUS
 10
6.932200
 20
1.385560
  0
SEQEND
  8
0
  0
SOLID
  8
0
 62
    15
 10
6.933520
 20
1.304160
 11
7.567120
 21
1.681680
 12
6.934400
 22
1.228040
 13
7.567560
 23
1.605560
  0
POLYLINE
  8
0
  6
CONTINUOUS
 66
     1
 40
0.000000
 41
0.000000
  0
VERTEX
  8
0
  6
CONTINUOUS
 10
6.933520
 20
1.304160
  0
VERTEX
  8
0
  6
CONTINUOUS
 10
7.567120
 20
1.681680
  0
VERTEX
  8
0
  6
CONTINUOUS
 10
7.567560
 20
1.605560
  0
VERTEX
  8
0
  6
CONTINUOUS
 10
6.934400
 20
1.228040
  0
VERTEX
  8
0
  6
CONTINUOUS
 10
6.933520
 20
1.304160
  0
SEQEND
  8
0
  0
SOLID
  8
0
 62
    15
 10
6.934400
 20
1.228040
 11
7.567560
 21
1.605560
 12
6.934400
 22
1.157640
 13
7.567560
 23
1.535160
  0
POLYLINE
  8
0
  6
CONTINUOUS
 66
     1
 40
0.000000
 41
0.000000
  0
VERTEX
  8
0
  6
CONTINUOUS
 10
6.934400
 20
1.228040
  0
VERTEX
  8
0
  6
CONTINUOUS
 10
7.567560
 20
1.605560
  0
VERTEX
  8
0
  6
CONTINUOUS
 10
7.567560
 20
1.535160
  0
VERTEX
  8
0
  6
CONTINUOUS
 10
6.934400
 20
1.157640
  0
VERTEX
  8
0
  6
CONTINUOUS
 10
6.934400
 20
1.228040
  0
SEQEND
  8
0
  0
SOLID
  8
0
 62
    15
 10
6.934400
 20
1.157640
 11
7.567560
 21
1.535160
 12
6.933960
 22
1.094280
 13
7.567560
 23
1.471800
  0
POLYLINE
  8
0
  6
CONTINUOUS
 66
     1
 40
0.000000
 41
0.000000
  0
VERTEX
  8
0
  6
CONTINUOUS
 10
6.934400
 20
1.157640
  0
VERTEX
  8
0
  6
CONTINUOUS
 10
7.567560
 20
1.535160
  0
VERTEX
  8
0
  6
CONTINUOUS
 10
7.567560
 20
1.471800
  0
VERTEX
  8
0
  6
CONTINUOUS
 10
6.933960
 20
1.094280
  0
VERTEX
  8
0
  6
CONTINUOUS
 10
6.934400
 20
1.157640
  0
SEQEND
  8
0
  0
SOLID
  8
0
 62
    15
 10
6.933960
 20
1.094280
 11
7.567560
 21
1.471800
 12
6.933080
 22
1.037960
 13
7.566680
 23
1.415480
  0
POLYLINE
  8
0
  6
CONTINUOUS
 66
     1
 40
0.000000
 41
0.000000
  0
VERTEX
  8
0
  6
CONTINUOUS
 10
6.933960
 20
1.094280
  0
VERTEX
  8
0
  6
CONTINUOUS
 10
7.567560
 20
1.471800
  0
VERTEX
  8
0
  6
CONTINUOUS
 10
7.566680
 20
1.415480
  0
VERTEX
  8
0
  6
CONTINUOUS
 10
6.933080
 20
1.037960
  0
VERTEX
  8
0
  6
CONTINUOUS
 10
6.933960
 20
1.094280
  0
SEQEND
  8
0
  0
SOLID
  8
0
 62
    15
 10
6.933080
 20
1.037960
 11
7.566680
 21
1.415480
 12
6.932200
 22
0.989560
 13
7.565800
 23
1.367080
  0
POLYLINE
  8
0
  6
CONTINUOUS
 66
     1
 40
0.000000
 41
0.000000
  0
VERTEX
  8
0
  6
CONTINUOUS
 10
6.933080
 20
1.037960
  0
VERTEX
  8
0
  6
CONTINUOUS
 10
7.566680
 20
1.415480
  0
VERTEX
  8
0
  6
CONTINUOUS
 10
7.565800
 20
1.367080
  0
VERTEX
  8
0
  6
CONTINUOUS
 10
6.932200
 20
0.989560
  0
VERTEX
  8
0
  6
CONTINUOUS
 10
6.933080
 20
1.037960
  0
SEQEND
  8
0
  0
SOLID
  8
0
 62
    15
 10
6.932200
 20
0.989560
 11
7.565800
 21
1.367080
 12
6.931320
 22
0.949960
 13
7.564920
 23
1.327480
  0
POLYLINE
  8
0
  6
CONTINUOUS
 66
     1
 40
0.000000
 41
0.000000
  0
VERTEX
  8
0
  6
CONTINUOUS
 10
6.932200
 20
0.989560
  0
VERTEX
  8
0
  6
CONTINUOUS
 10
7.565800
 20
1.367080
  0
VERTEX
  8
0
  6
CONTINUOUS
 10
7.564920
 20
1.327480
  0
VERTEX
  8
0
  6
CONTINUOUS
 10
6.931320
 20
0.949960
  0
VERTEX
  8
0
  6
CONTINUOUS
 10
6.932200
 20
0.989560
  0
SEQEND
  8
0
  0
SOLID
  8
0
 62
    15
 10
6.931320
 20
0.949960
 11
7.564920
 21
1.327480
 12
6.930000
 22
0.898480
 13
7.563600
 23
1.276000
  0
POLYLINE
  8
0
  6
CONTINUOUS
 66
     1
 40
0.000000
 41
0.000000
  0
VERTEX
  8
0
  6
CONTINUOUS
 10
6.931320
 20
0.949960
  0
VERTEX
  8
0
  6
CONTINUOUS
 10
7.564920
 20
1.327480
  0
VERTEX
  8
0
  6
CONTINUOUS
 10
7.563600
 20
1.276000
  0
VERTEX
  8
0
  6
CONTINUOUS
 10
6.930000
 20
0.898480
  0
VERTEX
  8
0
  6
CONTINUOUS
 10
6.931320
 20
0.949960
  0
SEQEND
  8
0
  0
SOLID
  8
0
 62
    15
 10
6.930000
 20
0.898480
 11
7.563600
 21
1.276000
 12
6.930000
 22
0.888360
 13
7.563600
 23
1.265880
  0
POLYLINE
  8
0
  6
CONTINUOUS
 66
     1
 40
0.000000
 41
0.000000
  0
VERTEX
  8
0
  6
CONTINUOUS
 10
6.930000
 20
0.898480
  0
VERTEX
  8
0
  6
CONTINUOUS
 10
7.563600
 20
1.276000
  0
VERTEX
  8
0
  6
CONTINUOUS
 10
7.563600
 20
1.265880
  0
VERTEX
  8
0
  6
CONTINUOUS
 10
6.930000
 20
0.888360
  0
VERTEX
  8
0
  6
CONTINUOUS
 10
6.930000
 20
0.898480
  0
SEQEND
  8
0
  0
POLYLINE
  8
0
  6
CONTINUOUS
 66
     1
 40
0.000000
 41
0.000000
  0
VERTEX
  8
0
  6
CONTINUOUS
 10
6.927360
 20
0.888360
  0
VERTEX
  8
0
  6
CONTINUOUS
 10
6.310040
 20
0.888360
  0
VERTEX
  8
0
  6
CONTINUOUS
 10
6.311360
 20
3.610640
  0
VERTEX
  8
0
  6
CONTINUOUS
 10
6.463160
 20
3.610640
  0
VERTEX
  8
0
  6
CONTINUOUS
 10
6.463160
 20
3.223000
  0
VERTEX
  8
0
  6
CONTINUOUS
 10
6.512880
 20
3.187360
  0
VERTEX
  8
0
  6
CONTINUOUS
 10
6.559080
 20
3.142920
  0
VERTEX
  8
0
  6
CONTINUOUS
 10
6.601760
 20
3.090120
  0
VERTEX
  8
0
  6
CONTINUOUS
 10
6.640920
 20
3.029840
  0
VERTEX
  8
0
  6
CONTINUOUS
 10
6.677000
 20
2.962520
  0
VERTEX
  8
0
  6
CONTINUOUS
 10
6.710440
 20
2.889040
  0
VERTEX
  8
0
  6
CONTINUOUS
 10
6.740360
 20
2.809840
  0
VERTEX
  8
0
  6
CONTINUOUS
 10
6.768080
 20
2.725800
  0
VERTEX
  8
0
  6
CONTINUOUS
 10
6.792720
 20
2.637360
  0
VERTEX
  8
0
  6
CONTINUOUS
 10
6.814720
 20
2.544960
  0
VERTEX
  8
0
  6
CONTINUOUS
 10
6.834520
 20
2.449920
  0
VERTEX
  8
0
  6
CONTINUOUS
 10
6.852120
 20
2.352240
  0
VERTEX
  8
0
  6
CONTINUOUS
 10
6.881160
 20
2.152480
  0
VERTEX
  8
0
  6
CONTINUOUS
 10
6.902720
 20
1.950520
  0
VERTEX
  8
0
  6
CONTINUOUS
 10
6.917680
 20
1.752080
  0
VERTEX
  8
0
  6
CONTINUOUS
 10
6.922960
 20
1.655720
  0
VERTEX
  8
0
  6
CONTINUOUS
 10
6.926920
 20
1.562000
  0
VERTEX
  8
0
  6
CONTINUOUS
 10
6.930000
 20
1.471800
  0
VERTEX
  8
0
  6
CONTINUOUS
 10
6.932200
 20
1.385560
  0
VERTEX
  8
0
  6
CONTINUOUS
 10
6.933520
 20
1.304160
  0
VERTEX
  8
0
  6
CONTINUOUS
 10
6.934400
 20
1.228040
  0
VERTEX
  8
0
  6
CONTINUOUS
 10
6.934400
 20
1.157640
  0
VERTEX
  8
0
  6
CONTINUOUS
 10
6.933960
 20
1.094280
  0
VERTEX
  8
0
  6
CONTINUOUS
 10
6.933080
 20
1.037960
  0
VERTEX
  8
0
  6
CONTINUOUS
 10
6.932200
 20
0.989560
  0
VERTEX
  8
0
  6
CONTINUOUS
 10
6.931320
 20
0.949960
  0
VERTEX
  8
0
  6
CONTINUOUS
 10
6.930000
 20
0.898480
  0
VERTEX
  8
0
  6
CONTINUOUS
 10
6.930000
 20
0.888360
  0
VERTEX
  8
0
  6
CONTINUOUS
 10
6.927360
 20
0.888360
  0
SEQEND
  8
0
  0
TEXT
  8
0
 10
6.643120
 20
0.602800
 40
0.138022
  1
BA  270
 41
1.000000
  7
SN0
 71
     0
 72
     5
 11
7.233577
 21
0.602800
  0
TEXT
  8
0
 10
6.487360
 20
0.410960
 40
0.138022
  1
5/8" x 2-3/4"
 41
1.000000
  7
SN0
 71
     0
 72
     5
 11
7.388857
 21
0.410960
  0
TEXT
  8
0
 10
7.710120
 20
4.936360
 40
0.138022
  1
base
 41
1.000000
  7
SN0
 71
     0
 72
     5
 11
8.070247
 21
4.936360
  0
TEXT
  8
0
 10
7.751920
 20
4.744520
 40
0.138022
  1
270
 41
1.000000
  7
SN0
 71
     0
 72
     5
 11
8.028977
 21
4.744520
  0
ENDSEC
  0
EOF
