  0
SECTION
  2
HEADER
  9
$ACADVER
  1
AC1006
  9
$EXTMIN
 10
1.965040
 20
2.368080
  9
$EXTMAX
 10
6.534440
 20
8.631480
  9
$LTSCALE
 40
0.044000
  9
$PDMODE
 70
    35
  9
$PDSIZE
 40
0.035200
  0
ENDSEC
  0
SECTION
  2
TABLES
  0
TABLE
  2
LTYPE
 70
     9
  0
LTYPE
  2
CONTINUOUS
 70
    64
  3
Solid line
 72
    65
 73
     0
 40
0.000000
  0
LTYPE
  2
DASHED
 70
    64
  3
__ __ __ __ __ __ __ __ __ __ __ __ __ __ __
 72
    65
 73
     2
 40
0.000330
 49
0.000220
 49
-0.000110
  0
LTYPE
  2
HIDDEN
 70
    64
  3
 _ _ _ _ _ _ _ _ _ _ _ _ _ _ _ _ _ _ _ _ _ _
 72
    65
 73
     2
 40
0.000165
 49
0.000110
 49
-0.000055
  0
LTYPE
  2
CENTER
 70
    64
  3
____ _ ____ _ ____ _ ____ _ ____ _ ____ _ ____
 72
    65
 73
     4
 40
0.000880
 49
0.000550
 49
-0.000110
 49
0.000110
 49
-0.000110
  0
LTYPE
  2
PHANTOM
 70
    64
  3
_____ _ _ _____ _ _ _____ _ _ _____ _ _ ____
 72
    65
 73
     6
 40
0.001100
 49
0.000550
 49
-0.000110
 49
0.000110
 49
-0.000110
 49
0.000110
 49
-0.000110
  0
LTYPE
  2
DOT
 70
    64
  3
...............................................
 72
    65
 73
     2
 40
0.000110
 49
0.000000
 49
-0.000110
  0
LTYPE
  2
DASHDOT
 70
    64
  3
__ . __ . __ . __ . __ . __ . __ . __ . __ . __
 72
    65
 73
     4
 40
0.000440
 49
0.000220
 49
-0.000110
 49
0.000000
 49
-0.000110
  0
LTYPE
  2
BORDER
 70
    64
  3
__ __ . __ __ . __ __ . __ __ . __ __ . __ __
 72
    65
 73
     6
 40
0.000770
 49
0.000220
 49
-0.000110
 49
0.000220
 49
-0.000110
 49
0.000000
 49
-0.000110
  0
LTYPE
  2
DIVIDE
 70
    64
  3
__ . . __ . . __ . . __ . . __ . . __ . . __
 72
    65
 73
     6
 40
0.000550
 49
0.000220
 49
-0.000110
 49
0.000000
 49
-0.000110
 49
0.000000
 49
-0.000110
  0
LTYPE
  2
DOTDOT
 70
    64
  3
 . .  . .  . .  . .  . .  . . 
 72
    65
 73
     5
 40
0.000242
 49
-0.000110
 49
0.000000
 49
-0.000110
 49
0.000000
 49
-0.000110
  0
ENDTAB
  0
TABLE
  2
STYLE
 70
     2
  0
STYLE
 70
     0
  2
SN0
 40
0.000000
 41
0.000440
 50
0.000000
 71
     0
 42
0.000000
  3
ROMAND
  0
STYLE
 70
    68
  2
SV0
 40
0.000000
 41
0.000440
 50
0.000000
 71
     0
 42
0.000000
  3
ROMAND
  0
ENDTAB
  0
TABLE
  2
LAYER
 70
     3
  0
LAYER
  2
FOREGROUND
 70
    64
 62
     7
  6
CONTINUOUS
  0
LAYER
  2
BACKGROUND
 70
    65
 62
    -7
  6
CONTINUOUS
  0
LAYER
  2
0
 70
    64
 62
     7
  6
CONTINUOUS
  0
ENDTAB
  0
ENDSEC
  0
SECTION
  2
ENTITIES
  0
POLYLINE
  8
FOREGROUND
  6
CONTINUOUS
 66
     1
 40
0.000000
 41
0.000000
  0
VERTEX
  8
FOREGROUND
  6
CONTINUOUS
 10
0.000000
 20
10.999560
  0
VERTEX
  8
FOREGROUND
  6
CONTINUOUS
 10
8.499920
 20
10.999560
  0
VERTEX
  8
FOREGROUND
  6
CONTINUOUS
 10
8.499920
 20
-0.000440
  0
VERTEX
  8
FOREGROUND
  6
CONTINUOUS
 10
0.000000
 20
-0.000440
  0
VERTEX
  8
FOREGROUND
  6
CONTINUOUS
 10
0.000000
 20
10.999560
  0
SEQEND
  8
0
  0
POLYLINE
  8
FOREGROUND
  6
CONTINUOUS
 66
     1
 40
0.000000
 41
0.000000
  0
VERTEX
  8
FOREGROUND
  6
CONTINUOUS
 10
0.000000
 20
10.999560
  0
VERTEX
  8
FOREGROUND
  6
CONTINUOUS
 10
8.499920
 20
10.999560
  0
VERTEX
  8
FOREGROUND
  6
CONTINUOUS
 10
8.499920
 20
-0.000440
  0
VERTEX
  8
FOREGROUND
  6
CONTINUOUS
 10
0.000000
 20
-0.000440
  0
VERTEX
  8
FOREGROUND
  6
CONTINUOUS
 10
0.000000
 20
10.999560
  0
SEQEND
  8
0
  0
SOLID
  8
0
 62
    15
 10
2.856480
 20
4.747600
 11
3.506800
 21
5.118520
 12
2.832720
 22
4.687760
 13
3.483040
 23
5.058680
  0
POLYLINE
  8
0
  6
CONTINUOUS
 66
     1
 40
0.000000
 41
0.000000
  0
VERTEX
  8
0
  6
CONTINUOUS
 10
2.856480
 20
4.747600
  0
VERTEX
  8
0
  6
CONTINUOUS
 10
3.506800
 20
5.118520
  0
VERTEX
  8
0
  6
CONTINUOUS
 10
3.483040
 20
5.058680
  0
VERTEX
  8
0
  6
CONTINUOUS
 10
2.832720
 20
4.687760
  0
VERTEX
  8
0
  6
CONTINUOUS
 10
2.856480
 20
4.747600
  0
SEQEND
  8
0
  0
SOLID
  8
0
 62
    15
 10
1.992320
 20
6.958160
 11
2.642200
 21
7.329080
 12
2.934800
 22
6.958160
 13
3.584680
 23
7.329080
  0
POLYLINE
  8
0
  6
CONTINUOUS
 66
     1
 40
0.000000
 41
0.000000
  0
VERTEX
  8
0
  6
CONTINUOUS
 10
1.992320
 20
6.958160
  0
VERTEX
  8
0
  6
CONTINUOUS
 10
2.642200
 20
7.329080
  0
VERTEX
  8
0
  6
CONTINUOUS
 10
3.584680
 20
7.329080
  0
VERTEX
  8
0
  6
CONTINUOUS
 10
2.934800
 20
6.958160
  0
VERTEX
  8
0
  6
CONTINUOUS
 10
1.992320
 20
6.958160
  0
SEQEND
  8
0
  0
SOLID
  8
0
 62
    15
 10
2.556840
 20
5.611760
 11
3.207160
 21
5.982680
 12
2.533080
 22
5.586680
 13
3.182960
 23
5.957600
  0
POLYLINE
  8
0
  6
CONTINUOUS
 66
     1
 40
0.000000
 41
0.000000
  0
VERTEX
  8
0
  6
CONTINUOUS
 10
2.556840
 20
5.611760
  0
VERTEX
  8
0
  6
CONTINUOUS
 10
3.207160
 20
5.982680
  0
VERTEX
  8
0
  6
CONTINUOUS
 10
3.182960
 20
5.957600
  0
VERTEX
  8
0
  6
CONTINUOUS
 10
2.533080
 20
5.586680
  0
VERTEX
  8
0
  6
CONTINUOUS
 10
2.556840
 20
5.611760
  0
SEQEND
  8
0
  0
SOLID
  8
0
 62
    15
 10
2.533080
 20
5.586680
 11
3.182960
 21
5.957600
 12
2.525600
 22
5.569080
 13
3.175480
 23
5.940000
  0
POLYLINE
  8
0
  6
CONTINUOUS
 66
     1
 40
0.000000
 41
0.000000
  0
VERTEX
  8
0
  6
CONTINUOUS
 10
2.533080
 20
5.586680
  0
VERTEX
  8
0
  6
CONTINUOUS
 10
3.182960
 20
5.957600
  0
VERTEX
  8
0
  6
CONTINUOUS
 10
3.175480
 20
5.940000
  0
VERTEX
  8
0
  6
CONTINUOUS
 10
2.525600
 20
5.569080
  0
VERTEX
  8
0
  6
CONTINUOUS
 10
2.533080
 20
5.586680
  0
SEQEND
  8
0
  0
SOLID
  8
0
 62
    15
 10
2.525600
 20
5.569080
 11
3.175480
 21
5.940000
 12
2.522960
 22
5.547520
 13
3.172840
 23
5.918440
  0
POLYLINE
  8
0
  6
CONTINUOUS
 66
     1
 40
0.000000
 41
0.000000
  0
VERTEX
  8
0
  6
CONTINUOUS
 10
2.525600
 20
5.569080
  0
VERTEX
  8
0
  6
CONTINUOUS
 10
3.175480
 20
5.940000
  0
VERTEX
  8
0
  6
CONTINUOUS
 10
3.172840
 20
5.918440
  0
VERTEX
  8
0
  6
CONTINUOUS
 10
2.522960
 20
5.547520
  0
VERTEX
  8
0
  6
CONTINUOUS
 10
2.525600
 20
5.569080
  0
SEQEND
  8
0
  0
SOLID
  8
0
 62
    15
 10
2.522960
 20
5.547520
 11
3.172840
 21
5.918440
 12
2.523840
 22
5.526400
 13
3.173720
 23
5.897320
  0
POLYLINE
  8
0
  6
CONTINUOUS
 66
     1
 40
0.000000
 41
0.000000
  0
VERTEX
  8
0
  6
CONTINUOUS
 10
2.522960
 20
5.547520
  0
VERTEX
  8
0
  6
CONTINUOUS
 10
3.172840
 20
5.918440
  0
VERTEX
  8
0
  6
CONTINUOUS
 10
3.173720
 20
5.897320
  0
VERTEX
  8
0
  6
CONTINUOUS
 10
2.523840
 20
5.526400
  0
VERTEX
  8
0
  6
CONTINUOUS
 10
2.522960
 20
5.547520
  0
SEQEND
  8
0
  0
SOLID
  8
0
 62
    15
 10
2.523840
 20
5.526400
 11
3.173720
 21
5.897320
 12
2.526920
 22
5.509240
 13
3.176800
 23
5.880160
  0
POLYLINE
  8
0
  6
CONTINUOUS
 66
     1
 40
0.000000
 41
0.000000
  0
VERTEX
  8
0
  6
CONTINUOUS
 10
2.523840
 20
5.526400
  0
VERTEX
  8
0
  6
CONTINUOUS
 10
3.173720
 20
5.897320
  0
VERTEX
  8
0
  6
CONTINUOUS
 10
3.176800
 20
5.880160
  0
VERTEX
  8
0
  6
CONTINUOUS
 10
2.526920
 20
5.509240
  0
VERTEX
  8
0
  6
CONTINUOUS
 10
2.523840
 20
5.526400
  0
SEQEND
  8
0
  0
SOLID
  8
0
 62
    15
 10
2.526920
 20
5.509240
 11
3.176800
 21
5.880160
 12
2.542320
 22
5.484600
 13
3.192200
 23
5.855520
  0
POLYLINE
  8
0
  6
CONTINUOUS
 66
     1
 40
0.000000
 41
0.000000
  0
VERTEX
  8
0
  6
CONTINUOUS
 10
2.526920
 20
5.509240
  0
VERTEX
  8
0
  6
CONTINUOUS
 10
3.176800
 20
5.880160
  0
VERTEX
  8
0
  6
CONTINUOUS
 10
3.192200
 20
5.855520
  0
VERTEX
  8
0
  6
CONTINUOUS
 10
2.542320
 20
5.484600
  0
VERTEX
  8
0
  6
CONTINUOUS
 10
2.526920
 20
5.509240
  0
SEQEND
  8
0
  0
SOLID
  8
0
 62
    15
 10
2.542320
 20
5.484600
 11
3.192200
 21
5.855520
 12
2.555960
 22
5.474920
 13
3.205840
 23
5.845840
  0
POLYLINE
  8
0
  6
CONTINUOUS
 66
     1
 40
0.000000
 41
0.000000
  0
VERTEX
  8
0
  6
CONTINUOUS
 10
2.542320
 20
5.484600
  0
VERTEX
  8
0
  6
CONTINUOUS
 10
3.192200
 20
5.855520
  0
VERTEX
  8
0
  6
CONTINUOUS
 10
3.205840
 20
5.845840
  0
VERTEX
  8
0
  6
CONTINUOUS
 10
2.555960
 20
5.474920
  0
VERTEX
  8
0
  6
CONTINUOUS
 10
2.542320
 20
5.484600
  0
SEQEND
  8
0
  0
SOLID
  8
0
 62
    15
 10
2.555960
 20
5.474920
 11
3.205840
 21
5.845840
 12
2.574000
 22
5.466120
 13
3.223880
 23
5.837040
  0
POLYLINE
  8
0
  6
CONTINUOUS
 66
     1
 40
0.000000
 41
0.000000
  0
VERTEX
  8
0
  6
CONTINUOUS
 10
2.555960
 20
5.474920
  0
VERTEX
  8
0
  6
CONTINUOUS
 10
3.205840
 20
5.845840
  0
VERTEX
  8
0
  6
CONTINUOUS
 10
3.223880
 20
5.837040
  0
VERTEX
  8
0
  6
CONTINUOUS
 10
2.574000
 20
5.466120
  0
VERTEX
  8
0
  6
CONTINUOUS
 10
2.555960
 20
5.474920
  0
SEQEND
  8
0
  0
SOLID
  8
0
 62
    15
 10
2.574000
 20
5.466120
 11
3.223880
 21
5.837040
 12
2.597320
 22
5.457320
 13
3.247640
 23
5.828240
  0
POLYLINE
  8
0
  6
CONTINUOUS
 66
     1
 40
0.000000
 41
0.000000
  0
VERTEX
  8
0
  6
CONTINUOUS
 10
2.574000
 20
5.466120
  0
VERTEX
  8
0
  6
CONTINUOUS
 10
3.223880
 20
5.837040
  0
VERTEX
  8
0
  6
CONTINUOUS
 10
3.247640
 20
5.828240
  0
VERTEX
  8
0
  6
CONTINUOUS
 10
2.597320
 20
5.457320
  0
VERTEX
  8
0
  6
CONTINUOUS
 10
2.574000
 20
5.466120
  0
SEQEND
  8
0
  0
SOLID
  8
0
 62
    15
 10
2.597320
 20
5.457320
 11
3.247640
 21
5.828240
 12
2.626800
 22
5.447640
 13
3.276680
 23
5.818560
  0
POLYLINE
  8
0
  6
CONTINUOUS
 66
     1
 40
0.000000
 41
0.000000
  0
VERTEX
  8
0
  6
CONTINUOUS
 10
2.597320
 20
5.457320
  0
VERTEX
  8
0
  6
CONTINUOUS
 10
3.247640
 20
5.828240
  0
VERTEX
  8
0
  6
CONTINUOUS
 10
3.276680
 20
5.818560
  0
VERTEX
  8
0
  6
CONTINUOUS
 10
2.626800
 20
5.447640
  0
VERTEX
  8
0
  6
CONTINUOUS
 10
2.597320
 20
5.457320
  0
SEQEND
  8
0
  0
SOLID
  8
0
 62
    15
 10
2.934800
 20
6.958160
 11
3.584680
 21
7.329080
 12
2.934800
 22
5.635520
 13
3.584680
 23
6.006440
  0
POLYLINE
  8
0
  6
CONTINUOUS
 66
     1
 40
0.000000
 41
0.000000
  0
VERTEX
  8
0
  6
CONTINUOUS
 10
2.934800
 20
6.958160
  0
VERTEX
  8
0
  6
CONTINUOUS
 10
3.584680
 20
7.329080
  0
VERTEX
  8
0
  6
CONTINUOUS
 10
3.584680
 20
6.006440
  0
VERTEX
  8
0
  6
CONTINUOUS
 10
2.934800
 20
5.635520
  0
VERTEX
  8
0
  6
CONTINUOUS
 10
2.934800
 20
6.958160
  0
SEQEND
  8
0
  0
SOLID
  8
0
 62
    15
 10
2.626800
 20
5.447640
 11
3.276680
 21
5.818560
 12
2.626800
 22
5.446320
 13
3.276680
 23
5.817240
  0
POLYLINE
  8
0
  6
CONTINUOUS
 66
     1
 40
0.000000
 41
0.000000
  0
VERTEX
  8
0
  6
CONTINUOUS
 10
2.626800
 20
5.447640
  0
VERTEX
  8
0
  6
CONTINUOUS
 10
3.276680
 20
5.818560
  0
VERTEX
  8
0
  6
CONTINUOUS
 10
3.276680
 20
5.817240
  0
VERTEX
  8
0
  6
CONTINUOUS
 10
2.626800
 20
5.446320
  0
VERTEX
  8
0
  6
CONTINUOUS
 10
2.626800
 20
5.447640
  0
SEQEND
  8
0
  0
SOLID
  8
0
 62
    15
 10
2.626800
 20
5.446320
 11
3.276680
 21
5.817240
 12
2.674320
 22
5.434000
 13
3.324200
 23
5.804920
  0
POLYLINE
  8
0
  6
CONTINUOUS
 66
     1
 40
0.000000
 41
0.000000
  0
VERTEX
  8
0
  6
CONTINUOUS
 10
2.626800
 20
5.446320
  0
VERTEX
  8
0
  6
CONTINUOUS
 10
3.276680
 20
5.817240
  0
VERTEX
  8
0
  6
CONTINUOUS
 10
3.324200
 20
5.804920
  0
VERTEX
  8
0
  6
CONTINUOUS
 10
2.674320
 20
5.434000
  0
VERTEX
  8
0
  6
CONTINUOUS
 10
2.626800
 20
5.446320
  0
SEQEND
  8
0
  0
SOLID
  8
0
 62
    15
 10
2.674320
 20
5.434000
 11
3.324200
 21
5.804920
 12
2.720960
 22
5.416400
 13
3.370840
 23
5.787320
  0
POLYLINE
  8
0
  6
CONTINUOUS
 66
     1
 40
0.000000
 41
0.000000
  0
VERTEX
  8
0
  6
CONTINUOUS
 10
2.674320
 20
5.434000
  0
VERTEX
  8
0
  6
CONTINUOUS
 10
3.324200
 20
5.804920
  0
VERTEX
  8
0
  6
CONTINUOUS
 10
3.370840
 20
5.787320
  0
VERTEX
  8
0
  6
CONTINUOUS
 10
2.720960
 20
5.416400
  0
VERTEX
  8
0
  6
CONTINUOUS
 10
2.674320
 20
5.434000
  0
SEQEND
  8
0
  0
SOLID
  8
0
 62
    15
 10
2.720960
 20
5.416400
 11
3.370840
 21
5.787320
 12
2.765840
 22
5.392200
 13
3.416160
 23
5.763120
  0
POLYLINE
  8
0
  6
CONTINUOUS
 66
     1
 40
0.000000
 41
0.000000
  0
VERTEX
  8
0
  6
CONTINUOUS
 10
2.720960
 20
5.416400
  0
VERTEX
  8
0
  6
CONTINUOUS
 10
3.370840
 20
5.787320
  0
VERTEX
  8
0
  6
CONTINUOUS
 10
3.416160
 20
5.763120
  0
VERTEX
  8
0
  6
CONTINUOUS
 10
2.765840
 20
5.392200
  0
VERTEX
  8
0
  6
CONTINUOUS
 10
2.720960
 20
5.416400
  0
SEQEND
  8
0
  0
SOLID
  8
0
 62
    15
 10
2.765840
 20
5.392200
 11
3.416160
 21
5.763120
 12
2.807640
 22
5.361400
 13
3.457960
 23
5.732320
  0
POLYLINE
  8
0
  6
CONTINUOUS
 66
     1
 40
0.000000
 41
0.000000
  0
VERTEX
  8
0
  6
CONTINUOUS
 10
2.765840
 20
5.392200
  0
VERTEX
  8
0
  6
CONTINUOUS
 10
3.416160
 20
5.763120
  0
VERTEX
  8
0
  6
CONTINUOUS
 10
3.457960
 20
5.732320
  0
VERTEX
  8
0
  6
CONTINUOUS
 10
2.807640
 20
5.361400
  0
VERTEX
  8
0
  6
CONTINUOUS
 10
2.765840
 20
5.392200
  0
SEQEND
  8
0
  0
SOLID
  8
0
 62
    15
 10
2.807640
 20
5.361400
 11
3.457960
 21
5.732320
 12
2.845040
 22
5.323120
 13
3.495360
 23
5.694480
  0
POLYLINE
  8
0
  6
CONTINUOUS
 66
     1
 40
0.000000
 41
0.000000
  0
VERTEX
  8
0
  6
CONTINUOUS
 10
2.807640
 20
5.361400
  0
VERTEX
  8
0
  6
CONTINUOUS
 10
3.457960
 20
5.732320
  0
VERTEX
  8
0
  6
CONTINUOUS
 10
3.495360
 20
5.694480
  0
VERTEX
  8
0
  6
CONTINUOUS
 10
2.845040
 20
5.323120
  0
VERTEX
  8
0
  6
CONTINUOUS
 10
2.807640
 20
5.361400
  0
SEQEND
  8
0
  0
SOLID
  8
0
 62
    15
 10
2.845040
 20
5.323120
 11
3.495360
 21
5.694480
 12
2.876720
 22
5.277360
 13
3.527040
 23
5.648280
  0
POLYLINE
  8
0
  6
CONTINUOUS
 66
     1
 40
0.000000
 41
0.000000
  0
VERTEX
  8
0
  6
CONTINUOUS
 10
2.845040
 20
5.323120
  0
VERTEX
  8
0
  6
CONTINUOUS
 10
3.495360
 20
5.694480
  0
VERTEX
  8
0
  6
CONTINUOUS
 10
3.527040
 20
5.648280
  0
VERTEX
  8
0
  6
CONTINUOUS
 10
2.876720
 20
5.277360
  0
VERTEX
  8
0
  6
CONTINUOUS
 10
2.845040
 20
5.323120
  0
SEQEND
  8
0
  0
SOLID
  8
0
 62
    15
 10
2.876720
 20
5.277360
 11
3.527040
 21
5.648280
 12
2.901800
 22
5.222800
 13
3.551680
 23
5.593720
  0
POLYLINE
  8
0
  6
CONTINUOUS
 66
     1
 40
0.000000
 41
0.000000
  0
VERTEX
  8
0
  6
CONTINUOUS
 10
2.876720
 20
5.277360
  0
VERTEX
  8
0
  6
CONTINUOUS
 10
3.527040
 20
5.648280
  0
VERTEX
  8
0
  6
CONTINUOUS
 10
3.551680
 20
5.593720
  0
VERTEX
  8
0
  6
CONTINUOUS
 10
2.901800
 20
5.222800
  0
VERTEX
  8
0
  6
CONTINUOUS
 10
2.876720
 20
5.277360
  0
SEQEND
  8
0
  0
SOLID
  8
0
 62
    15
 10
2.901800
 20
5.222800
 11
3.551680
 21
5.593720
 12
2.918080
 22
5.159440
 13
3.568400
 23
5.530360
  0
POLYLINE
  8
0
  6
CONTINUOUS
 66
     1
 40
0.000000
 41
0.000000
  0
VERTEX
  8
0
  6
CONTINUOUS
 10
2.901800
 20
5.222800
  0
VERTEX
  8
0
  6
CONTINUOUS
 10
3.551680
 20
5.593720
  0
VERTEX
  8
0
  6
CONTINUOUS
 10
3.568400
 20
5.530360
  0
VERTEX
  8
0
  6
CONTINUOUS
 10
2.918080
 20
5.159440
  0
VERTEX
  8
0
  6
CONTINUOUS
 10
2.901800
 20
5.222800
  0
SEQEND
  8
0
  0
SOLID
  8
0
 62
    15
 10
2.918080
 20
5.159440
 11
3.568400
 21
5.530360
 12
2.925120
 22
5.086400
 13
3.575000
 23
5.457320
  0
POLYLINE
  8
0
  6
CONTINUOUS
 66
     1
 40
0.000000
 41
0.000000
  0
VERTEX
  8
0
  6
CONTINUOUS
 10
2.918080
 20
5.159440
  0
VERTEX
  8
0
  6
CONTINUOUS
 10
3.568400
 20
5.530360
  0
VERTEX
  8
0
  6
CONTINUOUS
 10
3.575000
 20
5.457320
  0
VERTEX
  8
0
  6
CONTINUOUS
 10
2.925120
 20
5.086400
  0
VERTEX
  8
0
  6
CONTINUOUS
 10
2.918080
 20
5.159440
  0
SEQEND
  8
0
  0
SOLID
  8
0
 62
    15
 10
2.925120
 20
5.086400
 11
3.575000
 21
5.457320
 12
2.921600
 22
5.003240
 13
3.571480
 23
5.374160
  0
POLYLINE
  8
0
  6
CONTINUOUS
 66
     1
 40
0.000000
 41
0.000000
  0
VERTEX
  8
0
  6
CONTINUOUS
 10
2.925120
 20
5.086400
  0
VERTEX
  8
0
  6
CONTINUOUS
 10
3.575000
 20
5.457320
  0
VERTEX
  8
0
  6
CONTINUOUS
 10
3.571480
 20
5.374160
  0
VERTEX
  8
0
  6
CONTINUOUS
 10
2.921600
 20
5.003240
  0
VERTEX
  8
0
  6
CONTINUOUS
 10
2.925120
 20
5.086400
  0
SEQEND
  8
0
  0
SOLID
  8
0
 62
    15
 10
2.921600
 20
5.003240
 11
3.571480
 21
5.374160
 12
2.905760
 22
4.909520
 13
3.555640
 23
5.280440
  0
POLYLINE
  8
0
  6
CONTINUOUS
 66
     1
 40
0.000000
 41
0.000000
  0
VERTEX
  8
0
  6
CONTINUOUS
 10
2.921600
 20
5.003240
  0
VERTEX
  8
0
  6
CONTINUOUS
 10
3.571480
 20
5.374160
  0
VERTEX
  8
0
  6
CONTINUOUS
 10
3.555640
 20
5.280440
  0
VERTEX
  8
0
  6
CONTINUOUS
 10
2.905760
 20
4.909520
  0
VERTEX
  8
0
  6
CONTINUOUS
 10
2.921600
 20
5.003240
  0
SEQEND
  8
0
  0
SOLID
  8
0
 62
    15
 10
2.905760
 20
4.909520
 11
3.555640
 21
5.280440
 12
2.893000
 22
4.858480
 13
3.542880
 23
5.229400
  0
POLYLINE
  8
0
  6
CONTINUOUS
 66
     1
 40
0.000000
 41
0.000000
  0
VERTEX
  8
0
  6
CONTINUOUS
 10
2.905760
 20
4.909520
  0
VERTEX
  8
0
  6
CONTINUOUS
 10
3.555640
 20
5.280440
  0
VERTEX
  8
0
  6
CONTINUOUS
 10
3.542880
 20
5.229400
  0
VERTEX
  8
0
  6
CONTINUOUS
 10
2.893000
 20
4.858480
  0
VERTEX
  8
0
  6
CONTINUOUS
 10
2.905760
 20
4.909520
  0
SEQEND
  8
0
  0
SOLID
  8
0
 62
    15
 10
2.893000
 20
4.858480
 11
3.542880
 21
5.229400
 12
2.876720
 22
4.804360
 13
3.526600
 23
5.175280
  0
POLYLINE
  8
0
  6
CONTINUOUS
 66
     1
 40
0.000000
 41
0.000000
  0
VERTEX
  8
0
  6
CONTINUOUS
 10
2.893000
 20
4.858480
  0
VERTEX
  8
0
  6
CONTINUOUS
 10
3.542880
 20
5.229400
  0
VERTEX
  8
0
  6
CONTINUOUS
 10
3.526600
 20
5.175280
  0
VERTEX
  8
0
  6
CONTINUOUS
 10
2.876720
 20
4.804360
  0
VERTEX
  8
0
  6
CONTINUOUS
 10
2.893000
 20
4.858480
  0
SEQEND
  8
0
  0
SOLID
  8
0
 62
    15
 10
2.876720
 20
4.804360
 11
3.526600
 21
5.175280
 12
2.856480
 22
4.747600
 13
3.506800
 23
5.118520
  0
POLYLINE
  8
0
  6
CONTINUOUS
 66
     1
 40
0.000000
 41
0.000000
  0
VERTEX
  8
0
  6
CONTINUOUS
 10
2.876720
 20
4.804360
  0
VERTEX
  8
0
  6
CONTINUOUS
 10
3.526600
 20
5.175280
  0
VERTEX
  8
0
  6
CONTINUOUS
 10
3.506800
 20
5.118520
  0
VERTEX
  8
0
  6
CONTINUOUS
 10
2.856480
 20
4.747600
  0
VERTEX
  8
0
  6
CONTINUOUS
 10
2.876720
 20
4.804360
  0
SEQEND
  8
0
  0
SOLID
  8
0
 62
    15
 10
2.489520
 20
3.031600
 11
3.139400
 21
3.402520
 12
2.281400
 22
2.403280
 13
2.931280
 23
2.774640
  0
POLYLINE
  8
0
  6
CONTINUOUS
 66
     1
 40
0.000000
 41
0.000000
  0
VERTEX
  8
0
  6
CONTINUOUS
 10
2.489520
 20
3.031600
  0
VERTEX
  8
0
  6
CONTINUOUS
 10
3.139400
 20
3.402520
  0
VERTEX
  8
0
  6
CONTINUOUS
 10
2.931280
 20
2.774640
  0
VERTEX
  8
0
  6
CONTINUOUS
 10
2.281400
 20
2.403280
  0
VERTEX
  8
0
  6
CONTINUOUS
 10
2.489520
 20
3.031600
  0
SEQEND
  8
0
  0
SOLID
  8
0
 62
    15
 10
2.832720
 20
4.687760
 11
3.483040
 21
5.058680
 12
2.805000
 22
4.624840
 13
3.455320
 23
4.995760
  0
POLYLINE
  8
0
  6
CONTINUOUS
 66
     1
 40
0.000000
 41
0.000000
  0
VERTEX
  8
0
  6
CONTINUOUS
 10
2.832720
 20
4.687760
  0
VERTEX
  8
0
  6
CONTINUOUS
 10
3.483040
 20
5.058680
  0
VERTEX
  8
0
  6
CONTINUOUS
 10
3.455320
 20
4.995760
  0
VERTEX
  8
0
  6
CONTINUOUS
 10
2.805000
 20
4.624840
  0
VERTEX
  8
0
  6
CONTINUOUS
 10
2.832720
 20
4.687760
  0
SEQEND
  8
0
  0
SOLID
  8
0
 62
    15
 10
2.805000
 20
4.624840
 11
3.455320
 21
4.995760
 12
2.773320
 22
4.558400
 13
3.423200
 23
4.929320
  0
POLYLINE
  8
0
  6
CONTINUOUS
 66
     1
 40
0.000000
 41
0.000000
  0
VERTEX
  8
0
  6
CONTINUOUS
 10
2.805000
 20
4.624840
  0
VERTEX
  8
0
  6
CONTINUOUS
 10
3.455320
 20
4.995760
  0
VERTEX
  8
0
  6
CONTINUOUS
 10
3.423200
 20
4.929320
  0
VERTEX
  8
0
  6
CONTINUOUS
 10
2.773320
 20
4.558400
  0
VERTEX
  8
0
  6
CONTINUOUS
 10
2.805000
 20
4.624840
  0
SEQEND
  8
0
  0
SOLID
  8
0
 62
    15
 10
2.773320
 20
4.558400
 11
3.423200
 21
4.929320
 12
2.737240
 22
4.488880
 13
3.387120
 23
4.860240
  0
POLYLINE
  8
0
  6
CONTINUOUS
 66
     1
 40
0.000000
 41
0.000000
  0
VERTEX
  8
0
  6
CONTINUOUS
 10
2.773320
 20
4.558400
  0
VERTEX
  8
0
  6
CONTINUOUS
 10
3.423200
 20
4.929320
  0
VERTEX
  8
0
  6
CONTINUOUS
 10
3.387120
 20
4.860240
  0
VERTEX
  8
0
  6
CONTINUOUS
 10
2.737240
 20
4.488880
  0
VERTEX
  8
0
  6
CONTINUOUS
 10
2.773320
 20
4.558400
  0
SEQEND
  8
0
  0
SOLID
  8
0
 62
    15
 10
2.737240
 20
4.488880
 11
3.387120
 21
4.860240
 12
2.696760
 22
4.416280
 13
3.346640
 23
4.787200
  0
POLYLINE
  8
0
  6
CONTINUOUS
 66
     1
 40
0.000000
 41
0.000000
  0
VERTEX
  8
0
  6
CONTINUOUS
 10
2.737240
 20
4.488880
  0
VERTEX
  8
0
  6
CONTINUOUS
 10
3.387120
 20
4.860240
  0
VERTEX
  8
0
  6
CONTINUOUS
 10
3.346640
 20
4.787200
  0
VERTEX
  8
0
  6
CONTINUOUS
 10
2.696760
 20
4.416280
  0
VERTEX
  8
0
  6
CONTINUOUS
 10
2.737240
 20
4.488880
  0
SEQEND
  8
0
  0
SOLID
  8
0
 62
    15
 10
2.696760
 20
4.416280
 11
3.346640
 21
4.787200
 12
2.651440
 22
4.340160
 13
3.301320
 23
4.711080
  0
POLYLINE
  8
0
  6
CONTINUOUS
 66
     1
 40
0.000000
 41
0.000000
  0
VERTEX
  8
0
  6
CONTINUOUS
 10
2.696760
 20
4.416280
  0
VERTEX
  8
0
  6
CONTINUOUS
 10
3.346640
 20
4.787200
  0
VERTEX
  8
0
  6
CONTINUOUS
 10
3.301320
 20
4.711080
  0
VERTEX
  8
0
  6
CONTINUOUS
 10
2.651440
 20
4.340160
  0
VERTEX
  8
0
  6
CONTINUOUS
 10
2.696760
 20
4.416280
  0
SEQEND
  8
0
  0
SOLID
  8
0
 62
    15
 10
2.651440
 20
4.340160
 11
3.301320
 21
4.711080
 12
2.601280
 22
4.260960
 13
3.251600
 23
4.631880
  0
POLYLINE
  8
0
  6
CONTINUOUS
 66
     1
 40
0.000000
 41
0.000000
  0
VERTEX
  8
0
  6
CONTINUOUS
 10
2.651440
 20
4.340160
  0
VERTEX
  8
0
  6
CONTINUOUS
 10
3.301320
 20
4.711080
  0
VERTEX
  8
0
  6
CONTINUOUS
 10
3.251600
 20
4.631880
  0
VERTEX
  8
0
  6
CONTINUOUS
 10
2.601280
 20
4.260960
  0
VERTEX
  8
0
  6
CONTINUOUS
 10
2.651440
 20
4.340160
  0
SEQEND
  8
0
  0
SOLID
  8
0
 62
    15
 10
2.601280
 20
4.260960
 11
3.251600
 21
4.631880
 12
2.548040
 22
4.176480
 13
3.197920
 23
4.547400
  0
POLYLINE
  8
0
  6
CONTINUOUS
 66
     1
 40
0.000000
 41
0.000000
  0
VERTEX
  8
0
  6
CONTINUOUS
 10
2.601280
 20
4.260960
  0
VERTEX
  8
0
  6
CONTINUOUS
 10
3.251600
 20
4.631880
  0
VERTEX
  8
0
  6
CONTINUOUS
 10
3.197920
 20
4.547400
  0
VERTEX
  8
0
  6
CONTINUOUS
 10
2.548040
 20
4.176480
  0
VERTEX
  8
0
  6
CONTINUOUS
 10
2.601280
 20
4.260960
  0
SEQEND
  8
0
  0
SOLID
  8
0
 62
    15
 10
2.548040
 20
4.176480
 11
3.197920
 21
4.547400
 12
2.499200
 22
4.095960
 13
3.149080
 23
4.467320
  0
POLYLINE
  8
0
  6
CONTINUOUS
 66
     1
 40
0.000000
 41
0.000000
  0
VERTEX
  8
0
  6
CONTINUOUS
 10
2.548040
 20
4.176480
  0
VERTEX
  8
0
  6
CONTINUOUS
 10
3.197920
 20
4.547400
  0
VERTEX
  8
0
  6
CONTINUOUS
 10
3.149080
 20
4.467320
  0
VERTEX
  8
0
  6
CONTINUOUS
 10
2.499200
 20
4.095960
  0
VERTEX
  8
0
  6
CONTINUOUS
 10
2.548040
 20
4.176480
  0
SEQEND
  8
0
  0
SOLID
  8
0
 62
    15
 10
2.499200
 20
4.095960
 11
3.149080
 21
4.467320
 12
2.455200
 22
4.020280
 13
3.105080
 23
4.391200
  0
POLYLINE
  8
0
  6
CONTINUOUS
 66
     1
 40
0.000000
 41
0.000000
  0
VERTEX
  8
0
  6
CONTINUOUS
 10
2.499200
 20
4.095960
  0
VERTEX
  8
0
  6
CONTINUOUS
 10
3.149080
 20
4.467320
  0
VERTEX
  8
0
  6
CONTINUOUS
 10
3.105080
 20
4.391200
  0
VERTEX
  8
0
  6
CONTINUOUS
 10
2.455200
 20
4.020280
  0
VERTEX
  8
0
  6
CONTINUOUS
 10
2.499200
 20
4.095960
  0
SEQEND
  8
0
  0
SOLID
  8
0
 62
    15
 10
2.455200
 20
4.020280
 11
3.105080
 21
4.391200
 12
2.416040
 22
3.948120
 13
3.065920
 23
4.319040
  0
POLYLINE
  8
0
  6
CONTINUOUS
 66
     1
 40
0.000000
 41
0.000000
  0
VERTEX
  8
0
  6
CONTINUOUS
 10
2.455200
 20
4.020280
  0
VERTEX
  8
0
  6
CONTINUOUS
 10
3.105080
 20
4.391200
  0
VERTEX
  8
0
  6
CONTINUOUS
 10
3.065920
 20
4.319040
  0
VERTEX
  8
0
  6
CONTINUOUS
 10
2.416040
 20
3.948120
  0
VERTEX
  8
0
  6
CONTINUOUS
 10
2.455200
 20
4.020280
  0
SEQEND
  8
0
  0
SOLID
  8
0
 62
    15
 10
2.416040
 20
3.948120
 11
3.065920
 21
4.319040
 12
2.380840
 22
3.880360
 13
3.031160
 23
4.251280
  0
POLYLINE
  8
0
  6
CONTINUOUS
 66
     1
 40
0.000000
 41
0.000000
  0
VERTEX
  8
0
  6
CONTINUOUS
 10
2.416040
 20
3.948120
  0
VERTEX
  8
0
  6
CONTINUOUS
 10
3.065920
 20
4.319040
  0
VERTEX
  8
0
  6
CONTINUOUS
 10
3.031160
 20
4.251280
  0
VERTEX
  8
0
  6
CONTINUOUS
 10
2.380840
 20
3.880360
  0
VERTEX
  8
0
  6
CONTINUOUS
 10
2.416040
 20
3.948120
  0
SEQEND
  8
0
  0
SOLID
  8
0
 62
    15
 10
2.380840
 20
3.880360
 11
3.031160
 21
4.251280
 12
2.350040
 22
3.816120
 13
3.000360
 23
4.187040
  0
POLYLINE
  8
0
  6
CONTINUOUS
 66
     1
 40
0.000000
 41
0.000000
  0
VERTEX
  8
0
  6
CONTINUOUS
 10
2.380840
 20
3.880360
  0
VERTEX
  8
0
  6
CONTINUOUS
 10
3.031160
 20
4.251280
  0
VERTEX
  8
0
  6
CONTINUOUS
 10
3.000360
 20
4.187040
  0
VERTEX
  8
0
  6
CONTINUOUS
 10
2.350040
 20
3.816120
  0
VERTEX
  8
0
  6
CONTINUOUS
 10
2.380840
 20
3.880360
  0
SEQEND
  8
0
  0
SOLID
  8
0
 62
    15
 10
2.350040
 20
3.816120
 11
3.000360
 21
4.187040
 12
2.323640
 22
3.755840
 13
2.973520
 23
4.126760
  0
POLYLINE
  8
0
  6
CONTINUOUS
 66
     1
 40
0.000000
 41
0.000000
  0
VERTEX
  8
0
  6
CONTINUOUS
 10
2.350040
 20
3.816120
  0
VERTEX
  8
0
  6
CONTINUOUS
 10
3.000360
 20
4.187040
  0
VERTEX
  8
0
  6
CONTINUOUS
 10
2.973520
 20
4.126760
  0
VERTEX
  8
0
  6
CONTINUOUS
 10
2.323640
 20
3.755840
  0
VERTEX
  8
0
  6
CONTINUOUS
 10
2.350040
 20
3.816120
  0
SEQEND
  8
0
  0
SOLID
  8
0
 62
    15
 10
2.323640
 20
3.755840
 11
2.973520
 21
4.126760
 12
2.301200
 22
3.698640
 13
2.951080
 23
4.069560
  0
POLYLINE
  8
0
  6
CONTINUOUS
 66
     1
 40
0.000000
 41
0.000000
  0
VERTEX
  8
0
  6
CONTINUOUS
 10
2.323640
 20
3.755840
  0
VERTEX
  8
0
  6
CONTINUOUS
 10
2.973520
 20
4.126760
  0
VERTEX
  8
0
  6
CONTINUOUS
 10
2.951080
 20
4.069560
  0
VERTEX
  8
0
  6
CONTINUOUS
 10
2.301200
 20
3.698640
  0
VERTEX
  8
0
  6
CONTINUOUS
 10
2.323640
 20
3.755840
  0
SEQEND
  8
0
  0
SOLID
  8
0
 62
    15
 10
2.301200
 20
3.698640
 11
2.951080
 21
4.069560
 12
2.281840
 22
3.645400
 13
2.932160
 23
4.016320
  0
POLYLINE
  8
0
  6
CONTINUOUS
 66
     1
 40
0.000000
 41
0.000000
  0
VERTEX
  8
0
  6
CONTINUOUS
 10
2.301200
 20
3.698640
  0
VERTEX
  8
0
  6
CONTINUOUS
 10
2.951080
 20
4.069560
  0
VERTEX
  8
0
  6
CONTINUOUS
 10
2.932160
 20
4.016320
  0
VERTEX
  8
0
  6
CONTINUOUS
 10
2.281840
 20
3.645400
  0
VERTEX
  8
0
  6
CONTINUOUS
 10
2.301200
 20
3.698640
  0
SEQEND
  8
0
  0
SOLID
  8
0
 62
    15
 10
2.281840
 20
3.645400
 11
2.932160
 21
4.016320
 12
2.266440
 22
3.594800
 13
2.916760
 23
3.965720
  0
POLYLINE
  8
0
  6
CONTINUOUS
 66
     1
 40
0.000000
 41
0.000000
  0
VERTEX
  8
0
  6
CONTINUOUS
 10
2.281840
 20
3.645400
  0
VERTEX
  8
0
  6
CONTINUOUS
 10
2.932160
 20
4.016320
  0
VERTEX
  8
0
  6
CONTINUOUS
 10
2.916760
 20
3.965720
  0
VERTEX
  8
0
  6
CONTINUOUS
 10
2.266440
 20
3.594800
  0
VERTEX
  8
0
  6
CONTINUOUS
 10
2.281840
 20
3.645400
  0
SEQEND
  8
0
  0
SOLID
  8
0
 62
    15
 10
2.266440
 20
3.594800
 11
2.916760
 21
3.965720
 12
2.245760
 22
3.503280
 13
2.896080
 23
3.874640
  0
POLYLINE
  8
0
  6
CONTINUOUS
 66
     1
 40
0.000000
 41
0.000000
  0
VERTEX
  8
0
  6
CONTINUOUS
 10
2.266440
 20
3.594800
  0
VERTEX
  8
0
  6
CONTINUOUS
 10
2.916760
 20
3.965720
  0
VERTEX
  8
0
  6
CONTINUOUS
 10
2.896080
 20
3.874640
  0
VERTEX
  8
0
  6
CONTINUOUS
 10
2.245760
 20
3.503280
  0
VERTEX
  8
0
  6
CONTINUOUS
 10
2.266440
 20
3.594800
  0
SEQEND
  8
0
  0
SOLID
  8
0
 62
    15
 10
2.245760
 20
3.503280
 11
2.896080
 21
3.874640
 12
2.237400
 22
3.423640
 13
2.887280
 23
3.794560
  0
POLYLINE
  8
0
  6
CONTINUOUS
 66
     1
 40
0.000000
 41
0.000000
  0
VERTEX
  8
0
  6
CONTINUOUS
 10
2.245760
 20
3.503280
  0
VERTEX
  8
0
  6
CONTINUOUS
 10
2.896080
 20
3.874640
  0
VERTEX
  8
0
  6
CONTINUOUS
 10
2.887280
 20
3.794560
  0
VERTEX
  8
0
  6
CONTINUOUS
 10
2.237400
 20
3.423640
  0
VERTEX
  8
0
  6
CONTINUOUS
 10
2.245760
 20
3.503280
  0
SEQEND
  8
0
  0
SOLID
  8
0
 62
    15
 10
2.237400
 20
3.423640
 11
2.887280
 21
3.794560
 12
2.239600
 22
3.353680
 13
2.889920
 23
3.724600
  0
POLYLINE
  8
0
  6
CONTINUOUS
 66
     1
 40
0.000000
 41
0.000000
  0
VERTEX
  8
0
  6
CONTINUOUS
 10
2.237400
 20
3.423640
  0
VERTEX
  8
0
  6
CONTINUOUS
 10
2.887280
 20
3.794560
  0
VERTEX
  8
0
  6
CONTINUOUS
 10
2.889920
 20
3.724600
  0
VERTEX
  8
0
  6
CONTINUOUS
 10
2.239600
 20
3.353680
  0
VERTEX
  8
0
  6
CONTINUOUS
 10
2.237400
 20
3.423640
  0
SEQEND
  8
0
  0
SOLID
  8
0
 62
    15
 10
2.239600
 20
3.353680
 11
2.889920
 21
3.724600
 12
2.251480
 22
3.293400
 13
2.901800
 23
3.664320
  0
POLYLINE
  8
0
  6
CONTINUOUS
 66
     1
 40
0.000000
 41
0.000000
  0
VERTEX
  8
0
  6
CONTINUOUS
 10
2.239600
 20
3.353680
  0
VERTEX
  8
0
  6
CONTINUOUS
 10
2.889920
 20
3.724600
  0
VERTEX
  8
0
  6
CONTINUOUS
 10
2.901800
 20
3.664320
  0
VERTEX
  8
0
  6
CONTINUOUS
 10
2.251480
 20
3.293400
  0
VERTEX
  8
0
  6
CONTINUOUS
 10
2.239600
 20
3.353680
  0
SEQEND
  8
0
  0
SOLID
  8
0
 62
    15
 10
2.251480
 20
3.293400
 11
2.901800
 21
3.664320
 12
2.271720
 22
3.241040
 13
2.921600
 23
3.611960
  0
POLYLINE
  8
0
  6
CONTINUOUS
 66
     1
 40
0.000000
 41
0.000000
  0
VERTEX
  8
0
  6
CONTINUOUS
 10
2.251480
 20
3.293400
  0
VERTEX
  8
0
  6
CONTINUOUS
 10
2.901800
 20
3.664320
  0
VERTEX
  8
0
  6
CONTINUOUS
 10
2.921600
 20
3.611960
  0
VERTEX
  8
0
  6
CONTINUOUS
 10
2.271720
 20
3.241040
  0
VERTEX
  8
0
  6
CONTINUOUS
 10
2.251480
 20
3.293400
  0
SEQEND
  8
0
  0
SOLID
  8
0
 62
    15
 10
2.271720
 20
3.241040
 11
2.921600
 21
3.611960
 12
2.298560
 22
3.195720
 13
2.948880
 23
3.566640
  0
POLYLINE
  8
0
  6
CONTINUOUS
 66
     1
 40
0.000000
 41
0.000000
  0
VERTEX
  8
0
  6
CONTINUOUS
 10
2.271720
 20
3.241040
  0
VERTEX
  8
0
  6
CONTINUOUS
 10
2.921600
 20
3.611960
  0
VERTEX
  8
0
  6
CONTINUOUS
 10
2.948880
 20
3.566640
  0
VERTEX
  8
0
  6
CONTINUOUS
 10
2.298560
 20
3.195720
  0
VERTEX
  8
0
  6
CONTINUOUS
 10
2.271720
 20
3.241040
  0
SEQEND
  8
0
  0
SOLID
  8
0
 62
    15
 10
2.298560
 20
3.195720
 11
2.948880
 21
3.566640
 12
2.331120
 22
3.156560
 13
2.981000
 23
3.527480
  0
POLYLINE
  8
0
  6
CONTINUOUS
 66
     1
 40
0.000000
 41
0.000000
  0
VERTEX
  8
0
  6
CONTINUOUS
 10
2.298560
 20
3.195720
  0
VERTEX
  8
0
  6
CONTINUOUS
 10
2.948880
 20
3.566640
  0
VERTEX
  8
0
  6
CONTINUOUS
 10
2.981000
 20
3.527480
  0
VERTEX
  8
0
  6
CONTINUOUS
 10
2.331120
 20
3.156560
  0
VERTEX
  8
0
  6
CONTINUOUS
 10
2.298560
 20
3.195720
  0
SEQEND
  8
0
  0
SOLID
  8
0
 62
    15
 10
2.331120
 20
3.156560
 11
2.981000
 21
3.527480
 12
2.367640
 22
3.122240
 13
3.017520
 23
3.493160
  0
POLYLINE
  8
0
  6
CONTINUOUS
 66
     1
 40
0.000000
 41
0.000000
  0
VERTEX
  8
0
  6
CONTINUOUS
 10
2.331120
 20
3.156560
  0
VERTEX
  8
0
  6
CONTINUOUS
 10
2.981000
 20
3.527480
  0
VERTEX
  8
0
  6
CONTINUOUS
 10
3.017520
 20
3.493160
  0
VERTEX
  8
0
  6
CONTINUOUS
 10
2.367640
 20
3.122240
  0
VERTEX
  8
0
  6
CONTINUOUS
 10
2.331120
 20
3.156560
  0
SEQEND
  8
0
  0
SOLID
  8
0
 62
    15
 10
2.367640
 20
3.122240
 11
3.017520
 21
3.493160
 12
2.406800
 22
3.091440
 13
3.056680
 23
3.462360
  0
POLYLINE
  8
0
  6
CONTINUOUS
 66
     1
 40
0.000000
 41
0.000000
  0
VERTEX
  8
0
  6
CONTINUOUS
 10
2.367640
 20
3.122240
  0
VERTEX
  8
0
  6
CONTINUOUS
 10
3.017520
 20
3.493160
  0
VERTEX
  8
0
  6
CONTINUOUS
 10
3.056680
 20
3.462360
  0
VERTEX
  8
0
  6
CONTINUOUS
 10
2.406800
 20
3.091440
  0
VERTEX
  8
0
  6
CONTINUOUS
 10
2.367640
 20
3.122240
  0
SEQEND
  8
0
  0
SOLID
  8
0
 62
    15
 10
2.406800
 20
3.091440
 11
3.056680
 21
3.462360
 12
2.488200
 22
3.036880
 13
3.138080
 23
3.407800
  0
POLYLINE
  8
0
  6
CONTINUOUS
 66
     1
 40
0.000000
 41
0.000000
  0
VERTEX
  8
0
  6
CONTINUOUS
 10
2.406800
 20
3.091440
  0
VERTEX
  8
0
  6
CONTINUOUS
 10
3.056680
 20
3.462360
  0
VERTEX
  8
0
  6
CONTINUOUS
 10
3.138080
 20
3.407800
  0
VERTEX
  8
0
  6
CONTINUOUS
 10
2.488200
 20
3.036880
  0
VERTEX
  8
0
  6
CONTINUOUS
 10
2.406800
 20
3.091440
  0
SEQEND
  8
0
  0
SOLID
  8
0
 62
    15
 10
2.488200
 20
3.036880
 11
3.138080
 21
3.407800
 12
2.489520
 22
3.031600
 13
3.139400
 23
3.402520
  0
POLYLINE
  8
0
  6
CONTINUOUS
 66
     1
 40
0.000000
 41
0.000000
  0
VERTEX
  8
0
  6
CONTINUOUS
 10
2.488200
 20
3.036880
  0
VERTEX
  8
0
  6
CONTINUOUS
 10
3.138080
 20
3.407800
  0
VERTEX
  8
0
  6
CONTINUOUS
 10
3.139400
 20
3.402520
  0
VERTEX
  8
0
  6
CONTINUOUS
 10
2.489520
 20
3.031600
  0
VERTEX
  8
0
  6
CONTINUOUS
 10
2.488200
 20
3.036880
  0
SEQEND
  8
0
  0
POLYLINE
  8
0
  6
CONTINUOUS
 66
     1
 40
0.000000
 41
0.000000
  0
VERTEX
  8
0
  6
CONTINUOUS
 10
2.489520
 20
3.031600
  0
VERTEX
  8
0
  6
CONTINUOUS
 10
2.281400
 20
2.403280
  0
VERTEX
  8
0
  6
CONTINUOUS
 10
1.992320
 20
2.403280
  0
VERTEX
  8
0
  6
CONTINUOUS
 10
1.992320
 20
6.958160
  0
VERTEX
  8
0
  6
CONTINUOUS
 10
2.934800
 20
6.958160
  0
VERTEX
  8
0
  6
CONTINUOUS
 10
2.934800
 20
5.635520
  0
VERTEX
  8
0
  6
CONTINUOUS
 10
2.613600
 20
5.630240
  0
VERTEX
  8
0
  6
CONTINUOUS
 10
2.585440
 20
5.624960
  0
VERTEX
  8
0
  6
CONTINUOUS
 10
2.556840
 20
5.611760
  0
VERTEX
  8
0
  6
CONTINUOUS
 10
2.533080
 20
5.586680
  0
VERTEX
  8
0
  6
CONTINUOUS
 10
2.525600
 20
5.569080
  0
VERTEX
  8
0
  6
CONTINUOUS
 10
2.522960
 20
5.547520
  0
VERTEX
  8
0
  6
CONTINUOUS
 10
2.523840
 20
5.526400
  0
VERTEX
  8
0
  6
CONTINUOUS
 10
2.526920
 20
5.509240
  0
VERTEX
  8
0
  6
CONTINUOUS
 10
2.542320
 20
5.484600
  0
VERTEX
  8
0
  6
CONTINUOUS
 10
2.555960
 20
5.474920
  0
VERTEX
  8
0
  6
CONTINUOUS
 10
2.574000
 20
5.466120
  0
VERTEX
  8
0
  6
CONTINUOUS
 10
2.626800
 20
5.447640
  0
VERTEX
  8
0
  6
CONTINUOUS
 10
2.626800
 20
5.446320
  0
VERTEX
  8
0
  6
CONTINUOUS
 10
2.674320
 20
5.434000
  0
VERTEX
  8
0
  6
CONTINUOUS
 10
2.720960
 20
5.416400
  0
VERTEX
  8
0
  6
CONTINUOUS
 10
2.765840
 20
5.392200
  0
VERTEX
  8
0
  6
CONTINUOUS
 10
2.807640
 20
5.361400
  0
VERTEX
  8
0
  6
CONTINUOUS
 10
2.845040
 20
5.323120
  0
VERTEX
  8
0
  6
CONTINUOUS
 10
2.876720
 20
5.277360
  0
VERTEX
  8
0
  6
CONTINUOUS
 10
2.901800
 20
5.222800
  0
VERTEX
  8
0
  6
CONTINUOUS
 10
2.918080
 20
5.159440
  0
VERTEX
  8
0
  6
CONTINUOUS
 10
2.925120
 20
5.086400
  0
VERTEX
  8
0
  6
CONTINUOUS
 10
2.921600
 20
5.003240
  0
VERTEX
  8
0
  6
CONTINUOUS
 10
2.905760
 20
4.909520
  0
VERTEX
  8
0
  6
CONTINUOUS
 10
2.893000
 20
4.858480
  0
VERTEX
  8
0
  6
CONTINUOUS
 10
2.876720
 20
4.804360
  0
VERTEX
  8
0
  6
CONTINUOUS
 10
2.856480
 20
4.747600
  0
VERTEX
  8
0
  6
CONTINUOUS
 10
2.832720
 20
4.687760
  0
VERTEX
  8
0
  6
CONTINUOUS
 10
2.805000
 20
4.624840
  0
VERTEX
  8
0
  6
CONTINUOUS
 10
2.773320
 20
4.558400
  0
VERTEX
  8
0
  6
CONTINUOUS
 10
2.737240
 20
4.488880
  0
VERTEX
  8
0
  6
CONTINUOUS
 10
2.696760
 20
4.416280
  0
VERTEX
  8
0
  6
CONTINUOUS
 10
2.651440
 20
4.340160
  0
VERTEX
  8
0
  6
CONTINUOUS
 10
2.548040
 20
4.176480
  0
VERTEX
  8
0
  6
CONTINUOUS
 10
2.455200
 20
4.020280
  0
VERTEX
  8
0
  6
CONTINUOUS
 10
2.380840
 20
3.880360
  0
VERTEX
  8
0
  6
CONTINUOUS
 10
2.350040
 20
3.816120
  0
VERTEX
  8
0
  6
CONTINUOUS
 10
2.323640
 20
3.755840
  0
VERTEX
  8
0
  6
CONTINUOUS
 10
2.281840
 20
3.645400
  0
VERTEX
  8
0
  6
CONTINUOUS
 10
2.266440
 20
3.594800
  0
VERTEX
  8
0
  6
CONTINUOUS
 10
2.245760
 20
3.503280
  0
VERTEX
  8
0
  6
CONTINUOUS
 10
2.237400
 20
3.423640
  0
VERTEX
  8
0
  6
CONTINUOUS
 10
2.239600
 20
3.353680
  0
VERTEX
  8
0
  6
CONTINUOUS
 10
2.251480
 20
3.293400
  0
VERTEX
  8
0
  6
CONTINUOUS
 10
2.271720
 20
3.241040
  0
VERTEX
  8
0
  6
CONTINUOUS
 10
2.298560
 20
3.195720
  0
VERTEX
  8
0
  6
CONTINUOUS
 10
2.331120
 20
3.156560
  0
VERTEX
  8
0
  6
CONTINUOUS
 10
2.367640
 20
3.122240
  0
VERTEX
  8
0
  6
CONTINUOUS
 10
2.406800
 20
3.091440
  0
VERTEX
  8
0
  6
CONTINUOUS
 10
2.488200
 20
3.036880
  0
VERTEX
  8
0
  6
CONTINUOUS
 10
2.489520
 20
3.031600
  0
SEQEND
  8
0
  0
TEXT
  8
0
 10
3.688520
 20
2.603920
 40
0.138087
  1
269
 41
1.000000
  7
SN0
 71
     0
 72
     5
 11
3.965049
 21
2.603920
  0
TEXT
  8
0
 10
3.237520
 20
2.412520
 40
0.138087
  1
15/16" x 4-9/16"
 41
1.000000
  7
SN0
 71
     0
 72
     5
 11
4.413787
 21
2.412520
  0
POLYLINE
  8
0
  6
CONTINUOUS
 66
     1
 40
0.014080
 41
0.014080
  0
VERTEX
  8
0
  6
CONTINUOUS
 10
5.894240
 20
8.177400
  0
VERTEX
  8
0
  6
CONTINUOUS
 10
5.839680
 20
8.096000
  0
VERTEX
  8
0
  6
CONTINUOUS
 10
5.808880
 20
8.056840
  0
VERTEX
  8
0
  6
CONTINUOUS
 10
5.774560
 20
8.020320
  0
VERTEX
  8
0
  6
CONTINUOUS
 10
5.734960
 20
7.987760
  0
VERTEX
  8
0
  6
CONTINUOUS
 10
5.713400
 20
7.973680
  0
VERTEX
  8
0
  6
CONTINUOUS
 10
5.689640
 20
7.960920
  0
VERTEX
  8
0
  6
CONTINUOUS
 10
5.651360
 20
7.945080
  0
VERTEX
  8
0
  6
CONTINUOUS
 10
5.608240
 20
7.934080
  0
VERTEX
  8
0
  6
CONTINUOUS
 10
5.577000
 20
7.928800
  0
VERTEX
  8
0
  6
CONTINUOUS
 10
5.525520
 20
7.926160
  0
VERTEX
  8
0
  6
CONTINUOUS
 10
5.468760
 20
7.929240
  0
VERTEX
  8
0
  6
CONTINUOUS
 10
5.405840
 20
7.938920
  0
VERTEX
  8
0
  6
CONTINUOUS
 10
5.335880
 20
7.955640
  0
VERTEX
  8
0
  6
CONTINUOUS
 10
5.259320
 20
7.980280
  0
VERTEX
  8
0
  6
CONTINUOUS
 10
5.175280
 20
8.012840
  0
VERTEX
  8
0
  6
CONTINUOUS
 10
5.083320
 20
8.054200
  0
VERTEX
  8
0
  6
CONTINUOUS
 10
4.982560
 20
8.104800
  0
VERTEX
  8
0
  6
CONTINUOUS
 10
4.834720
 20
8.188400
  0
VERTEX
  8
0
  6
CONTINUOUS
 10
4.712840
 20
8.263200
  0
VERTEX
  8
0
  6
CONTINUOUS
 10
4.590520
 20
8.340640
  0
VERTEX
  8
0
  6
CONTINUOUS
 10
4.477880
 20
8.406640
  0
VERTEX
  8
0
  6
CONTINUOUS
 10
4.372280
 20
8.462520
  0
VERTEX
  8
0
  6
CONTINUOUS
 10
4.274160
 20
8.508720
  0
VERTEX
  8
0
  6
CONTINUOUS
 10
4.183080
 20
8.545680
  0
VERTEX
  8
0
  6
CONTINUOUS
 10
4.099040
 20
8.574280
  0
VERTEX
  8
0
  6
CONTINUOUS
 10
4.021160
 20
8.594960
  0
VERTEX
  8
0
  6
CONTINUOUS
 10
3.949880
 20
8.607720
  0
VERTEX
  8
0
  6
CONTINUOUS
 10
3.905880
 20
8.612560
  0
VERTEX
  8
0
  6
CONTINUOUS
 10
3.864080
 20
8.614320
  0
VERTEX
  8
0
  6
CONTINUOUS
 10
3.825360
 20
8.613440
  0
VERTEX
  8
0
  6
CONTINUOUS
 10
3.788840
 20
8.609920
  0
VERTEX
  8
0
  6
CONTINUOUS
 10
3.754520
 20
8.604200
  0
VERTEX
  8
0
  6
CONTINUOUS
 10
3.707880
 20
8.591000
  0
VERTEX
  8
0
  6
CONTINUOUS
 10
3.666520
 20
8.572960
  0
VERTEX
  8
0
  6
CONTINUOUS
 10
3.629560
 20
8.550960
  0
VERTEX
  8
0
  6
CONTINUOUS
 10
3.607560
 20
8.534240
  0
VERTEX
  8
0
  6
CONTINUOUS
 10
3.569280
 20
8.496840
  0
VERTEX
  8
0
  6
CONTINUOUS
 10
3.553000
 20
8.476600
  0
VERTEX
  8
0
  6
CONTINUOUS
 10
3.525720
 20
8.433040
  0
VERTEX
  8
0
  6
CONTINUOUS
 10
3.505040
 20
8.386840
  0
VERTEX
  8
0
  6
CONTINUOUS
 10
3.490080
 20
8.339760
  0
VERTEX
  8
0
  6
CONTINUOUS
 10
3.484800
 20
8.316000
  0
VERTEX
  8
0
  6
CONTINUOUS
 10
3.483480
 20
8.316000
  0
VERTEX
  8
0
  6
CONTINUOUS
 10
3.465000
 20
8.263200
  0
VERTEX
  8
0
  6
CONTINUOUS
 10
3.451360
 20
8.237680
  0
VERTEX
  8
0
  6
CONTINUOUS
 10
3.441240
 20
8.226240
  0
VERTEX
  8
0
  6
CONTINUOUS
 10
3.428920
 20
8.218760
  0
VERTEX
  8
0
  6
CONTINUOUS
 10
3.413520
 20
8.214360
  0
VERTEX
  8
0
  6
CONTINUOUS
 10
3.394600
 20
8.212160
  0
VERTEX
  8
0
  6
CONTINUOUS
 10
3.372160
 20
8.213040
  0
VERTEX
  8
0
  6
CONTINUOUS
 10
3.352800
 20
8.217880
  0
VERTEX
  8
0
  6
CONTINUOUS
 10
3.336960
 20
8.227560
  0
VERTEX
  8
0
  6
CONTINUOUS
 10
3.324200
 20
8.239440
  0
VERTEX
  8
0
  6
CONTINUOUS
 10
3.311440
 20
8.260560
  0
VERTEX
  8
0
  6
CONTINUOUS
 10
3.304400
 20
8.281240
  0
VERTEX
  8
0
  6
CONTINUOUS
 10
3.300880
 20
8.302800
  0
VERTEX
  8
0
  6
CONTINUOUS
 10
3.295600
 20
8.624000
  0
VERTEX
  8
0
  6
CONTINUOUS
 10
1.972520
 20
8.624000
  0
VERTEX
  8
0
  6
CONTINUOUS
 10
1.972520
 20
7.681080
  0
VERTEX
  8
0
  6
CONTINUOUS
 10
6.527400
 20
7.681080
  0
VERTEX
  8
0
  6
CONTINUOUS
 10
6.527400
 20
7.970600
  0
VERTEX
  8
0
  6
CONTINUOUS
 10
5.899520
 20
8.178720
  0
VERTEX
  8
0
  6
CONTINUOUS
 10
5.894240
 20
8.177400
  0
SEQEND
  8
0
  0
TEXT
  8
0
 10
2.701600
 20
7.984240
 40
0.138087
  1
269
 41
1.000000
  7
SN0
 71
     0
 72
     5
 11
2.978129
 21
7.984240
  0
TEXT
  8
0
 10
2.250600
 20
7.792840
 40
0.138087
  1
15/16" x 4-9/16"
 41
1.000000
  7
SN0
 71
     0
 72
     5
 11
3.426867
 21
7.792840
  0
ENDSEC
  0
EOF
