  0
SECTION
  2
HEADER
  9
$ACADVER
  1
AC1006
  9
$EXTMIN
 10
2.319147
 20
-5.907262
  9
$EXTMAX
 10
31.256605
 20
4.993355
  9
$LTSCALE
 40
0.125021
  9
$PDMODE
 70
    35
  9
$PDSIZE
 40
0.100017
  0
ENDSEC
  0
SECTION
  2
TABLES
  0
TABLE
  2
LTYPE
 70
     9
  0
LTYPE
  2
CONTINUOUS
 70
    64
  3
Solid line
 72
    65
 73
     0
 40
0.000000
  0
LTYPE
  2
DASHED
 70
    64
  3
__ __ __ __ __ __ __ __ __ __ __ __ __ __ __
 72
    65
 73
     2
 40
0.000938
 49
0.000625
 49
-0.000313
  0
LTYPE
  2
HIDDEN
 70
    64
  3
 _ _ _ _ _ _ _ _ _ _ _ _ _ _ _ _ _ _ _ _ _ _
 72
    65
 73
     2
 40
0.000469
 49
0.000313
 49
-0.000156
  0
LTYPE
  2
CENTER
 70
    64
  3
____ _ ____ _ ____ _ ____ _ ____ _ ____ _ ____
 72
    65
 73
     4
 40
0.002500
 49
0.001563
 49
-0.000313
 49
0.000313
 49
-0.000313
  0
LTYPE
  2
PHANTOM
 70
    64
  3
_____ _ _ _____ _ _ _____ _ _ _____ _ _ ____
 72
    65
 73
     6
 40
0.003126
 49
0.001563
 49
-0.000313
 49
0.000313
 49
-0.000313
 49
0.000313
 49
-0.000313
  0
LTYPE
  2
DOT
 70
    64
  3
...............................................
 72
    65
 73
     2
 40
0.000313
 49
0.000000
 49
-0.000313
  0
LTYPE
  2
DASHDOT
 70
    64
  3
__ . __ . __ . __ . __ . __ . __ . __ . __ . __
 72
    65
 73
     4
 40
0.001250
 49
0.000625
 49
-0.000313
 49
0.000000
 49
-0.000313
  0
LTYPE
  2
BORDER
 70
    64
  3
__ __ . __ __ . __ __ . __ __ . __ __ . __ __
 72
    65
 73
     6
 40
0.002188
 49
0.000625
 49
-0.000313
 49
0.000625
 49
-0.000313
 49
0.000000
 49
-0.000313
  0
LTYPE
  2
DIVIDE
 70
    64
  3
__ . . __ . . __ . . __ . . __ . . __ . . __
 72
    65
 73
     6
 40
0.001563
 49
0.000625
 49
-0.000313
 49
0.000000
 49
-0.000313
 49
0.000000
 49
-0.000313
  0
LTYPE
  2
DOTDOT
 70
    64
  3
 . .  . .  . .  . .  . .  . . 
 72
    65
 73
     5
 40
0.000688
 49
-0.000313
 49
0.000000
 49
-0.000313
 49
0.000000
 49
-0.000313
  0
ENDTAB
  0
TABLE
  2
STYLE
 70
     4
  0
STYLE
 70
     0
  2
SN0
 40
0.000000
 41
0.001250
 50
0.000000
 71
     0
 42
0.000000
  3
ROMAND
  0
STYLE
 70
    68
  2
SV0
 40
0.000000
 41
0.001250
 50
0.000000
 71
     0
 42
0.000000
  3
ROMAND
  0
STYLE
 70
     0
  2
SN1
 40
0.000000
 41
0.001250
 50
0.000000
 71
     0
 42
0.000000
  3
ROMAND
  0
STYLE
 70
    68
  2
SV1
 40
0.000000
 41
0.001250
 50
0.000000
 71
     0
 42
0.000000
  3
ROMAND
  0
ENDTAB
  0
TABLE
  2
LAYER
 70
     3
  0
LAYER
  2
FOREGROUND
 70
    64
 62
     7
  6
CONTINUOUS
  0
LAYER
  2
BACKGROUND
 70
    65
 62
    -7
  6
CONTINUOUS
  0
LAYER
  2
0
 70
    64
 62
     7
  6
CONTINUOUS
  0
ENDTAB
  0
ENDSEC
  0
SECTION
  2
ENTITIES
  0
POLYLINE
  8
FOREGROUND
  6
CONTINUOUS
 66
     1
 40
0.000000
 41
0.000000
  0
VERTEX
  8
FOREGROUND
  6
CONTINUOUS
 10
0.000000
 20
-0.913907
  0
VERTEX
  8
FOREGROUND
  6
CONTINUOUS
 10
8.500206
 20
-0.913907
  0
VERTEX
  8
FOREGROUND
  6
CONTINUOUS
 10
8.500206
 20
-11.913291
  0
VERTEX
  8
FOREGROUND
  6
CONTINUOUS
 10
0.000000
 20
-11.913291
  0
VERTEX
  8
FOREGROUND
  6
CONTINUOUS
 10
0.000000
 20
-0.913907
  0
SEQEND
  8
0
  0
POLYLINE
  8
FOREGROUND
  6
CONTINUOUS
 66
     1
 40
0.000000
 41
0.000000
  0
VERTEX
  8
FOREGROUND
  6
CONTINUOUS
 10
0.000000
 20
-0.913907
  0
VERTEX
  8
FOREGROUND
  6
CONTINUOUS
 10
8.500206
 20
-0.913907
  0
VERTEX
  8
FOREGROUND
  6
CONTINUOUS
 10
8.500206
 20
-11.913291
  0
VERTEX
  8
FOREGROUND
  6
CONTINUOUS
 10
0.000000
 20
-11.913291
  0
VERTEX
  8
FOREGROUND
  6
CONTINUOUS
 10
0.000000
 20
-0.913907
  0
SEQEND
  8
0
  0
TEXT
  8
0
 10
29.009970
 20
4.598288
 40
0.015916
  1
B242
 41
1.000000
  7
SN0
 71
     0
 72
     5
 11
29.051929
 21
4.598288
  0
TEXT
  8
0
 10
29.520057
 20
4.734561
 40
0.013263
  1
B242
 41
1.000000
  7
SN0
 71
     0
 72
     5
 11
29.556229
 21
4.734561
  0
TEXT
  8
0
 10
30.483972
 20
4.442011
 40
0.015916
  1
B242
 41
1.000000
  7
SN0
 71
     0
 72
     5
 11
30.525931
 21
4.442011
  0
TEXT
  8
0
 10
31.039067
 20
4.389502
 40
0.015916
  1
B242
 41
1.000000
  7
SN0
 71
     0
 72
     5
 11
31.081027
 21
4.389502
  0
TEXT
  8
0
 10
30.633998
 20
1.706542
 40
0.015916
  1
B242
 41
1.000000
  7
SN0
 71
     0
 72
     5
 11
30.675957
 21
1.706542
  0
TEXT
  8
0
 10
30.427713
 20
4.973352
 40
0.017243
  1
B242
 41
1.000000
  7
SN0
 71
     0
 72
     5
 11
30.471119
 21
4.973352
  0
TEXT
  8
0
 10
29.163746
 20
-5.899761
 40
0.015916
  1
B242
 41
1.000000
  7
SN0
 71
     0
 72
     5
 11
29.205705
 21
-5.899761
  0
POLYLINE
  8
0
  6
CONTINUOUS
 66
     1
 40
0.012502
 41
0.012502
  0
VERTEX
  8
0
  6
CONTINUOUS
 10
30.351449
 20
-4.609540
  0
VERTEX
  8
0
  6
CONTINUOUS
 10
30.361451
 20
-4.609540
  0
SEQEND
  8
0
  0
POLYLINE
  8
0
  6
CONTINUOUS
 66
     1
 40
0.012502
 41
0.012502
  0
VERTEX
  8
0
  6
CONTINUOUS
 10
30.351449
 20
-5.901011
  0
VERTEX
  8
0
  6
CONTINUOUS
 10
30.361451
 20
-5.901011
  0
SEQEND
  8
0
  0
POLYLINE
  8
0
  6
CONTINUOUS
 66
     1
 40
0.012502
 41
0.012502
  0
VERTEX
  8
0
  6
CONTINUOUS
 10
31.249103
 20
-5.882258
  0
VERTEX
  8
0
  6
CONTINUOUS
 10
31.249103
 20
-5.901011
  0
SEQEND
  8
0
  0
TEXT
  8
0
 10
3.739391
 20
-5.440932
 40
0.132635
  1
BA  268A 1-5/8" x 1-15/16"
 41
1.000000
  7
SN1
 71
     0
 72
     5
 11
5.668072
 21
-5.440932
  0
TEXT
  8
0
 10
3.739391
 20
-5.632215
 40
0.132635
  1
BA  268B 1/2" x 3-7/16"
 41
1.000000
  7
SN1
 71
     0
 72
     5
 11
5.435126
 21
-5.632215
  0
SOLID
  8
0
 62
    15
 10
7.059959
 20
-4.785820
 11
7.056209
 21
-4.044443
 12
7.066211
 22
-4.772067
 13
7.062460
 23
-4.030690
  0
POLYLINE
  8
0
  6
CONTINUOUS
 66
     1
 40
0.000000
 41
0.000000
  0
VERTEX
  8
0
  6
CONTINUOUS
 10
7.059959
 20
-4.785820
  0
VERTEX
  8
0
  6
CONTINUOUS
 10
7.056209
 20
-4.044443
  0
VERTEX
  8
0
  6
CONTINUOUS
 10
7.062460
 20
-4.030690
  0
VERTEX
  8
0
  6
CONTINUOUS
 10
7.066211
 20
-4.772067
  0
VERTEX
  8
0
  6
CONTINUOUS
 10
7.059959
 20
-4.785820
  0
SEQEND
  8
0
  0
SOLID
  8
0
 62
    15
 10
4.021939
 20
-5.142131
 11
4.018188
 21
-4.400754
 12
4.021939
 22
-4.642045
 13
4.018188
 23
-3.900668
  0
POLYLINE
  8
0
  6
CONTINUOUS
 66
     1
 40
0.000000
 41
0.000000
  0
VERTEX
  8
0
  6
CONTINUOUS
 10
4.021939
 20
-5.142131
  0
VERTEX
  8
0
  6
CONTINUOUS
 10
4.018188
 20
-4.400754
  0
VERTEX
  8
0
  6
CONTINUOUS
 10
4.018188
 20
-3.900668
  0
VERTEX
  8
0
  6
CONTINUOUS
 10
4.021939
 20
-4.642045
  0
VERTEX
  8
0
  6
CONTINUOUS
 10
4.021939
 20
-5.142131
  0
SEQEND
  8
0
  0
SOLID
  8
0
 62
    15
 10
6.897432
 20
-4.642045
 11
6.893681
 21
-3.900668
 12
6.899932
 22
-4.654547
 13
6.896181
 23
-3.913170
  0
POLYLINE
  8
0
  6
CONTINUOUS
 66
     1
 40
0.000000
 41
0.000000
  0
VERTEX
  8
0
  6
CONTINUOUS
 10
6.897432
 20
-4.642045
  0
VERTEX
  8
0
  6
CONTINUOUS
 10
6.893681
 20
-3.900668
  0
VERTEX
  8
0
  6
CONTINUOUS
 10
6.896181
 20
-3.913170
  0
VERTEX
  8
0
  6
CONTINUOUS
 10
6.899932
 20
-4.654547
  0
VERTEX
  8
0
  6
CONTINUOUS
 10
6.897432
 20
-4.642045
  0
SEQEND
  8
0
  0
SOLID
  8
0
 62
    15
 10
6.899932
 20
-4.654547
 11
6.896181
 21
-3.913170
 12
6.903683
 22
-4.664549
 13
6.899932
 23
-3.923172
  0
POLYLINE
  8
0
  6
CONTINUOUS
 66
     1
 40
0.000000
 41
0.000000
  0
VERTEX
  8
0
  6
CONTINUOUS
 10
6.899932
 20
-4.654547
  0
VERTEX
  8
0
  6
CONTINUOUS
 10
6.896181
 20
-3.913170
  0
VERTEX
  8
0
  6
CONTINUOUS
 10
6.899932
 20
-3.923172
  0
VERTEX
  8
0
  6
CONTINUOUS
 10
6.903683
 20
-4.664549
  0
VERTEX
  8
0
  6
CONTINUOUS
 10
6.899932
 20
-4.654547
  0
SEQEND
  8
0
  0
SOLID
  8
0
 62
    15
 10
6.903683
 20
-4.664549
 11
6.899932
 21
-3.923172
 12
6.911184
 22
-4.679552
 13
6.908684
 23
-3.938175
  0
POLYLINE
  8
0
  6
CONTINUOUS
 66
     1
 40
0.000000
 41
0.000000
  0
VERTEX
  8
0
  6
CONTINUOUS
 10
6.903683
 20
-4.664549
  0
VERTEX
  8
0
  6
CONTINUOUS
 10
6.899932
 20
-3.923172
  0
VERTEX
  8
0
  6
CONTINUOUS
 10
6.908684
 20
-3.938175
  0
VERTEX
  8
0
  6
CONTINUOUS
 10
6.911184
 20
-4.679552
  0
VERTEX
  8
0
  6
CONTINUOUS
 10
6.903683
 20
-4.664549
  0
SEQEND
  8
0
  0
SOLID
  8
0
 62
    15
 10
6.911184
 20
-4.679552
 11
6.908684
 21
-3.938175
 12
6.922436
 22
-4.687053
 13
6.918685
 23
-3.945676
  0
POLYLINE
  8
0
  6
CONTINUOUS
 66
     1
 40
0.000000
 41
0.000000
  0
VERTEX
  8
0
  6
CONTINUOUS
 10
6.911184
 20
-4.679552
  0
VERTEX
  8
0
  6
CONTINUOUS
 10
6.908684
 20
-3.938175
  0
VERTEX
  8
0
  6
CONTINUOUS
 10
6.918685
 20
-3.945676
  0
VERTEX
  8
0
  6
CONTINUOUS
 10
6.922436
 20
-4.687053
  0
VERTEX
  8
0
  6
CONTINUOUS
 10
6.911184
 20
-4.679552
  0
SEQEND
  8
0
  0
SOLID
  8
0
 62
    15
 10
6.922436
 20
-4.687053
 11
6.918685
 21
-3.945676
 12
6.934938
 22
-4.689553
 13
6.931187
 23
-3.948176
  0
POLYLINE
  8
0
  6
CONTINUOUS
 66
     1
 40
0.000000
 41
0.000000
  0
VERTEX
  8
0
  6
CONTINUOUS
 10
6.922436
 20
-4.687053
  0
VERTEX
  8
0
  6
CONTINUOUS
 10
6.918685
 20
-3.945676
  0
VERTEX
  8
0
  6
CONTINUOUS
 10
6.931187
 20
-3.948176
  0
VERTEX
  8
0
  6
CONTINUOUS
 10
6.934938
 20
-4.689553
  0
VERTEX
  8
0
  6
CONTINUOUS
 10
6.922436
 20
-4.687053
  0
SEQEND
  8
0
  0
SOLID
  8
0
 62
    15
 10
6.934938
 20
-4.689553
 11
6.931187
 21
-3.948176
 12
6.947440
 22
-4.690804
 13
6.944940
 23
-3.949427
  0
POLYLINE
  8
0
  6
CONTINUOUS
 66
     1
 40
0.000000
 41
0.000000
  0
VERTEX
  8
0
  6
CONTINUOUS
 10
6.934938
 20
-4.689553
  0
VERTEX
  8
0
  6
CONTINUOUS
 10
6.931187
 20
-3.948176
  0
VERTEX
  8
0
  6
CONTINUOUS
 10
6.944940
 20
-3.949427
  0
VERTEX
  8
0
  6
CONTINUOUS
 10
6.947440
 20
-4.690804
  0
VERTEX
  8
0
  6
CONTINUOUS
 10
6.934938
 20
-4.689553
  0
SEQEND
  8
0
  0
SOLID
  8
0
 62
    15
 10
6.947440
 20
-4.690804
 11
6.944940
 21
-3.949427
 12
6.961193
 22
-4.689553
 13
6.957442
 23
-3.949427
  0
POLYLINE
  8
0
  6
CONTINUOUS
 66
     1
 40
0.000000
 41
0.000000
  0
VERTEX
  8
0
  6
CONTINUOUS
 10
6.947440
 20
-4.690804
  0
VERTEX
  8
0
  6
CONTINUOUS
 10
6.944940
 20
-3.949427
  0
VERTEX
  8
0
  6
CONTINUOUS
 10
6.957442
 20
-3.949427
  0
VERTEX
  8
0
  6
CONTINUOUS
 10
6.961193
 20
-4.689553
  0
VERTEX
  8
0
  6
CONTINUOUS
 10
6.947440
 20
-4.690804
  0
SEQEND
  8
0
  0
SOLID
  8
0
 62
    15
 10
6.961193
 20
-4.689553
 11
6.957442
 21
-3.949427
 12
6.973695
 22
-4.690804
 13
6.969944
 23
-3.949427
  0
POLYLINE
  8
0
  6
CONTINUOUS
 66
     1
 40
0.000000
 41
0.000000
  0
VERTEX
  8
0
  6
CONTINUOUS
 10
6.961193
 20
-4.689553
  0
VERTEX
  8
0
  6
CONTINUOUS
 10
6.957442
 20
-3.949427
  0
VERTEX
  8
0
  6
CONTINUOUS
 10
6.969944
 20
-3.949427
  0
VERTEX
  8
0
  6
CONTINUOUS
 10
6.973695
 20
-4.690804
  0
VERTEX
  8
0
  6
CONTINUOUS
 10
6.961193
 20
-4.689553
  0
SEQEND
  8
0
  0
SOLID
  8
0
 62
    15
 10
6.973695
 20
-4.690804
 11
6.969944
 21
-3.949427
 12
6.983696
 22
-4.695804
 13
6.979946
 23
-3.954427
  0
POLYLINE
  8
0
  6
CONTINUOUS
 66
     1
 40
0.000000
 41
0.000000
  0
VERTEX
  8
0
  6
CONTINUOUS
 10
6.973695
 20
-4.690804
  0
VERTEX
  8
0
  6
CONTINUOUS
 10
6.969944
 20
-3.949427
  0
VERTEX
  8
0
  6
CONTINUOUS
 10
6.979946
 20
-3.954427
  0
VERTEX
  8
0
  6
CONTINUOUS
 10
6.983696
 20
-4.695804
  0
VERTEX
  8
0
  6
CONTINUOUS
 10
6.973695
 20
-4.690804
  0
SEQEND
  8
0
  0
SOLID
  8
0
 62
    15
 10
6.983696
 20
-4.695804
 11
6.979946
 21
-3.954427
 12
6.999949
 22
-4.709557
 13
6.996199
 23
-3.968180
  0
POLYLINE
  8
0
  6
CONTINUOUS
 66
     1
 40
0.000000
 41
0.000000
  0
VERTEX
  8
0
  6
CONTINUOUS
 10
6.983696
 20
-4.695804
  0
VERTEX
  8
0
  6
CONTINUOUS
 10
6.979946
 20
-3.954427
  0
VERTEX
  8
0
  6
CONTINUOUS
 10
6.996199
 20
-3.968180
  0
VERTEX
  8
0
  6
CONTINUOUS
 10
6.999949
 20
-4.709557
  0
VERTEX
  8
0
  6
CONTINUOUS
 10
6.983696
 20
-4.695804
  0
SEQEND
  8
0
  0
SOLID
  8
0
 62
    15
 10
6.999949
 20
-4.709557
 11
6.996199
 21
-3.968180
 12
7.011201
 22
-4.727060
 13
7.007450
 23
-3.986933
  0
POLYLINE
  8
0
  6
CONTINUOUS
 66
     1
 40
0.000000
 41
0.000000
  0
VERTEX
  8
0
  6
CONTINUOUS
 10
6.999949
 20
-4.709557
  0
VERTEX
  8
0
  6
CONTINUOUS
 10
6.996199
 20
-3.968180
  0
VERTEX
  8
0
  6
CONTINUOUS
 10
7.007450
 20
-3.986933
  0
VERTEX
  8
0
  6
CONTINUOUS
 10
7.011201
 20
-4.727060
  0
VERTEX
  8
0
  6
CONTINUOUS
 10
6.999949
 20
-4.709557
  0
SEQEND
  8
0
  0
SOLID
  8
0
 62
    15
 10
7.014952
 20
-4.738312
 11
7.011201
 21
-3.996935
 12
7.017452
 22
-4.752064
 13
7.013702
 23
-4.010687
  0
POLYLINE
  8
0
  6
CONTINUOUS
 66
     1
 40
0.000000
 41
0.000000
  0
VERTEX
  8
0
  6
CONTINUOUS
 10
7.014952
 20
-4.738312
  0
VERTEX
  8
0
  6
CONTINUOUS
 10
7.011201
 20
-3.996935
  0
VERTEX
  8
0
  6
CONTINUOUS
 10
7.013702
 20
-4.010687
  0
VERTEX
  8
0
  6
CONTINUOUS
 10
7.017452
 20
-4.752064
  0
VERTEX
  8
0
  6
CONTINUOUS
 10
7.014952
 20
-4.738312
  0
SEQEND
  8
0
  0
SOLID
  8
0
 62
    15
 10
7.011201
 20
-4.727060
 11
7.007450
 21
-3.986933
 12
7.014952
 22
-4.738312
 13
7.011201
 23
-3.996935
  0
POLYLINE
  8
0
  6
CONTINUOUS
 66
     1
 40
0.000000
 41
0.000000
  0
VERTEX
  8
0
  6
CONTINUOUS
 10
7.011201
 20
-4.727060
  0
VERTEX
  8
0
  6
CONTINUOUS
 10
7.007450
 20
-3.986933
  0
VERTEX
  8
0
  6
CONTINUOUS
 10
7.011201
 20
-3.996935
  0
VERTEX
  8
0
  6
CONTINUOUS
 10
7.014952
 20
-4.738312
  0
VERTEX
  8
0
  6
CONTINUOUS
 10
7.011201
 20
-4.727060
  0
SEQEND
  8
0
  0
SOLID
  8
0
 62
    15
 10
7.018702
 20
-4.785820
 11
7.014952
 21
-4.044443
 12
7.059959
 22
-4.785820
 13
7.056209
 23
-4.044443
  0
POLYLINE
  8
0
  6
CONTINUOUS
 66
     1
 40
0.000000
 41
0.000000
  0
VERTEX
  8
0
  6
CONTINUOUS
 10
7.018702
 20
-4.785820
  0
VERTEX
  8
0
  6
CONTINUOUS
 10
7.014952
 20
-4.044443
  0
VERTEX
  8
0
  6
CONTINUOUS
 10
7.056209
 20
-4.044443
  0
VERTEX
  8
0
  6
CONTINUOUS
 10
7.059959
 20
-4.785820
  0
VERTEX
  8
0
  6
CONTINUOUS
 10
7.018702
 20
-4.785820
  0
SEQEND
  8
0
  0
SOLID
  8
0
 62
    15
 10
7.017452
 20
-4.752064
 11
7.013702
 21
-4.010687
 12
7.018702
 22
-4.767067
 13
7.014952
 23
-4.025690
  0
POLYLINE
  8
0
  6
CONTINUOUS
 66
     1
 40
0.000000
 41
0.000000
  0
VERTEX
  8
0
  6
CONTINUOUS
 10
7.017452
 20
-4.752064
  0
VERTEX
  8
0
  6
CONTINUOUS
 10
7.013702
 20
-4.010687
  0
VERTEX
  8
0
  6
CONTINUOUS
 10
7.014952
 20
-4.025690
  0
VERTEX
  8
0
  6
CONTINUOUS
 10
7.018702
 20
-4.767067
  0
VERTEX
  8
0
  6
CONTINUOUS
 10
7.017452
 20
-4.752064
  0
SEQEND
  8
0
  0
SOLID
  8
0
 62
    15
 10
4.021939
 20
-4.642045
 11
4.018188
 21
-3.900668
 12
6.897432
 22
-4.642045
 13
6.893681
 23
-3.900668
  0
POLYLINE
  8
0
  6
CONTINUOUS
 66
     1
 40
0.000000
 41
0.000000
  0
VERTEX
  8
0
  6
CONTINUOUS
 10
4.021939
 20
-4.642045
  0
VERTEX
  8
0
  6
CONTINUOUS
 10
4.018188
 20
-3.900668
  0
VERTEX
  8
0
  6
CONTINUOUS
 10
6.893681
 20
-3.900668
  0
VERTEX
  8
0
  6
CONTINUOUS
 10
6.897432
 20
-4.642045
  0
VERTEX
  8
0
  6
CONTINUOUS
 10
4.021939
 20
-4.642045
  0
SEQEND
  8
0
  0
SOLID
  8
0
 62
    15
 10
7.066211
 20
-4.772067
 11
7.062460
 21
-4.030690
 12
7.078713
 22
-4.763316
 13
7.074962
 23
-4.021939
  0
POLYLINE
  8
0
  6
CONTINUOUS
 66
     1
 40
0.000000
 41
0.000000
  0
VERTEX
  8
0
  6
CONTINUOUS
 10
7.066211
 20
-4.772067
  0
VERTEX
  8
0
  6
CONTINUOUS
 10
7.062460
 20
-4.030690
  0
VERTEX
  8
0
  6
CONTINUOUS
 10
7.074962
 20
-4.021939
  0
VERTEX
  8
0
  6
CONTINUOUS
 10
7.078713
 20
-4.763316
  0
VERTEX
  8
0
  6
CONTINUOUS
 10
7.066211
 20
-4.772067
  0
SEQEND
  8
0
  0
SOLID
  8
0
 62
    15
 10
7.078713
 20
-4.763316
 11
7.074962
 21
-4.021939
 12
7.096216
 22
-4.759565
 13
7.092465
 23
-4.019439
  0
POLYLINE
  8
0
  6
CONTINUOUS
 66
     1
 40
0.000000
 41
0.000000
  0
VERTEX
  8
0
  6
CONTINUOUS
 10
7.078713
 20
-4.763316
  0
VERTEX
  8
0
  6
CONTINUOUS
 10
7.074962
 20
-4.021939
  0
VERTEX
  8
0
  6
CONTINUOUS
 10
7.092465
 20
-4.019439
  0
VERTEX
  8
0
  6
CONTINUOUS
 10
7.096216
 20
-4.759565
  0
VERTEX
  8
0
  6
CONTINUOUS
 10
7.078713
 20
-4.763316
  0
SEQEND
  8
0
  0
SOLID
  8
0
 62
    15
 10
7.096216
 20
-4.759565
 11
7.092465
 21
-4.019439
 12
7.117469
 22
-4.762066
 13
7.113719
 23
-4.021939
  0
POLYLINE
  8
0
  6
CONTINUOUS
 66
     1
 40
0.000000
 41
0.000000
  0
VERTEX
  8
0
  6
CONTINUOUS
 10
7.096216
 20
-4.759565
  0
VERTEX
  8
0
  6
CONTINUOUS
 10
7.092465
 20
-4.019439
  0
VERTEX
  8
0
  6
CONTINUOUS
 10
7.113719
 20
-4.021939
  0
VERTEX
  8
0
  6
CONTINUOUS
 10
7.117469
 20
-4.762066
  0
VERTEX
  8
0
  6
CONTINUOUS
 10
7.096216
 20
-4.759565
  0
SEQEND
  8
0
  0
SOLID
  8
0
 62
    15
 10
7.117469
 20
-4.762066
 11
7.113719
 21
-4.021939
 12
7.139973
 22
-4.770817
 13
7.136223
 23
-4.029440
  0
POLYLINE
  8
0
  6
CONTINUOUS
 66
     1
 40
0.000000
 41
0.000000
  0
VERTEX
  8
0
  6
CONTINUOUS
 10
7.117469
 20
-4.762066
  0
VERTEX
  8
0
  6
CONTINUOUS
 10
7.113719
 20
-4.021939
  0
VERTEX
  8
0
  6
CONTINUOUS
 10
7.136223
 20
-4.029440
  0
VERTEX
  8
0
  6
CONTINUOUS
 10
7.139973
 20
-4.770817
  0
VERTEX
  8
0
  6
CONTINUOUS
 10
7.117469
 20
-4.762066
  0
SEQEND
  8
0
  0
SOLID
  8
0
 62
    15
 10
7.139973
 20
-4.770817
 11
7.136223
 21
-4.029440
 12
7.163727
 22
-4.785820
 13
7.159977
 23
-4.044443
  0
POLYLINE
  8
0
  6
CONTINUOUS
 66
     1
 40
0.000000
 41
0.000000
  0
VERTEX
  8
0
  6
CONTINUOUS
 10
7.139973
 20
-4.770817
  0
VERTEX
  8
0
  6
CONTINUOUS
 10
7.136223
 20
-4.029440
  0
VERTEX
  8
0
  6
CONTINUOUS
 10
7.159977
 20
-4.044443
  0
VERTEX
  8
0
  6
CONTINUOUS
 10
7.163727
 20
-4.785820
  0
VERTEX
  8
0
  6
CONTINUOUS
 10
7.139973
 20
-4.770817
  0
SEQEND
  8
0
  0
SOLID
  8
0
 62
    15
 10
7.163727
 20
-4.785820
 11
7.159977
 21
-4.044443
 12
7.186231
 22
-4.807073
 13
7.182480
 23
-4.065696
  0
POLYLINE
  8
0
  6
CONTINUOUS
 66
     1
 40
0.000000
 41
0.000000
  0
VERTEX
  8
0
  6
CONTINUOUS
 10
7.163727
 20
-4.785820
  0
VERTEX
  8
0
  6
CONTINUOUS
 10
7.159977
 20
-4.044443
  0
VERTEX
  8
0
  6
CONTINUOUS
 10
7.182480
 20
-4.065696
  0
VERTEX
  8
0
  6
CONTINUOUS
 10
7.186231
 20
-4.807073
  0
VERTEX
  8
0
  6
CONTINUOUS
 10
7.163727
 20
-4.785820
  0
SEQEND
  8
0
  0
SOLID
  8
0
 62
    15
 10
7.186231
 20
-4.807073
 11
7.182480
 21
-4.065696
 12
7.207485
 22
-4.835828
 13
7.203734
 23
-4.094451
  0
POLYLINE
  8
0
  6
CONTINUOUS
 66
     1
 40
0.000000
 41
0.000000
  0
VERTEX
  8
0
  6
CONTINUOUS
 10
7.186231
 20
-4.807073
  0
VERTEX
  8
0
  6
CONTINUOUS
 10
7.182480
 20
-4.065696
  0
VERTEX
  8
0
  6
CONTINUOUS
 10
7.203734
 20
-4.094451
  0
VERTEX
  8
0
  6
CONTINUOUS
 10
7.207485
 20
-4.835828
  0
VERTEX
  8
0
  6
CONTINUOUS
 10
7.186231
 20
-4.807073
  0
SEQEND
  8
0
  0
SOLID
  8
0
 62
    15
 10
7.207485
 20
-4.835828
 11
7.203734
 21
-4.094451
 12
7.229989
 22
-4.865834
 13
7.226238
 23
-4.124457
  0
POLYLINE
  8
0
  6
CONTINUOUS
 66
     1
 40
0.000000
 41
0.000000
  0
VERTEX
  8
0
  6
CONTINUOUS
 10
7.207485
 20
-4.835828
  0
VERTEX
  8
0
  6
CONTINUOUS
 10
7.203734
 20
-4.094451
  0
VERTEX
  8
0
  6
CONTINUOUS
 10
7.226238
 20
-4.124457
  0
VERTEX
  8
0
  6
CONTINUOUS
 10
7.229989
 20
-4.865834
  0
VERTEX
  8
0
  6
CONTINUOUS
 10
7.207485
 20
-4.835828
  0
SEQEND
  8
0
  0
SOLID
  8
0
 62
    15
 10
7.229989
 20
-4.865834
 11
7.226238
 21
-4.124457
 12
7.258743
 22
-4.892088
 13
7.254993
 23
-4.150711
  0
POLYLINE
  8
0
  6
CONTINUOUS
 66
     1
 40
0.000000
 41
0.000000
  0
VERTEX
  8
0
  6
CONTINUOUS
 10
7.229989
 20
-4.865834
  0
VERTEX
  8
0
  6
CONTINUOUS
 10
7.226238
 20
-4.124457
  0
VERTEX
  8
0
  6
CONTINUOUS
 10
7.254993
 20
-4.150711
  0
VERTEX
  8
0
  6
CONTINUOUS
 10
7.258743
 20
-4.892088
  0
VERTEX
  8
0
  6
CONTINUOUS
 10
7.229989
 20
-4.865834
  0
SEQEND
  8
0
  0
SOLID
  8
0
 62
    15
 10
7.258743
 20
-4.892088
 11
7.254993
 21
-4.150711
 12
7.289999
 22
-4.914592
 13
7.286248
 23
-4.173215
  0
POLYLINE
  8
0
  6
CONTINUOUS
 66
     1
 40
0.000000
 41
0.000000
  0
VERTEX
  8
0
  6
CONTINUOUS
 10
7.258743
 20
-4.892088
  0
VERTEX
  8
0
  6
CONTINUOUS
 10
7.254993
 20
-4.150711
  0
VERTEX
  8
0
  6
CONTINUOUS
 10
7.286248
 20
-4.173215
  0
VERTEX
  8
0
  6
CONTINUOUS
 10
7.289999
 20
-4.914592
  0
VERTEX
  8
0
  6
CONTINUOUS
 10
7.258743
 20
-4.892088
  0
SEQEND
  8
0
  0
SOLID
  8
0
 62
    15
 10
7.289999
 20
-4.914592
 11
7.286248
 21
-4.173215
 12
7.323755
 22
-4.933345
 13
7.320004
 23
-4.191968
  0
POLYLINE
  8
0
  6
CONTINUOUS
 66
     1
 40
0.000000
 41
0.000000
  0
VERTEX
  8
0
  6
CONTINUOUS
 10
7.289999
 20
-4.914592
  0
VERTEX
  8
0
  6
CONTINUOUS
 10
7.286248
 20
-4.173215
  0
VERTEX
  8
0
  6
CONTINUOUS
 10
7.320004
 20
-4.191968
  0
VERTEX
  8
0
  6
CONTINUOUS
 10
7.323755
 20
-4.933345
  0
VERTEX
  8
0
  6
CONTINUOUS
 10
7.289999
 20
-4.914592
  0
SEQEND
  8
0
  0
SOLID
  8
0
 62
    15
 10
7.323755
 20
-4.933345
 11
7.320004
 21
-4.191968
 12
7.357510
 22
-4.948348
 13
7.353760
 23
-4.206971
  0
POLYLINE
  8
0
  6
CONTINUOUS
 66
     1
 40
0.000000
 41
0.000000
  0
VERTEX
  8
0
  6
CONTINUOUS
 10
7.323755
 20
-4.933345
  0
VERTEX
  8
0
  6
CONTINUOUS
 10
7.320004
 20
-4.191968
  0
VERTEX
  8
0
  6
CONTINUOUS
 10
7.353760
 20
-4.206971
  0
VERTEX
  8
0
  6
CONTINUOUS
 10
7.357510
 20
-4.948348
  0
VERTEX
  8
0
  6
CONTINUOUS
 10
7.323755
 20
-4.933345
  0
SEQEND
  8
0
  0
SOLID
  8
0
 62
    15
 10
7.357510
 20
-4.948348
 11
7.353760
 21
-4.206971
 12
7.390016
 22
-4.960850
 13
7.386265
 23
-4.219473
  0
POLYLINE
  8
0
  6
CONTINUOUS
 66
     1
 40
0.000000
 41
0.000000
  0
VERTEX
  8
0
  6
CONTINUOUS
 10
7.357510
 20
-4.948348
  0
VERTEX
  8
0
  6
CONTINUOUS
 10
7.353760
 20
-4.206971
  0
VERTEX
  8
0
  6
CONTINUOUS
 10
7.386265
 20
-4.219473
  0
VERTEX
  8
0
  6
CONTINUOUS
 10
7.390016
 20
-4.960850
  0
VERTEX
  8
0
  6
CONTINUOUS
 10
7.357510
 20
-4.948348
  0
SEQEND
  8
0
  0
SOLID
  8
0
 62
    15
 10
7.390016
 20
-4.960850
 11
7.386265
 21
-4.219473
 12
7.418771
 22
-4.969601
 13
7.416270
 23
-4.228224
  0
POLYLINE
  8
0
  6
CONTINUOUS
 66
     1
 40
0.000000
 41
0.000000
  0
VERTEX
  8
0
  6
CONTINUOUS
 10
7.390016
 20
-4.960850
  0
VERTEX
  8
0
  6
CONTINUOUS
 10
7.386265
 20
-4.219473
  0
VERTEX
  8
0
  6
CONTINUOUS
 10
7.416270
 20
-4.228224
  0
VERTEX
  8
0
  6
CONTINUOUS
 10
7.418771
 20
-4.969601
  0
VERTEX
  8
0
  6
CONTINUOUS
 10
7.390016
 20
-4.960850
  0
SEQEND
  8
0
  0
SOLID
  8
0
 62
    15
 10
7.418771
 20
-4.969601
 11
7.416270
 21
-4.228224
 12
7.443775
 22
-4.974602
 13
7.440025
 23
-4.234475
  0
POLYLINE
  8
0
  6
CONTINUOUS
 66
     1
 40
0.000000
 41
0.000000
  0
VERTEX
  8
0
  6
CONTINUOUS
 10
7.418771
 20
-4.969601
  0
VERTEX
  8
0
  6
CONTINUOUS
 10
7.416270
 20
-4.228224
  0
VERTEX
  8
0
  6
CONTINUOUS
 10
7.440025
 20
-4.234475
  0
VERTEX
  8
0
  6
CONTINUOUS
 10
7.443775
 20
-4.974602
  0
VERTEX
  8
0
  6
CONTINUOUS
 10
7.418771
 20
-4.969601
  0
SEQEND
  8
0
  0
SOLID
  8
0
 62
    15
 10
7.443775
 20
-4.974602
 11
7.440025
 21
-4.234475
 12
7.445025
 22
-4.974602
 13
7.441275
 23
-4.234475
  0
POLYLINE
  8
0
  6
CONTINUOUS
 66
     1
 40
0.000000
 41
0.000000
  0
VERTEX
  8
0
  6
CONTINUOUS
 10
7.443775
 20
-4.974602
  0
VERTEX
  8
0
  6
CONTINUOUS
 10
7.440025
 20
-4.234475
  0
VERTEX
  8
0
  6
CONTINUOUS
 10
7.441275
 20
-4.234475
  0
VERTEX
  8
0
  6
CONTINUOUS
 10
7.445025
 20
-4.974602
  0
VERTEX
  8
0
  6
CONTINUOUS
 10
7.443775
 20
-4.974602
  0
SEQEND
  8
0
  0
POLYLINE
  8
0
  6
CONTINUOUS
 66
     1
 40
0.000000
 41
0.000000
  0
VERTEX
  8
0
  6
CONTINUOUS
 10
7.445025
 20
-4.974602
  0
VERTEX
  8
0
  6
CONTINUOUS
 10
7.445025
 20
-5.142131
  0
VERTEX
  8
0
  6
CONTINUOUS
 10
4.021939
 20
-5.142131
  0
VERTEX
  8
0
  6
CONTINUOUS
 10
4.021939
 20
-4.642045
  0
VERTEX
  8
0
  6
CONTINUOUS
 10
6.897432
 20
-4.642045
  0
VERTEX
  8
0
  6
CONTINUOUS
 10
6.899932
 20
-4.654547
  0
VERTEX
  8
0
  6
CONTINUOUS
 10
6.903683
 20
-4.664549
  0
VERTEX
  8
0
  6
CONTINUOUS
 10
6.911184
 20
-4.679552
  0
VERTEX
  8
0
  6
CONTINUOUS
 10
6.922436
 20
-4.687053
  0
VERTEX
  8
0
  6
CONTINUOUS
 10
6.934938
 20
-4.689553
  0
VERTEX
  8
0
  6
CONTINUOUS
 10
6.947440
 20
-4.690804
  0
VERTEX
  8
0
  6
CONTINUOUS
 10
6.961193
 20
-4.689553
  0
VERTEX
  8
0
  6
CONTINUOUS
 10
6.973695
 20
-4.690804
  0
VERTEX
  8
0
  6
CONTINUOUS
 10
6.983696
 20
-4.695804
  0
VERTEX
  8
0
  6
CONTINUOUS
 10
6.999949
 20
-4.709557
  0
VERTEX
  8
0
  6
CONTINUOUS
 10
7.011201
 20
-4.727060
  0
VERTEX
  8
0
  6
CONTINUOUS
 10
7.014952
 20
-4.738312
  0
VERTEX
  8
0
  6
CONTINUOUS
 10
7.017452
 20
-4.752064
  0
VERTEX
  8
0
  6
CONTINUOUS
 10
7.018702
 20
-4.767067
  0
VERTEX
  8
0
  6
CONTINUOUS
 10
7.018702
 20
-4.785820
  0
VERTEX
  8
0
  6
CONTINUOUS
 10
7.059959
 20
-4.785820
  0
VERTEX
  8
0
  6
CONTINUOUS
 10
7.066211
 20
-4.772067
  0
VERTEX
  8
0
  6
CONTINUOUS
 10
7.078713
 20
-4.763316
  0
VERTEX
  8
0
  6
CONTINUOUS
 10
7.096216
 20
-4.759565
  0
VERTEX
  8
0
  6
CONTINUOUS
 10
7.117469
 20
-4.762066
  0
VERTEX
  8
0
  6
CONTINUOUS
 10
7.139973
 20
-4.770817
  0
VERTEX
  8
0
  6
CONTINUOUS
 10
7.163727
 20
-4.785820
  0
VERTEX
  8
0
  6
CONTINUOUS
 10
7.186231
 20
-4.807073
  0
VERTEX
  8
0
  6
CONTINUOUS
 10
7.207485
 20
-4.835828
  0
VERTEX
  8
0
  6
CONTINUOUS
 10
7.229989
 20
-4.865834
  0
VERTEX
  8
0
  6
CONTINUOUS
 10
7.258743
 20
-4.892088
  0
VERTEX
  8
0
  6
CONTINUOUS
 10
7.289999
 20
-4.914592
  0
VERTEX
  8
0
  6
CONTINUOUS
 10
7.323755
 20
-4.933345
  0
VERTEX
  8
0
  6
CONTINUOUS
 10
7.357510
 20
-4.948348
  0
VERTEX
  8
0
  6
CONTINUOUS
 10
7.390016
 20
-4.960850
  0
VERTEX
  8
0
  6
CONTINUOUS
 10
7.418771
 20
-4.969601
  0
VERTEX
  8
0
  6
CONTINUOUS
 10
7.443775
 20
-4.974602
  0
VERTEX
  8
0
  6
CONTINUOUS
 10
7.445025
 20
-4.974602
  0
SEQEND
  8
0
  0
SOLID
  8
0
 62
    15
 10
3.885666
 20
-4.300737
 11
3.889416
 21
-3.550608
 12
3.926923
 22
-4.273232
 13
3.930673
 23
-3.523104
  0
POLYLINE
  8
0
  6
CONTINUOUS
 66
     1
 40
0.000000
 41
0.000000
  0
VERTEX
  8
0
  6
CONTINUOUS
 10
3.885666
 20
-4.300737
  0
VERTEX
  8
0
  6
CONTINUOUS
 10
3.889416
 20
-3.550608
  0
VERTEX
  8
0
  6
CONTINUOUS
 10
3.930673
 20
-3.523104
  0
VERTEX
  8
0
  6
CONTINUOUS
 10
3.926923
 20
-4.273232
  0
VERTEX
  8
0
  6
CONTINUOUS
 10
3.885666
 20
-4.300737
  0
SEQEND
  8
0
  0
SOLID
  8
0
 62
    15
 10
2.336650
 20
-3.863162
 11
2.341651
 21
-3.114284
 12
3.123035
 22
-3.904419
 13
3.126786
 23
-3.155541
  0
POLYLINE
  8
0
  6
CONTINUOUS
 66
     1
 40
0.000000
 41
0.000000
  0
VERTEX
  8
0
  6
CONTINUOUS
 10
2.336650
 20
-3.863162
  0
VERTEX
  8
0
  6
CONTINUOUS
 10
2.341651
 20
-3.114284
  0
VERTEX
  8
0
  6
CONTINUOUS
 10
3.126786
 20
-3.155541
  0
VERTEX
  8
0
  6
CONTINUOUS
 10
3.123035
 20
-3.904419
  0
VERTEX
  8
0
  6
CONTINUOUS
 10
2.336650
 20
-3.863162
  0
SEQEND
  8
0
  0
SOLID
  8
0
 62
    15
 10
3.123035
 20
-3.904419
 11
3.126786
 21
-3.155541
 12
3.123035
 22
-3.993184
 13
3.126786
 23
-3.243056
  0
POLYLINE
  8
0
  6
CONTINUOUS
 66
     1
 40
0.000000
 41
0.000000
  0
VERTEX
  8
0
  6
CONTINUOUS
 10
3.123035
 20
-3.904419
  0
VERTEX
  8
0
  6
CONTINUOUS
 10
3.126786
 20
-3.155541
  0
VERTEX
  8
0
  6
CONTINUOUS
 10
3.126786
 20
-3.243056
  0
VERTEX
  8
0
  6
CONTINUOUS
 10
3.123035
 20
-3.993184
  0
VERTEX
  8
0
  6
CONTINUOUS
 10
3.123035
 20
-3.904419
  0
SEQEND
  8
0
  0
SOLID
  8
0
 62
    15
 10
3.123035
 20
-3.993184
 11
3.126786
 21
-3.243056
 12
3.301816
 22
-3.993184
 13
3.305566
 23
-3.243056
  0
POLYLINE
  8
0
  6
CONTINUOUS
 66
     1
 40
0.000000
 41
0.000000
  0
VERTEX
  8
0
  6
CONTINUOUS
 10
3.123035
 20
-3.993184
  0
VERTEX
  8
0
  6
CONTINUOUS
 10
3.126786
 20
-3.243056
  0
VERTEX
  8
0
  6
CONTINUOUS
 10
3.305566
 20
-3.243056
  0
VERTEX
  8
0
  6
CONTINUOUS
 10
3.301816
 20
-3.993184
  0
VERTEX
  8
0
  6
CONTINUOUS
 10
3.123035
 20
-3.993184
  0
SEQEND
  8
0
  0
SOLID
  8
0
 62
    15
 10
3.301816
 20
-3.993184
 11
3.305566
 21
-3.243056
 12
3.325570
 22
-4.069447
 13
3.329320
 23
-3.319319
  0
POLYLINE
  8
0
  6
CONTINUOUS
 66
     1
 40
0.000000
 41
0.000000
  0
VERTEX
  8
0
  6
CONTINUOUS
 10
3.301816
 20
-3.993184
  0
VERTEX
  8
0
  6
CONTINUOUS
 10
3.305566
 20
-3.243056
  0
VERTEX
  8
0
  6
CONTINUOUS
 10
3.329320
 20
-3.319319
  0
VERTEX
  8
0
  6
CONTINUOUS
 10
3.325570
 20
-4.069447
  0
VERTEX
  8
0
  6
CONTINUOUS
 10
3.301816
 20
-3.993184
  0
SEQEND
  8
0
  0
SOLID
  8
0
 62
    15
 10
3.325570
 20
-4.069447
 11
3.329320
 21
-3.319319
 12
3.369327
 22
-4.144460
 13
3.373078
 23
-3.394331
  0
POLYLINE
  8
0
  6
CONTINUOUS
 66
     1
 40
0.000000
 41
0.000000
  0
VERTEX
  8
0
  6
CONTINUOUS
 10
3.325570
 20
-4.069447
  0
VERTEX
  8
0
  6
CONTINUOUS
 10
3.329320
 20
-3.319319
  0
VERTEX
  8
0
  6
CONTINUOUS
 10
3.373078
 20
-3.394331
  0
VERTEX
  8
0
  6
CONTINUOUS
 10
3.369327
 20
-4.144460
  0
VERTEX
  8
0
  6
CONTINUOUS
 10
3.325570
 20
-4.069447
  0
SEQEND
  8
0
  0
SOLID
  8
0
 62
    15
 10
3.369327
 20
-4.144460
 11
3.373078
 21
-3.394331
 12
3.430588
 22
-4.214472
 13
3.434338
 23
-3.464343
  0
POLYLINE
  8
0
  6
CONTINUOUS
 66
     1
 40
0.000000
 41
0.000000
  0
VERTEX
  8
0
  6
CONTINUOUS
 10
3.369327
 20
-4.144460
  0
VERTEX
  8
0
  6
CONTINUOUS
 10
3.373078
 20
-3.394331
  0
VERTEX
  8
0
  6
CONTINUOUS
 10
3.434338
 20
-3.464343
  0
VERTEX
  8
0
  6
CONTINUOUS
 10
3.430588
 20
-4.214472
  0
VERTEX
  8
0
  6
CONTINUOUS
 10
3.369327
 20
-4.144460
  0
SEQEND
  8
0
  0
SOLID
  8
0
 62
    15
 10
3.430588
 20
-4.214472
 11
3.434338
 21
-3.464343
 12
3.504350
 22
-4.276983
 13
3.508101
 23
-3.526854
  0
POLYLINE
  8
0
  6
CONTINUOUS
 66
     1
 40
0.000000
 41
0.000000
  0
VERTEX
  8
0
  6
CONTINUOUS
 10
3.430588
 20
-4.214472
  0
VERTEX
  8
0
  6
CONTINUOUS
 10
3.434338
 20
-3.464343
  0
VERTEX
  8
0
  6
CONTINUOUS
 10
3.508101
 20
-3.526854
  0
VERTEX
  8
0
  6
CONTINUOUS
 10
3.504350
 20
-4.276983
  0
VERTEX
  8
0
  6
CONTINUOUS
 10
3.430588
 20
-4.214472
  0
SEQEND
  8
0
  0
SOLID
  8
0
 62
    15
 10
3.504350
 20
-4.276983
 11
3.508101
 21
-3.526854
 12
3.586864
 22
-4.329492
 13
3.590615
 23
-3.579363
  0
POLYLINE
  8
0
  6
CONTINUOUS
 66
     1
 40
0.000000
 41
0.000000
  0
VERTEX
  8
0
  6
CONTINUOUS
 10
3.504350
 20
-4.276983
  0
VERTEX
  8
0
  6
CONTINUOUS
 10
3.508101
 20
-3.526854
  0
VERTEX
  8
0
  6
CONTINUOUS
 10
3.590615
 20
-3.579363
  0
VERTEX
  8
0
  6
CONTINUOUS
 10
3.586864
 20
-4.329492
  0
VERTEX
  8
0
  6
CONTINUOUS
 10
3.504350
 20
-4.276983
  0
SEQEND
  8
0
  0
SOLID
  8
0
 62
    15
 10
3.586864
 20
-4.329492
 11
3.590615
 21
-3.579363
 12
3.674379
 22
-4.368248
 13
3.678130
 23
-3.618120
  0
POLYLINE
  8
0
  6
CONTINUOUS
 66
     1
 40
0.000000
 41
0.000000
  0
VERTEX
  8
0
  6
CONTINUOUS
 10
3.586864
 20
-4.329492
  0
VERTEX
  8
0
  6
CONTINUOUS
 10
3.590615
 20
-3.579363
  0
VERTEX
  8
0
  6
CONTINUOUS
 10
3.678130
 20
-3.618120
  0
VERTEX
  8
0
  6
CONTINUOUS
 10
3.674379
 20
-4.368248
  0
VERTEX
  8
0
  6
CONTINUOUS
 10
3.586864
 20
-4.329492
  0
SEQEND
  8
0
  0
SOLID
  8
0
 62
    15
 10
3.674379
 20
-4.368248
 11
3.678130
 21
-3.618120
 12
3.761894
 22
-4.390752
 13
3.765645
 23
-3.640624
  0
POLYLINE
  8
0
  6
CONTINUOUS
 66
     1
 40
0.000000
 41
0.000000
  0
VERTEX
  8
0
  6
CONTINUOUS
 10
3.674379
 20
-4.368248
  0
VERTEX
  8
0
  6
CONTINUOUS
 10
3.678130
 20
-3.618120
  0
VERTEX
  8
0
  6
CONTINUOUS
 10
3.765645
 20
-3.640624
  0
VERTEX
  8
0
  6
CONTINUOUS
 10
3.761894
 20
-4.390752
  0
VERTEX
  8
0
  6
CONTINUOUS
 10
3.674379
 20
-4.368248
  0
SEQEND
  8
0
  0
SOLID
  8
0
 62
    15
 10
3.761894
 20
-4.390752
 11
3.765645
 21
-3.640624
 12
3.846909
 22
-4.395753
 13
3.850660
 23
-3.645625
  0
POLYLINE
  8
0
  6
CONTINUOUS
 66
     1
 40
0.000000
 41
0.000000
  0
VERTEX
  8
0
  6
CONTINUOUS
 10
3.761894
 20
-4.390752
  0
VERTEX
  8
0
  6
CONTINUOUS
 10
3.765645
 20
-3.640624
  0
VERTEX
  8
0
  6
CONTINUOUS
 10
3.850660
 20
-3.645625
  0
VERTEX
  8
0
  6
CONTINUOUS
 10
3.846909
 20
-4.395753
  0
VERTEX
  8
0
  6
CONTINUOUS
 10
3.761894
 20
-4.390752
  0
SEQEND
  8
0
  0
SOLID
  8
0
 62
    15
 10
3.846909
 20
-4.393253
 11
3.850660
 21
-3.643124
 12
3.856911
 22
-4.343244
 13
3.860661
 23
-3.593116
  0
POLYLINE
  8
0
  6
CONTINUOUS
 66
     1
 40
0.000000
 41
0.000000
  0
VERTEX
  8
0
  6
CONTINUOUS
 10
3.846909
 20
-4.393253
  0
VERTEX
  8
0
  6
CONTINUOUS
 10
3.850660
 20
-3.643124
  0
VERTEX
  8
0
  6
CONTINUOUS
 10
3.860661
 20
-3.593116
  0
VERTEX
  8
0
  6
CONTINUOUS
 10
3.856911
 20
-4.343244
  0
VERTEX
  8
0
  6
CONTINUOUS
 10
3.846909
 20
-4.393253
  0
SEQEND
  8
0
  0
SOLID
  8
0
 62
    15
 10
3.856911
 20
-4.343244
 11
3.860661
 21
-3.593116
 12
3.885666
 22
-4.300737
 13
3.889416
 23
-3.550608
  0
POLYLINE
  8
0
  6
CONTINUOUS
 66
     1
 40
0.000000
 41
0.000000
  0
VERTEX
  8
0
  6
CONTINUOUS
 10
3.856911
 20
-4.343244
  0
VERTEX
  8
0
  6
CONTINUOUS
 10
3.860661
 20
-3.593116
  0
VERTEX
  8
0
  6
CONTINUOUS
 10
3.889416
 20
-3.550608
  0
VERTEX
  8
0
  6
CONTINUOUS
 10
3.885666
 20
-4.300737
  0
VERTEX
  8
0
  6
CONTINUOUS
 10
3.856911
 20
-4.343244
  0
SEQEND
  8
0
  0
SOLID
  8
0
 62
    15
 10
4.025690
 20
-4.642045
 11
4.029440
 21
-3.891917
 12
4.025690
 22
-5.140881
 13
4.029440
 23
-4.390752
  0
POLYLINE
  8
0
  6
CONTINUOUS
 66
     1
 40
0.000000
 41
0.000000
  0
VERTEX
  8
0
  6
CONTINUOUS
 10
4.025690
 20
-4.642045
  0
VERTEX
  8
0
  6
CONTINUOUS
 10
4.029440
 20
-3.891917
  0
VERTEX
  8
0
  6
CONTINUOUS
 10
4.029440
 20
-4.390752
  0
VERTEX
  8
0
  6
CONTINUOUS
 10
4.025690
 20
-5.140881
  0
VERTEX
  8
0
  6
CONTINUOUS
 10
4.025690
 20
-4.642045
  0
SEQEND
  8
0
  0
SOLID
  8
0
 62
    15
 10
3.926923
 20
-4.273232
 11
3.930673
 21
-3.523104
 12
3.976931
 22
-4.261980
 13
3.980682
 23
-3.511852
  0
POLYLINE
  8
0
  6
CONTINUOUS
 66
     1
 40
0.000000
 41
0.000000
  0
VERTEX
  8
0
  6
CONTINUOUS
 10
3.926923
 20
-4.273232
  0
VERTEX
  8
0
  6
CONTINUOUS
 10
3.930673
 20
-3.523104
  0
VERTEX
  8
0
  6
CONTINUOUS
 10
3.980682
 20
-3.511852
  0
VERTEX
  8
0
  6
CONTINUOUS
 10
3.976931
 20
-4.261980
  0
VERTEX
  8
0
  6
CONTINUOUS
 10
3.926923
 20
-4.273232
  0
SEQEND
  8
0
  0
SOLID
  8
0
 62
    15
 10
3.976931
 20
-4.261980
 11
3.980682
 21
-3.511852
 12
4.026940
 22
-4.273232
 13
4.030690
 23
-3.523104
  0
POLYLINE
  8
0
  6
CONTINUOUS
 66
     1
 40
0.000000
 41
0.000000
  0
VERTEX
  8
0
  6
CONTINUOUS
 10
3.976931
 20
-4.261980
  0
VERTEX
  8
0
  6
CONTINUOUS
 10
3.980682
 20
-3.511852
  0
VERTEX
  8
0
  6
CONTINUOUS
 10
4.030690
 20
-3.523104
  0
VERTEX
  8
0
  6
CONTINUOUS
 10
4.026940
 20
-4.273232
  0
VERTEX
  8
0
  6
CONTINUOUS
 10
3.976931
 20
-4.261980
  0
SEQEND
  8
0
  0
SOLID
  8
0
 62
    15
 10
4.026940
 20
-4.273232
 11
4.030690
 21
-3.523104
 12
4.069447
 22
-4.304487
 13
4.073198
 23
-3.554359
  0
POLYLINE
  8
0
  6
CONTINUOUS
 66
     1
 40
0.000000
 41
0.000000
  0
VERTEX
  8
0
  6
CONTINUOUS
 10
4.026940
 20
-4.273232
  0
VERTEX
  8
0
  6
CONTINUOUS
 10
4.030690
 20
-3.523104
  0
VERTEX
  8
0
  6
CONTINUOUS
 10
4.073198
 20
-3.554359
  0
VERTEX
  8
0
  6
CONTINUOUS
 10
4.069447
 20
-4.304487
  0
VERTEX
  8
0
  6
CONTINUOUS
 10
4.026940
 20
-4.273232
  0
SEQEND
  8
0
  0
SOLID
  8
0
 62
    15
 10
4.069447
 20
-4.304487
 11
4.073198
 21
-3.554359
 12
4.096952
 22
-4.346995
 13
4.100702
 23
-3.596866
  0
POLYLINE
  8
0
  6
CONTINUOUS
 66
     1
 40
0.000000
 41
0.000000
  0
VERTEX
  8
0
  6
CONTINUOUS
 10
4.069447
 20
-4.304487
  0
VERTEX
  8
0
  6
CONTINUOUS
 10
4.073198
 20
-3.554359
  0
VERTEX
  8
0
  6
CONTINUOUS
 10
4.100702
 20
-3.596866
  0
VERTEX
  8
0
  6
CONTINUOUS
 10
4.096952
 20
-4.346995
  0
VERTEX
  8
0
  6
CONTINUOUS
 10
4.069447
 20
-4.304487
  0
SEQEND
  8
0
  0
SOLID
  8
0
 62
    15
 10
4.108204
 20
-4.400754
 11
4.111954
 21
-3.650625
 12
4.178216
 22
-4.402004
 13
4.181966
 23
-3.651876
  0
POLYLINE
  8
0
  6
CONTINUOUS
 66
     1
 40
0.000000
 41
0.000000
  0
VERTEX
  8
0
  6
CONTINUOUS
 10
4.108204
 20
-4.400754
  0
VERTEX
  8
0
  6
CONTINUOUS
 10
4.111954
 20
-3.650625
  0
VERTEX
  8
0
  6
CONTINUOUS
 10
4.181966
 20
-3.651876
  0
VERTEX
  8
0
  6
CONTINUOUS
 10
4.178216
 20
-4.402004
  0
VERTEX
  8
0
  6
CONTINUOUS
 10
4.108204
 20
-4.400754
  0
SEQEND
  8
0
  0
SOLID
  8
0
 62
    15
 10
4.108204
 20
-4.398253
 11
4.111954
 21
-3.648125
 12
4.108204
 22
-4.400754
 13
4.111954
 23
-3.650625
  0
POLYLINE
  8
0
  6
CONTINUOUS
 66
     1
 40
0.000000
 41
0.000000
  0
VERTEX
  8
0
  6
CONTINUOUS
 10
4.108204
 20
-4.398253
  0
VERTEX
  8
0
  6
CONTINUOUS
 10
4.111954
 20
-3.648125
  0
VERTEX
  8
0
  6
CONTINUOUS
 10
4.111954
 20
-3.650625
  0
VERTEX
  8
0
  6
CONTINUOUS
 10
4.108204
 20
-4.400754
  0
VERTEX
  8
0
  6
CONTINUOUS
 10
4.108204
 20
-4.398253
  0
SEQEND
  8
0
  0
SOLID
  8
0
 62
    15
 10
4.096952
 20
-4.346995
 11
4.100702
 21
-3.596866
 12
4.108204
 22
-4.398253
 13
4.111954
 23
-3.648125
  0
POLYLINE
  8
0
  6
CONTINUOUS
 66
     1
 40
0.000000
 41
0.000000
  0
VERTEX
  8
0
  6
CONTINUOUS
 10
4.096952
 20
-4.346995
  0
VERTEX
  8
0
  6
CONTINUOUS
 10
4.100702
 20
-3.596866
  0
VERTEX
  8
0
  6
CONTINUOUS
 10
4.111954
 20
-3.648125
  0
VERTEX
  8
0
  6
CONTINUOUS
 10
4.108204
 20
-4.398253
  0
VERTEX
  8
0
  6
CONTINUOUS
 10
4.096952
 20
-4.346995
  0
SEQEND
  8
0
  0
SOLID
  8
0
 62
    15
 10
4.178216
 20
-4.402004
 11
4.181966
 21
-3.651876
 12
4.235726
 22
-4.410756
 13
4.239476
 23
-3.660627
  0
POLYLINE
  8
0
  6
CONTINUOUS
 66
     1
 40
0.000000
 41
0.000000
  0
VERTEX
  8
0
  6
CONTINUOUS
 10
4.178216
 20
-4.402004
  0
VERTEX
  8
0
  6
CONTINUOUS
 10
4.181966
 20
-3.651876
  0
VERTEX
  8
0
  6
CONTINUOUS
 10
4.239476
 20
-3.660627
  0
VERTEX
  8
0
  6
CONTINUOUS
 10
4.235726
 20
-4.410756
  0
VERTEX
  8
0
  6
CONTINUOUS
 10
4.178216
 20
-4.402004
  0
SEQEND
  8
0
  0
SOLID
  8
0
 62
    15
 10
4.235726
 20
-4.410756
 11
4.239476
 21
-3.660627
 12
4.256979
 22
-4.419507
 13
4.260730
 23
-3.669379
  0
POLYLINE
  8
0
  6
CONTINUOUS
 66
     1
 40
0.000000
 41
0.000000
  0
VERTEX
  8
0
  6
CONTINUOUS
 10
4.235726
 20
-4.410756
  0
VERTEX
  8
0
  6
CONTINUOUS
 10
4.239476
 20
-3.660627
  0
VERTEX
  8
0
  6
CONTINUOUS
 10
4.260730
 20
-3.669379
  0
VERTEX
  8
0
  6
CONTINUOUS
 10
4.256979
 20
-4.419507
  0
VERTEX
  8
0
  6
CONTINUOUS
 10
4.235726
 20
-4.410756
  0
SEQEND
  8
0
  0
SOLID
  8
0
 62
    15
 10
4.256979
 20
-4.419507
 11
4.260730
 21
-3.669379
 12
4.273232
 22
-4.432009
 13
4.276983
 23
-3.683131
  0
POLYLINE
  8
0
  6
CONTINUOUS
 66
     1
 40
0.000000
 41
0.000000
  0
VERTEX
  8
0
  6
CONTINUOUS
 10
4.256979
 20
-4.419507
  0
VERTEX
  8
0
  6
CONTINUOUS
 10
4.260730
 20
-3.669379
  0
VERTEX
  8
0
  6
CONTINUOUS
 10
4.276983
 20
-3.683131
  0
VERTEX
  8
0
  6
CONTINUOUS
 10
4.273232
 20
-4.432009
  0
VERTEX
  8
0
  6
CONTINUOUS
 10
4.256979
 20
-4.419507
  0
SEQEND
  8
0
  0
SOLID
  8
0
 62
    15
 10
4.273232
 20
-4.432009
 11
4.276983
 21
-3.683131
 12
4.283234
 22
-4.450762
 13
4.286984
 23
-3.700634
  0
POLYLINE
  8
0
  6
CONTINUOUS
 66
     1
 40
0.000000
 41
0.000000
  0
VERTEX
  8
0
  6
CONTINUOUS
 10
4.273232
 20
-4.432009
  0
VERTEX
  8
0
  6
CONTINUOUS
 10
4.276983
 20
-3.683131
  0
VERTEX
  8
0
  6
CONTINUOUS
 10
4.286984
 20
-3.700634
  0
VERTEX
  8
0
  6
CONTINUOUS
 10
4.283234
 20
-4.450762
  0
VERTEX
  8
0
  6
CONTINUOUS
 10
4.273232
 20
-4.432009
  0
SEQEND
  8
0
  0
SOLID
  8
0
 62
    15
 10
4.285734
 20
-4.478267
 11
4.289485
 21
-3.728139
 12
4.285734
 22
-4.642045
 13
4.289485
 23
-3.891917
  0
POLYLINE
  8
0
  6
CONTINUOUS
 66
     1
 40
0.000000
 41
0.000000
  0
VERTEX
  8
0
  6
CONTINUOUS
 10
4.285734
 20
-4.478267
  0
VERTEX
  8
0
  6
CONTINUOUS
 10
4.289485
 20
-3.728139
  0
VERTEX
  8
0
  6
CONTINUOUS
 10
4.289485
 20
-3.891917
  0
VERTEX
  8
0
  6
CONTINUOUS
 10
4.285734
 20
-4.642045
  0
VERTEX
  8
0
  6
CONTINUOUS
 10
4.285734
 20
-4.478267
  0
SEQEND
  8
0
  0
SOLID
  8
0
 62
    15
 10
4.283234
 20
-4.450762
 11
4.286984
 21
-3.700634
 12
4.286984
 22
-4.475767
 13
4.290735
 23
-3.725638
  0
POLYLINE
  8
0
  6
CONTINUOUS
 66
     1
 40
0.000000
 41
0.000000
  0
VERTEX
  8
0
  6
CONTINUOUS
 10
4.283234
 20
-4.450762
  0
VERTEX
  8
0
  6
CONTINUOUS
 10
4.286984
 20
-3.700634
  0
VERTEX
  8
0
  6
CONTINUOUS
 10
4.290735
 20
-3.725638
  0
VERTEX
  8
0
  6
CONTINUOUS
 10
4.286984
 20
-4.475767
  0
VERTEX
  8
0
  6
CONTINUOUS
 10
4.283234
 20
-4.450762
  0
SEQEND
  8
0
  0
POLYLINE
  8
0
  6
CONTINUOUS
 66
     1
 40
0.000000
 41
0.000000
  0
VERTEX
  8
0
  6
CONTINUOUS
 10
4.278233
 20
-4.642045
  0
VERTEX
  8
0
  6
CONTINUOUS
 10
4.025690
 20
-4.642045
  0
VERTEX
  8
0
  6
CONTINUOUS
 10
4.025690
 20
-5.140881
  0
VERTEX
  8
0
  6
CONTINUOUS
 10
2.336650
 20
-5.140881
  0
VERTEX
  8
0
  6
CONTINUOUS
 10
2.336650
 20
-3.863162
  0
VERTEX
  8
0
  6
CONTINUOUS
 10
3.123035
 20
-3.904419
  0
VERTEX
  8
0
  6
CONTINUOUS
 10
3.123035
 20
-3.993184
  0
VERTEX
  8
0
  6
CONTINUOUS
 10
3.301816
 20
-3.993184
  0
VERTEX
  8
0
  6
CONTINUOUS
 10
3.325570
 20
-4.069447
  0
VERTEX
  8
0
  6
CONTINUOUS
 10
3.369327
 20
-4.144460
  0
VERTEX
  8
0
  6
CONTINUOUS
 10
3.430588
 20
-4.214472
  0
VERTEX
  8
0
  6
CONTINUOUS
 10
3.504350
 20
-4.276983
  0
VERTEX
  8
0
  6
CONTINUOUS
 10
3.586864
 20
-4.329492
  0
VERTEX
  8
0
  6
CONTINUOUS
 10
3.674379
 20
-4.368248
  0
VERTEX
  8
0
  6
CONTINUOUS
 10
3.761894
 20
-4.390752
  0
VERTEX
  8
0
  6
CONTINUOUS
 10
3.846909
 20
-4.395753
  0
VERTEX
  8
0
  6
CONTINUOUS
 10
3.846909
 20
-4.393253
  0
VERTEX
  8
0
  6
CONTINUOUS
 10
3.856911
 20
-4.343244
  0
VERTEX
  8
0
  6
CONTINUOUS
 10
3.885666
 20
-4.300737
  0
VERTEX
  8
0
  6
CONTINUOUS
 10
3.926923
 20
-4.273232
  0
VERTEX
  8
0
  6
CONTINUOUS
 10
3.976931
 20
-4.261980
  0
VERTEX
  8
0
  6
CONTINUOUS
 10
4.026940
 20
-4.273232
  0
VERTEX
  8
0
  6
CONTINUOUS
 10
4.069447
 20
-4.304487
  0
VERTEX
  8
0
  6
CONTINUOUS
 10
4.096952
 20
-4.346995
  0
VERTEX
  8
0
  6
CONTINUOUS
 10
4.108204
 20
-4.398253
  0
VERTEX
  8
0
  6
CONTINUOUS
 10
4.108204
 20
-4.400754
  0
VERTEX
  8
0
  6
CONTINUOUS
 10
4.178216
 20
-4.402004
  0
VERTEX
  8
0
  6
CONTINUOUS
 10
4.235726
 20
-4.410756
  0
VERTEX
  8
0
  6
CONTINUOUS
 10
4.256979
 20
-4.419507
  0
VERTEX
  8
0
  6
CONTINUOUS
 10
4.273232
 20
-4.432009
  0
VERTEX
  8
0
  6
CONTINUOUS
 10
4.283234
 20
-4.450762
  0
VERTEX
  8
0
  6
CONTINUOUS
 10
4.286984
 20
-4.475767
  0
VERTEX
  8
0
  6
CONTINUOUS
 10
4.285734
 20
-4.478267
  0
VERTEX
  8
0
  6
CONTINUOUS
 10
4.285734
 20
-4.642045
  0
VERTEX
  8
0
  6
CONTINUOUS
 10
4.278233
 20
-4.642045
  0
SEQEND
  8
0
  0
TEXT
  8
0
 10
2.480425
 20
-5.040864
 40
0.132635
  1
A
 41
1.000000
  7
SN1
 71
     0
 72
     5
 11
2.588940
 21
-5.040864
  0
TEXT
  8
0
 10
4.158212
 20
-5.039613
 40
0.132635
  1
B
 41
1.000000
  7
SN1
 71
     0
 72
     5
 11
4.266728
 21
-5.039613
  0
POLYLINE
  8
0
  6
CONTINUOUS
 66
     1
 40
0.013752
 41
0.013752
  0
VERTEX
  8
0
  6
CONTINUOUS
 10
4.276983
 20
-2.394160
  0
VERTEX
  8
0
  6
CONTINUOUS
 10
4.276983
 20
-2.212879
  0
VERTEX
  8
0
  6
CONTINUOUS
 10
4.264481
 20
-2.182874
  0
VERTEX
  8
0
  6
CONTINUOUS
 10
4.248228
 20
-2.170372
  0
VERTEX
  8
0
  6
CONTINUOUS
 10
4.200720
 20
-2.155369
  0
VERTEX
  8
0
  6
CONTINUOUS
 10
4.099452
 20
-2.151619
  0
VERTEX
  8
0
  6
CONTINUOUS
 10
4.096952
 20
-2.122864
  0
VERTEX
  8
0
  6
CONTINUOUS
 10
4.089451
 20
-2.097859
  0
VERTEX
  8
0
  6
CONTINUOUS
 10
4.060696
 20
-2.055352
  0
VERTEX
  8
0
  6
CONTINUOUS
 10
4.018188
 20
-2.024097
  0
VERTEX
  8
0
  6
CONTINUOUS
 10
3.994434
 20
-2.015345
  0
VERTEX
  8
0
  6
CONTINUOUS
 10
3.968180
 20
-2.012845
  0
VERTEX
  8
0
  6
CONTINUOUS
 10
3.941925
 20
-2.015345
  0
VERTEX
  8
0
  6
CONTINUOUS
 10
3.918171
 20
-2.022847
  0
VERTEX
  8
0
  6
CONTINUOUS
 10
3.876914
 20
-2.051601
  0
VERTEX
  8
0
  6
CONTINUOUS
 10
3.848159
 20
-2.094109
  0
VERTEX
  8
0
  6
CONTINUOUS
 10
3.840658
 20
-2.117863
  0
VERTEX
  8
0
  6
CONTINUOUS
 10
3.838158
 20
-2.146618
  0
VERTEX
  8
0
  6
CONTINUOUS
 10
3.796900
 20
-2.146618
  0
VERTEX
  8
0
  6
CONTINUOUS
 10
3.709385
 20
-2.132865
  0
VERTEX
  8
0
  6
CONTINUOUS
 10
3.621870
 20
-2.101610
  0
VERTEX
  8
0
  6
CONTINUOUS
 10
3.535606
 20
-2.055352
  0
VERTEX
  8
0
  6
CONTINUOUS
 10
3.458092
 20
-1.997842
  0
VERTEX
  8
0
  6
CONTINUOUS
 10
3.389331
 20
-1.930331
  0
VERTEX
  8
0
  6
CONTINUOUS
 10
3.360576
 20
-1.895325
  0
VERTEX
  8
0
  6
CONTINUOUS
 10
3.316818
 20
-1.820312
  0
VERTEX
  8
0
  6
CONTINUOUS
 10
3.301816
 20
-1.781555
  0
VERTEX
  8
0
  6
CONTINUOUS
 10
3.293064
 20
-1.742799
  0
VERTEX
  8
0
  6
CONTINUOUS
 10
3.114284
 20
-1.742799
  0
VERTEX
  8
0
  6
CONTINUOUS
 10
3.114284
 20
-1.655284
  0
VERTEX
  8
0
  6
CONTINUOUS
 10
2.327899
 20
-1.612776
  0
VERTEX
  8
0
  6
CONTINUOUS
 10
2.327899
 20
-2.894246
  0
VERTEX
  8
0
  6
CONTINUOUS
 10
4.016938
 20
-2.894246
  0
VERTEX
  8
0
  6
CONTINUOUS
 10
4.016938
 20
-2.394160
  0
VERTEX
  8
0
  6
CONTINUOUS
 10
4.276983
 20
-2.394160
  0
SEQEND
  8
0
  0
POLYLINE
  8
0
  6
CONTINUOUS
 66
     1
 40
0.013752
 41
0.013752
  0
VERTEX
  8
0
  6
CONTINUOUS
 10
7.422522
 20
-2.722966
  0
VERTEX
  8
0
  6
CONTINUOUS
 10
7.422522
 20
-2.890495
  0
VERTEX
  8
0
  6
CONTINUOUS
 10
3.999435
 20
-2.890495
  0
VERTEX
  8
0
  6
CONTINUOUS
 10
3.999435
 20
-2.386659
  0
VERTEX
  8
0
  6
CONTINUOUS
 10
6.874928
 20
-2.386659
  0
VERTEX
  8
0
  6
CONTINUOUS
 10
6.877428
 20
-2.399161
  0
VERTEX
  8
0
  6
CONTINUOUS
 10
6.879929
 20
-2.410413
  0
VERTEX
  8
0
  6
CONTINUOUS
 10
6.884929
 20
-2.417914
  0
VERTEX
  8
0
  6
CONTINUOUS
 10
6.888680
 20
-2.424165
  0
VERTEX
  8
0
  6
CONTINUOUS
 10
6.899932
 20
-2.431667
  0
VERTEX
  8
0
  6
CONTINUOUS
 10
6.912434
 20
-2.435417
  0
VERTEX
  8
0
  6
CONTINUOUS
 10
6.938689
 20
-2.435417
  0
VERTEX
  8
0
  6
CONTINUOUS
 10
6.951191
 20
-2.436667
  0
VERTEX
  8
0
  6
CONTINUOUS
 10
6.961193
 20
-2.440418
  0
VERTEX
  8
0
  6
CONTINUOUS
 10
6.977445
 20
-2.455421
  0
VERTEX
  8
0
  6
CONTINUOUS
 10
6.988697
 20
-2.472924
  0
VERTEX
  8
0
  6
CONTINUOUS
 10
6.992448
 20
-2.484176
  0
VERTEX
  8
0
  6
CONTINUOUS
 10
6.994948
 20
-2.497928
  0
VERTEX
  8
0
  6
CONTINUOUS
 10
6.996199
 20
-2.512930
  0
VERTEX
  8
0
  6
CONTINUOUS
 10
6.996199
 20
-2.531684
  0
VERTEX
  8
0
  6
CONTINUOUS
 10
7.037456
 20
-2.531684
  0
VERTEX
  8
0
  6
CONTINUOUS
 10
7.039956
 20
-2.524182
  0
VERTEX
  8
0
  6
CONTINUOUS
 10
7.043707
 20
-2.517931
  0
VERTEX
  8
0
  6
CONTINUOUS
 10
7.049958
 20
-2.512930
  0
VERTEX
  8
0
  6
CONTINUOUS
 10
7.056209
 20
-2.509180
  0
VERTEX
  8
0
  6
CONTINUOUS
 10
7.073712
 20
-2.506679
  0
VERTEX
  8
0
  6
CONTINUOUS
 10
7.094965
 20
-2.509180
  0
VERTEX
  8
0
  6
CONTINUOUS
 10
7.117469
 20
-2.516681
  0
VERTEX
  8
0
  6
CONTINUOUS
 10
7.141223
 20
-2.531684
  0
VERTEX
  8
0
  6
CONTINUOUS
 10
7.152475
 20
-2.541685
  0
VERTEX
  8
0
  6
CONTINUOUS
 10
7.163727
 20
-2.554188
  0
VERTEX
  8
0
  6
CONTINUOUS
 10
7.174979
 20
-2.567940
  0
VERTEX
  8
0
  6
CONTINUOUS
 10
7.184981
 20
-2.582942
  0
VERTEX
  8
0
  6
CONTINUOUS
 10
7.196233
 20
-2.599195
  0
VERTEX
  8
0
  6
CONTINUOUS
 10
7.207485
 20
-2.612948
  0
VERTEX
  8
0
  6
CONTINUOUS
 10
7.236240
 20
-2.639202
  0
VERTEX
  8
0
  6
CONTINUOUS
 10
7.267495
 20
-2.661706
  0
VERTEX
  8
0
  6
CONTINUOUS
 10
7.301251
 20
-2.681709
  0
VERTEX
  8
0
  6
CONTINUOUS
 10
7.335007
 20
-2.696712
  0
VERTEX
  8
0
  6
CONTINUOUS
 10
7.367512
 20
-2.707964
  0
VERTEX
  8
0
  6
CONTINUOUS
 10
7.396267
 20
-2.716715
  0
VERTEX
  8
0
  6
CONTINUOUS
 10
7.421271
 20
-2.722966
  0
VERTEX
  8
0
  6
CONTINUOUS
 10
7.422522
 20
-2.722966
  0
SEQEND
  8
0
  0
TEXT
  8
0
 10
4.139459
 20
-2.605446
 40
0.132635
  1
BA  268A 1-5/8" x 1-15/16"
 41
1.000000
  7
SN1
 71
     0
 72
     5
 11
6.068141
 21
-2.605446
  0
TEXT
  8
0
 10
4.139459
 20
-2.797979
 40
0.132635
  1
BA  268B 1/2" x 3-7/16"
 41
1.000000
  7
SN1
 71
     0
 72
     5
 11
5.835194
 21
-2.797979
  0
ENDSEC
  0
EOF
