  0
SECTION
  2
HEADER
  9
$ACADVER
  1
AC1006
  9
$EXTMIN
 10
0.953040
 20
0.337040
  9
$EXTMAX
 10
8.032200
 20
7.894480
  9
$LTSCALE
 40
0.044000
  9
$PDMODE
 70
    35
  9
$PDSIZE
 40
0.035200
  0
ENDSEC
  0
SECTION
  2
TABLES
  0
TABLE
  2
LTYPE
 70
     9
  0
LTYPE
  2
CONTINUOUS
 70
    64
  3
Solid line
 72
    65
 73
     0
 40
0.000000
  0
LTYPE
  2
DASHED
 70
    64
  3
__ __ __ __ __ __ __ __ __ __ __ __ __ __ __
 72
    65
 73
     2
 40
0.000330
 49
0.000220
 49
-0.000110
  0
LTYPE
  2
HIDDEN
 70
    64
  3
 _ _ _ _ _ _ _ _ _ _ _ _ _ _ _ _ _ _ _ _ _ _
 72
    65
 73
     2
 40
0.000165
 49
0.000110
 49
-0.000055
  0
LTYPE
  2
CENTER
 70
    64
  3
____ _ ____ _ ____ _ ____ _ ____ _ ____ _ ____
 72
    65
 73
     4
 40
0.000880
 49
0.000550
 49
-0.000110
 49
0.000110
 49
-0.000110
  0
LTYPE
  2
PHANTOM
 70
    64
  3
_____ _ _ _____ _ _ _____ _ _ _____ _ _ ____
 72
    65
 73
     6
 40
0.001100
 49
0.000550
 49
-0.000110
 49
0.000110
 49
-0.000110
 49
0.000110
 49
-0.000110
  0
LTYPE
  2
DOT
 70
    64
  3
...............................................
 72
    65
 73
     2
 40
0.000110
 49
0.000000
 49
-0.000110
  0
LTYPE
  2
DASHDOT
 70
    64
  3
__ . __ . __ . __ . __ . __ . __ . __ . __ . __
 72
    65
 73
     4
 40
0.000440
 49
0.000220
 49
-0.000110
 49
0.000000
 49
-0.000110
  0
LTYPE
  2
BORDER
 70
    64
  3
__ __ . __ __ . __ __ . __ __ . __ __ . __ __
 72
    65
 73
     6
 40
0.000770
 49
0.000220
 49
-0.000110
 49
0.000220
 49
-0.000110
 49
0.000000
 49
-0.000110
  0
LTYPE
  2
DIVIDE
 70
    64
  3
__ . . __ . . __ . . __ . . __ . . __ . . __
 72
    65
 73
     6
 40
0.000550
 49
0.000220
 49
-0.000110
 49
0.000000
 49
-0.000110
 49
0.000000
 49
-0.000110
  0
LTYPE
  2
DOTDOT
 70
    64
  3
 . .  . .  . .  . .  . .  . . 
 72
    65
 73
     5
 40
0.000242
 49
-0.000110
 49
0.000000
 49
-0.000110
 49
0.000000
 49
-0.000110
  0
ENDTAB
  0
TABLE
  2
STYLE
 70
     2
  0
STYLE
 70
     0
  2
SN0
 40
0.000000
 41
0.000440
 50
0.000000
 71
     0
 42
0.000000
  3
ROMAND
  0
STYLE
 70
    68
  2
SV0
 40
0.000000
 41
0.000440
 50
0.000000
 71
     0
 42
0.000000
  3
ROMAND
  0
ENDTAB
  0
TABLE
  2
LAYER
 70
     3
  0
LAYER
  2
FOREGROUND
 70
    64
 62
     7
  6
CONTINUOUS
  0
LAYER
  2
BACKGROUND
 70
    65
 62
    -7
  6
CONTINUOUS
  0
LAYER
  2
0
 70
    64
 62
     7
  6
CONTINUOUS
  0
ENDTAB
  0
ENDSEC
  0
SECTION
  2
ENTITIES
  0
POLYLINE
  8
FOREGROUND
  6
CONTINUOUS
 66
     1
 40
0.000000
 41
0.000000
  0
VERTEX
  8
FOREGROUND
  6
CONTINUOUS
 10
0.000000
 20
8.231520
  0
VERTEX
  8
FOREGROUND
  6
CONTINUOUS
 10
8.499920
 20
8.231520
  0
VERTEX
  8
FOREGROUND
  6
CONTINUOUS
 10
8.499920
 20
-2.768480
  0
VERTEX
  8
FOREGROUND
  6
CONTINUOUS
 10
0.000000
 20
-2.768480
  0
VERTEX
  8
FOREGROUND
  6
CONTINUOUS
 10
0.000000
 20
8.231520
  0
SEQEND
  8
0
  0
POLYLINE
  8
FOREGROUND
  6
CONTINUOUS
 66
     1
 40
0.000000
 41
0.000000
  0
VERTEX
  8
FOREGROUND
  6
CONTINUOUS
 10
0.000000
 20
8.231520
  0
VERTEX
  8
FOREGROUND
  6
CONTINUOUS
 10
8.499920
 20
8.231520
  0
VERTEX
  8
FOREGROUND
  6
CONTINUOUS
 10
8.499920
 20
-2.768480
  0
VERTEX
  8
FOREGROUND
  6
CONTINUOUS
 10
0.000000
 20
-2.768480
  0
VERTEX
  8
FOREGROUND
  6
CONTINUOUS
 10
0.000000
 20
8.231520
  0
SEQEND
  8
0
  0
POLYLINE
  8
0
  6
CONTINUOUS
 66
     1
 40
0.014080
 41
0.014080
  0
VERTEX
  8
0
  6
CONTINUOUS
 10
6.794920
 20
7.045720
  0
VERTEX
  8
0
  6
CONTINUOUS
 10
6.748720
 20
7.089280
  0
VERTEX
  8
0
  6
CONTINUOUS
 10
6.702520
 20
7.130200
  0
VERTEX
  8
0
  6
CONTINUOUS
 10
6.655440
 20
7.168920
  0
VERTEX
  8
0
  6
CONTINUOUS
 10
6.607480
 20
7.205440
  0
VERTEX
  8
0
  6
CONTINUOUS
 10
6.511120
 20
7.271440
  0
VERTEX
  8
0
  6
CONTINUOUS
 10
6.412560
 20
7.328640
  0
VERTEX
  8
0
  6
CONTINUOUS
 10
6.362400
 20
7.354160
  0
VERTEX
  8
0
  6
CONTINUOUS
 10
6.312240
 20
7.377480
  0
VERTEX
  8
0
  6
CONTINUOUS
 10
6.261200
 20
7.399040
  0
VERTEX
  8
0
  6
CONTINUOUS
 10
6.210160
 20
7.418400
  0
VERTEX
  8
0
  6
CONTINUOUS
 10
6.158680
 20
7.436000
  0
VERTEX
  8
0
  6
CONTINUOUS
 10
6.106760
 20
7.451840
  0
VERTEX
  8
0
  6
CONTINUOUS
 10
6.002040
 20
7.477800
  0
VERTEX
  8
0
  6
CONTINUOUS
 10
5.896440
 20
7.496720
  0
VERTEX
  8
0
  6
CONTINUOUS
 10
5.843200
 20
7.503760
  0
VERTEX
  8
0
  6
CONTINUOUS
 10
5.735840
 20
7.513000
  0
VERTEX
  8
0
  6
CONTINUOUS
 10
5.628040
 20
7.516080
  0
VERTEX
  8
0
  6
CONTINUOUS
 10
5.519360
 20
7.513440
  0
VERTEX
  8
0
  6
CONTINUOUS
 10
5.410240
 20
7.505520
  0
VERTEX
  8
0
  6
CONTINUOUS
 10
5.300680
 20
7.492320
  0
VERTEX
  8
0
  6
CONTINUOUS
 10
5.191120
 20
7.474720
  0
VERTEX
  8
0
  6
CONTINUOUS
 10
5.081560
 20
7.452720
  0
VERTEX
  8
0
  6
CONTINUOUS
 10
4.972000
 20
7.426760
  0
VERTEX
  8
0
  6
CONTINUOUS
 10
4.862440
 20
7.397280
  0
VERTEX
  8
0
  6
CONTINUOUS
 10
4.699200
 20
7.346680
  0
VERTEX
  8
0
  6
CONTINUOUS
 10
4.591400
 20
7.309720
  0
VERTEX
  8
0
  6
CONTINUOUS
 10
4.484040
 20
7.270120
  0
VERTEX
  8
0
  6
CONTINUOUS
 10
4.377560
 20
7.228760
  0
VERTEX
  8
0
  6
CONTINUOUS
 10
4.271960
 20
7.185640
  0
VERTEX
  8
0
  6
CONTINUOUS
 10
4.065160
 20
7.095440
  0
VERTEX
  8
0
  6
CONTINUOUS
 10
3.765960
 20
6.956840
  0
VERTEX
  8
0
  6
CONTINUOUS
 10
3.394600
 20
6.779520
  0
VERTEX
  8
0
  6
CONTINUOUS
 10
3.219040
 20
6.701640
  0
VERTEX
  8
0
  6
CONTINUOUS
 10
3.091000
 20
6.649280
  0
VERTEX
  8
0
  6
CONTINUOUS
 10
2.925560
 20
6.587240
  0
VERTEX
  8
0
  6
CONTINUOUS
 10
2.845040
 20
6.559520
  0
VERTEX
  8
0
  6
CONTINUOUS
 10
2.765840
 20
6.534000
  0
VERTEX
  8
0
  6
CONTINUOUS
 10
2.650120
 20
6.500560
  0
VERTEX
  8
0
  6
CONTINUOUS
 10
2.537480
 20
6.472400
  0
VERTEX
  8
0
  6
CONTINUOUS
 10
2.427920
 20
6.449520
  0
VERTEX
  8
0
  6
CONTINUOUS
 10
2.357080
 20
6.437200
  0
VERTEX
  8
0
  6
CONTINUOUS
 10
2.253240
 20
6.423560
  0
VERTEX
  8
0
  6
CONTINUOUS
 10
2.152480
 20
6.415640
  0
VERTEX
  8
0
  6
CONTINUOUS
 10
2.055240
 20
6.413000
  0
VERTEX
  8
0
  6
CONTINUOUS
 10
1.992320
 20
6.414760
  0
VERTEX
  8
0
  6
CONTINUOUS
 10
1.930720
 20
6.418720
  0
VERTEX
  8
0
  6
CONTINUOUS
 10
1.870880
 20
6.425320
  0
VERTEX
  8
0
  6
CONTINUOUS
 10
1.783760
 20
6.440280
  0
VERTEX
  8
0
  6
CONTINUOUS
 10
1.699720
 20
6.461400
  0
VERTEX
  8
0
  6
CONTINUOUS
 10
1.645600
 20
6.478560
  0
VERTEX
  8
0
  6
CONTINUOUS
 10
1.567720
 20
6.509360
  0
VERTEX
  8
0
  6
CONTINUOUS
 10
1.517120
 20
6.533560
  0
VERTEX
  8
0
  6
CONTINUOUS
 10
1.444960
 20
6.574920
  0
VERTEX
  8
0
  6
CONTINUOUS
 10
1.398320
 20
6.605720
  0
VERTEX
  8
0
  6
CONTINUOUS
 10
1.353440
 20
6.639160
  0
VERTEX
  8
0
  6
CONTINUOUS
 10
1.331440
 20
6.657200
  0
VERTEX
  8
0
  6
CONTINUOUS
 10
1.327480
 20
6.657200
  0
VERTEX
  8
0
  6
CONTINUOUS
 10
0.958760
 20
6.288480
  0
VERTEX
  8
0
  6
CONTINUOUS
 10
1.346400
 20
5.915800
  0
VERTEX
  8
0
  6
CONTINUOUS
 10
5.652680
 20
5.892920
  0
VERTEX
  8
0
  6
CONTINUOUS
 10
6.798880
 20
7.040440
  0
VERTEX
  8
0
  6
CONTINUOUS
 10
6.794920
 20
7.045720
  0
SEQEND
  8
0
  0
SOLID
  8
0
 62
    15
 10
5.009400
 20
2.779920
 11
5.672480
 21
2.400640
 12
4.837360
 22
2.366760
 13
5.500440
 23
1.987920
  0
POLYLINE
  8
0
  6
CONTINUOUS
 66
     1
 40
0.000000
 41
0.000000
  0
VERTEX
  8
0
  6
CONTINUOUS
 10
5.009400
 20
2.779920
  0
VERTEX
  8
0
  6
CONTINUOUS
 10
5.672480
 20
2.400640
  0
VERTEX
  8
0
  6
CONTINUOUS
 10
5.500440
 20
1.987920
  0
VERTEX
  8
0
  6
CONTINUOUS
 10
4.837360
 20
2.366760
  0
VERTEX
  8
0
  6
CONTINUOUS
 10
5.009400
 20
2.779920
  0
SEQEND
  8
0
  0
SOLID
  8
0
 62
    15
 10
6.618480
 20
4.770920
 11
7.281120
 21
4.392080
 12
6.615400
 22
4.768280
 13
7.278040
 23
4.389440
  0
POLYLINE
  8
0
  6
CONTINUOUS
 66
     1
 40
0.000000
 41
0.000000
  0
VERTEX
  8
0
  6
CONTINUOUS
 10
6.618480
 20
4.770920
  0
VERTEX
  8
0
  6
CONTINUOUS
 10
7.281120
 20
4.392080
  0
VERTEX
  8
0
  6
CONTINUOUS
 10
7.278040
 20
4.389440
  0
VERTEX
  8
0
  6
CONTINUOUS
 10
6.615400
 20
4.768280
  0
VERTEX
  8
0
  6
CONTINUOUS
 10
6.618480
 20
4.770920
  0
SEQEND
  8
0
  0
SOLID
  8
0
 62
    15
 10
6.615400
 20
4.768280
 11
7.278040
 21
4.389440
 12
6.395400
 22
4.730880
 13
7.058040
 23
4.351600
  0
POLYLINE
  8
0
  6
CONTINUOUS
 66
     1
 40
0.000000
 41
0.000000
  0
VERTEX
  8
0
  6
CONTINUOUS
 10
6.615400
 20
4.768280
  0
VERTEX
  8
0
  6
CONTINUOUS
 10
7.278040
 20
4.389440
  0
VERTEX
  8
0
  6
CONTINUOUS
 10
7.058040
 20
4.351600
  0
VERTEX
  8
0
  6
CONTINUOUS
 10
6.395400
 20
4.730880
  0
VERTEX
  8
0
  6
CONTINUOUS
 10
6.615400
 20
4.768280
  0
SEQEND
  8
0
  0
SOLID
  8
0
 62
    15
 10
6.395400
 20
4.730880
 11
7.058040
 21
4.351600
 12
6.187720
 22
4.644640
 13
6.850360
 23
4.265800
  0
POLYLINE
  8
0
  6
CONTINUOUS
 66
     1
 40
0.000000
 41
0.000000
  0
VERTEX
  8
0
  6
CONTINUOUS
 10
6.395400
 20
4.730880
  0
VERTEX
  8
0
  6
CONTINUOUS
 10
7.058040
 20
4.351600
  0
VERTEX
  8
0
  6
CONTINUOUS
 10
6.850360
 20
4.265800
  0
VERTEX
  8
0
  6
CONTINUOUS
 10
6.187720
 20
4.644640
  0
VERTEX
  8
0
  6
CONTINUOUS
 10
6.395400
 20
4.730880
  0
SEQEND
  8
0
  0
SOLID
  8
0
 62
    15
 10
6.187720
 20
4.644640
 11
6.850360
 21
4.265800
 12
5.991920
 22
4.511320
 13
6.654560
 23
4.132480
  0
POLYLINE
  8
0
  6
CONTINUOUS
 66
     1
 40
0.000000
 41
0.000000
  0
VERTEX
  8
0
  6
CONTINUOUS
 10
6.187720
 20
4.644640
  0
VERTEX
  8
0
  6
CONTINUOUS
 10
6.850360
 20
4.265800
  0
VERTEX
  8
0
  6
CONTINUOUS
 10
6.654560
 20
4.132480
  0
VERTEX
  8
0
  6
CONTINUOUS
 10
5.991920
 20
4.511320
  0
VERTEX
  8
0
  6
CONTINUOUS
 10
6.187720
 20
4.644640
  0
SEQEND
  8
0
  0
SOLID
  8
0
 62
    15
 10
5.991920
 20
4.511320
 11
6.654560
 21
4.132480
 12
5.807120
 22
4.331800
 13
6.469760
 23
3.952520
  0
POLYLINE
  8
0
  6
CONTINUOUS
 66
     1
 40
0.000000
 41
0.000000
  0
VERTEX
  8
0
  6
CONTINUOUS
 10
5.991920
 20
4.511320
  0
VERTEX
  8
0
  6
CONTINUOUS
 10
6.654560
 20
4.132480
  0
VERTEX
  8
0
  6
CONTINUOUS
 10
6.469760
 20
3.952520
  0
VERTEX
  8
0
  6
CONTINUOUS
 10
5.807120
 20
4.331800
  0
VERTEX
  8
0
  6
CONTINUOUS
 10
5.991920
 20
4.511320
  0
SEQEND
  8
0
  0
SOLID
  8
0
 62
    15
 10
5.807120
 20
4.331800
 11
6.469760
 21
3.952520
 12
5.632000
 22
4.106960
 13
6.295080
 23
3.727680
  0
POLYLINE
  8
0
  6
CONTINUOUS
 66
     1
 40
0.000000
 41
0.000000
  0
VERTEX
  8
0
  6
CONTINUOUS
 10
5.807120
 20
4.331800
  0
VERTEX
  8
0
  6
CONTINUOUS
 10
6.469760
 20
3.952520
  0
VERTEX
  8
0
  6
CONTINUOUS
 10
6.295080
 20
3.727680
  0
VERTEX
  8
0
  6
CONTINUOUS
 10
5.632000
 20
4.106960
  0
VERTEX
  8
0
  6
CONTINUOUS
 10
5.807120
 20
4.331800
  0
SEQEND
  8
0
  0
SOLID
  8
0
 62
    15
 10
5.632000
 20
4.106960
 11
6.295080
 21
3.727680
 12
5.467000
 22
3.837680
 13
6.129640
 23
3.458840
  0
POLYLINE
  8
0
  6
CONTINUOUS
 66
     1
 40
0.000000
 41
0.000000
  0
VERTEX
  8
0
  6
CONTINUOUS
 10
5.632000
 20
4.106960
  0
VERTEX
  8
0
  6
CONTINUOUS
 10
6.295080
 20
3.727680
  0
VERTEX
  8
0
  6
CONTINUOUS
 10
6.129640
 20
3.458840
  0
VERTEX
  8
0
  6
CONTINUOUS
 10
5.467000
 20
3.837680
  0
VERTEX
  8
0
  6
CONTINUOUS
 10
5.632000
 20
4.106960
  0
SEQEND
  8
0
  0
SOLID
  8
0
 62
    15
 10
5.467000
 20
3.837680
 11
6.129640
 21
3.458840
 12
5.310360
 22
3.525720
 13
5.973000
 23
3.146880
  0
POLYLINE
  8
0
  6
CONTINUOUS
 66
     1
 40
0.000000
 41
0.000000
  0
VERTEX
  8
0
  6
CONTINUOUS
 10
5.467000
 20
3.837680
  0
VERTEX
  8
0
  6
CONTINUOUS
 10
6.129640
 20
3.458840
  0
VERTEX
  8
0
  6
CONTINUOUS
 10
5.973000
 20
3.146880
  0
VERTEX
  8
0
  6
CONTINUOUS
 10
5.310360
 20
3.525720
  0
VERTEX
  8
0
  6
CONTINUOUS
 10
5.467000
 20
3.837680
  0
SEQEND
  8
0
  0
SOLID
  8
0
 62
    15
 10
5.310360
 20
3.525720
 11
5.973000
 21
3.146880
 12
5.161640
 22
3.171960
 13
5.824280
 23
2.792680
  0
POLYLINE
  8
0
  6
CONTINUOUS
 66
     1
 40
0.000000
 41
0.000000
  0
VERTEX
  8
0
  6
CONTINUOUS
 10
5.310360
 20
3.525720
  0
VERTEX
  8
0
  6
CONTINUOUS
 10
5.973000
 20
3.146880
  0
VERTEX
  8
0
  6
CONTINUOUS
 10
5.824280
 20
2.792680
  0
VERTEX
  8
0
  6
CONTINUOUS
 10
5.161640
 20
3.171960
  0
VERTEX
  8
0
  6
CONTINUOUS
 10
5.310360
 20
3.525720
  0
SEQEND
  8
0
  0
SOLID
  8
0
 62
    15
 10
5.161640
 20
3.171960
 11
5.824280
 21
2.792680
 12
5.009400
 22
2.779920
 13
5.672480
 23
2.400640
  0
POLYLINE
  8
0
  6
CONTINUOUS
 66
     1
 40
0.000000
 41
0.000000
  0
VERTEX
  8
0
  6
CONTINUOUS
 10
5.161640
 20
3.171960
  0
VERTEX
  8
0
  6
CONTINUOUS
 10
5.824280
 20
2.792680
  0
VERTEX
  8
0
  6
CONTINUOUS
 10
5.672480
 20
2.400640
  0
VERTEX
  8
0
  6
CONTINUOUS
 10
5.009400
 20
2.779920
  0
VERTEX
  8
0
  6
CONTINUOUS
 10
5.161640
 20
3.171960
  0
SEQEND
  8
0
  0
SOLID
  8
0
 62
    15
 10
6.633880
 20
5.292320
 11
7.296520
 21
4.913040
 12
6.618480
 22
4.770920
 13
7.281120
 23
4.392080
  0
POLYLINE
  8
0
  6
CONTINUOUS
 66
     1
 40
0.000000
 41
0.000000
  0
VERTEX
  8
0
  6
CONTINUOUS
 10
6.633880
 20
5.292320
  0
VERTEX
  8
0
  6
CONTINUOUS
 10
7.296520
 20
4.913040
  0
VERTEX
  8
0
  6
CONTINUOUS
 10
7.281120
 20
4.392080
  0
VERTEX
  8
0
  6
CONTINUOUS
 10
6.618480
 20
4.770920
  0
VERTEX
  8
0
  6
CONTINUOUS
 10
6.633880
 20
5.292320
  0
SEQEND
  8
0
  0
SOLID
  8
0
 62
    15
 10
4.837360
 20
2.366760
 11
5.500440
 21
1.987920
 12
4.637160
 22
1.956680
 13
5.300240
 23
1.577400
  0
POLYLINE
  8
0
  6
CONTINUOUS
 66
     1
 40
0.000000
 41
0.000000
  0
VERTEX
  8
0
  6
CONTINUOUS
 10
4.837360
 20
2.366760
  0
VERTEX
  8
0
  6
CONTINUOUS
 10
5.500440
 20
1.987920
  0
VERTEX
  8
0
  6
CONTINUOUS
 10
5.300240
 20
1.577400
  0
VERTEX
  8
0
  6
CONTINUOUS
 10
4.637160
 20
1.956680
  0
VERTEX
  8
0
  6
CONTINUOUS
 10
4.837360
 20
2.366760
  0
SEQEND
  8
0
  0
SOLID
  8
0
 62
    15
 10
4.637160
 20
1.956680
 11
5.300240
 21
1.577400
 12
4.400000
 22
1.571240
 13
5.062640
 23
1.192400
  0
POLYLINE
  8
0
  6
CONTINUOUS
 66
     1
 40
0.000000
 41
0.000000
  0
VERTEX
  8
0
  6
CONTINUOUS
 10
4.637160
 20
1.956680
  0
VERTEX
  8
0
  6
CONTINUOUS
 10
5.300240
 20
1.577400
  0
VERTEX
  8
0
  6
CONTINUOUS
 10
5.062640
 20
1.192400
  0
VERTEX
  8
0
  6
CONTINUOUS
 10
4.400000
 20
1.571240
  0
VERTEX
  8
0
  6
CONTINUOUS
 10
4.637160
 20
1.956680
  0
SEQEND
  8
0
  0
SOLID
  8
0
 62
    15
 10
4.400000
 20
1.571240
 11
5.062640
 21
1.192400
 12
4.264480
 22
1.395240
 13
4.927120
 23
1.016400
  0
POLYLINE
  8
0
  6
CONTINUOUS
 66
     1
 40
0.000000
 41
0.000000
  0
VERTEX
  8
0
  6
CONTINUOUS
 10
4.400000
 20
1.571240
  0
VERTEX
  8
0
  6
CONTINUOUS
 10
5.062640
 20
1.192400
  0
VERTEX
  8
0
  6
CONTINUOUS
 10
4.927120
 20
1.016400
  0
VERTEX
  8
0
  6
CONTINUOUS
 10
4.264480
 20
1.395240
  0
VERTEX
  8
0
  6
CONTINUOUS
 10
4.400000
 20
1.571240
  0
SEQEND
  8
0
  0
SOLID
  8
0
 62
    15
 10
4.264480
 20
1.395240
 11
4.927120
 21
1.016400
 12
4.116640
 22
1.234200
 13
4.779280
 23
0.855360
  0
POLYLINE
  8
0
  6
CONTINUOUS
 66
     1
 40
0.000000
 41
0.000000
  0
VERTEX
  8
0
  6
CONTINUOUS
 10
4.264480
 20
1.395240
  0
VERTEX
  8
0
  6
CONTINUOUS
 10
4.927120
 20
1.016400
  0
VERTEX
  8
0
  6
CONTINUOUS
 10
4.779280
 20
0.855360
  0
VERTEX
  8
0
  6
CONTINUOUS
 10
4.116640
 20
1.234200
  0
VERTEX
  8
0
  6
CONTINUOUS
 10
4.264480
 20
1.395240
  0
SEQEND
  8
0
  0
SOLID
  8
0
 62
    15
 10
4.116640
 20
1.234200
 11
4.779280
 21
0.855360
 12
3.955160
 22
1.090760
 13
4.617800
 23
0.711480
  0
POLYLINE
  8
0
  6
CONTINUOUS
 66
     1
 40
0.000000
 41
0.000000
  0
VERTEX
  8
0
  6
CONTINUOUS
 10
4.116640
 20
1.234200
  0
VERTEX
  8
0
  6
CONTINUOUS
 10
4.779280
 20
0.855360
  0
VERTEX
  8
0
  6
CONTINUOUS
 10
4.617800
 20
0.711480
  0
VERTEX
  8
0
  6
CONTINUOUS
 10
3.955160
 20
1.090760
  0
VERTEX
  8
0
  6
CONTINUOUS
 10
4.116640
 20
1.234200
  0
SEQEND
  8
0
  0
SOLID
  8
0
 62
    15
 10
3.955160
 20
1.090760
 11
4.617800
 21
0.711480
 12
3.778720
 22
0.968000
 13
4.441800
 23
0.588720
  0
POLYLINE
  8
0
  6
CONTINUOUS
 66
     1
 40
0.000000
 41
0.000000
  0
VERTEX
  8
0
  6
CONTINUOUS
 10
3.955160
 20
1.090760
  0
VERTEX
  8
0
  6
CONTINUOUS
 10
4.617800
 20
0.711480
  0
VERTEX
  8
0
  6
CONTINUOUS
 10
4.441800
 20
0.588720
  0
VERTEX
  8
0
  6
CONTINUOUS
 10
3.778720
 20
0.968000
  0
VERTEX
  8
0
  6
CONTINUOUS
 10
3.955160
 20
1.090760
  0
SEQEND
  8
0
  0
SOLID
  8
0
 62
    15
 10
3.778720
 20
0.968000
 11
4.441800
 21
0.588720
 12
3.586880
 22
0.868560
 13
4.249960
 23
0.489280
  0
POLYLINE
  8
0
  6
CONTINUOUS
 66
     1
 40
0.000000
 41
0.000000
  0
VERTEX
  8
0
  6
CONTINUOUS
 10
3.778720
 20
0.968000
  0
VERTEX
  8
0
  6
CONTINUOUS
 10
4.441800
 20
0.588720
  0
VERTEX
  8
0
  6
CONTINUOUS
 10
4.249960
 20
0.489280
  0
VERTEX
  8
0
  6
CONTINUOUS
 10
3.586880
 20
0.868560
  0
VERTEX
  8
0
  6
CONTINUOUS
 10
3.778720
 20
0.968000
  0
SEQEND
  8
0
  0
SOLID
  8
0
 62
    15
 10
3.586880
 20
0.868560
 11
4.249960
 21
0.489280
 12
3.378320
 22
0.795080
 13
4.040960
 23
0.415800
  0
POLYLINE
  8
0
  6
CONTINUOUS
 66
     1
 40
0.000000
 41
0.000000
  0
VERTEX
  8
0
  6
CONTINUOUS
 10
3.586880
 20
0.868560
  0
VERTEX
  8
0
  6
CONTINUOUS
 10
4.249960
 20
0.489280
  0
VERTEX
  8
0
  6
CONTINUOUS
 10
4.040960
 20
0.415800
  0
VERTEX
  8
0
  6
CONTINUOUS
 10
3.378320
 20
0.795080
  0
VERTEX
  8
0
  6
CONTINUOUS
 10
3.586880
 20
0.868560
  0
SEQEND
  8
0
  0
SOLID
  8
0
 62
    15
 10
3.378320
 20
0.795080
 11
4.040960
 21
0.415800
 12
3.151280
 22
0.750640
 13
3.814360
 23
0.371800
  0
POLYLINE
  8
0
  6
CONTINUOUS
 66
     1
 40
0.000000
 41
0.000000
  0
VERTEX
  8
0
  6
CONTINUOUS
 10
3.378320
 20
0.795080
  0
VERTEX
  8
0
  6
CONTINUOUS
 10
4.040960
 20
0.415800
  0
VERTEX
  8
0
  6
CONTINUOUS
 10
3.814360
 20
0.371800
  0
VERTEX
  8
0
  6
CONTINUOUS
 10
3.151280
 20
0.750640
  0
VERTEX
  8
0
  6
CONTINUOUS
 10
3.378320
 20
0.795080
  0
SEQEND
  8
0
  0
SOLID
  8
0
 62
    15
 10
2.905760
 20
0.738320
 11
3.568840
 21
0.359480
 12
2.899160
 22
0.739640
 13
3.562240
 23
0.360360
  0
POLYLINE
  8
0
  6
CONTINUOUS
 66
     1
 40
0.000000
 41
0.000000
  0
VERTEX
  8
0
  6
CONTINUOUS
 10
2.905760
 20
0.738320
  0
VERTEX
  8
0
  6
CONTINUOUS
 10
3.568840
 20
0.359480
  0
VERTEX
  8
0
  6
CONTINUOUS
 10
3.562240
 20
0.360360
  0
VERTEX
  8
0
  6
CONTINUOUS
 10
2.899160
 20
0.739640
  0
VERTEX
  8
0
  6
CONTINUOUS
 10
2.905760
 20
0.738320
  0
SEQEND
  8
0
  0
SOLID
  8
0
 62
    15
 10
3.151280
 20
0.750640
 11
3.814360
 21
0.371800
 12
2.905760
 22
0.738320
 13
3.568840
 23
0.359480
  0
POLYLINE
  8
0
  6
CONTINUOUS
 66
     1
 40
0.000000
 41
0.000000
  0
VERTEX
  8
0
  6
CONTINUOUS
 10
3.151280
 20
0.750640
  0
VERTEX
  8
0
  6
CONTINUOUS
 10
3.814360
 20
0.371800
  0
VERTEX
  8
0
  6
CONTINUOUS
 10
3.568840
 20
0.359480
  0
VERTEX
  8
0
  6
CONTINUOUS
 10
2.905760
 20
0.738320
  0
VERTEX
  8
0
  6
CONTINUOUS
 10
3.151280
 20
0.750640
  0
SEQEND
  8
0
  0
POLYLINE
  8
0
  6
CONTINUOUS
 66
     1
 40
0.000000
 41
0.000000
  0
VERTEX
  8
0
  6
CONTINUOUS
 10
2.899160
 20
0.739640
  0
VERTEX
  8
0
  6
CONTINUOUS
 10
2.946240
 20
2.360600
  0
VERTEX
  8
0
  6
CONTINUOUS
 10
6.096200
 20
5.297600
  0
VERTEX
  8
0
  6
CONTINUOUS
 10
6.098840
 20
5.298480
  0
VERTEX
  8
0
  6
CONTINUOUS
 10
6.633880
 20
5.292320
  0
VERTEX
  8
0
  6
CONTINUOUS
 10
6.618480
 20
4.770920
  0
VERTEX
  8
0
  6
CONTINUOUS
 10
6.615400
 20
4.768280
  0
VERTEX
  8
0
  6
CONTINUOUS
 10
6.395400
 20
4.730880
  0
VERTEX
  8
0
  6
CONTINUOUS
 10
6.187720
 20
4.644640
  0
VERTEX
  8
0
  6
CONTINUOUS
 10
5.991920
 20
4.511320
  0
VERTEX
  8
0
  6
CONTINUOUS
 10
5.807120
 20
4.331800
  0
VERTEX
  8
0
  6
CONTINUOUS
 10
5.632000
 20
4.106960
  0
VERTEX
  8
0
  6
CONTINUOUS
 10
5.467000
 20
3.837680
  0
VERTEX
  8
0
  6
CONTINUOUS
 10
5.310360
 20
3.525720
  0
VERTEX
  8
0
  6
CONTINUOUS
 10
5.161640
 20
3.171960
  0
VERTEX
  8
0
  6
CONTINUOUS
 10
5.009400
 20
2.779920
  0
VERTEX
  8
0
  6
CONTINUOUS
 10
4.837360
 20
2.366760
  0
VERTEX
  8
0
  6
CONTINUOUS
 10
4.637160
 20
1.956680
  0
VERTEX
  8
0
  6
CONTINUOUS
 10
4.400000
 20
1.571240
  0
VERTEX
  8
0
  6
CONTINUOUS
 10
4.264480
 20
1.395240
  0
VERTEX
  8
0
  6
CONTINUOUS
 10
4.116640
 20
1.234200
  0
VERTEX
  8
0
  6
CONTINUOUS
 10
3.955160
 20
1.090760
  0
VERTEX
  8
0
  6
CONTINUOUS
 10
3.778720
 20
0.968000
  0
VERTEX
  8
0
  6
CONTINUOUS
 10
3.586880
 20
0.868560
  0
VERTEX
  8
0
  6
CONTINUOUS
 10
3.378320
 20
0.795080
  0
VERTEX
  8
0
  6
CONTINUOUS
 10
3.151280
 20
0.750640
  0
VERTEX
  8
0
  6
CONTINUOUS
 10
2.905760
 20
0.738320
  0
VERTEX
  8
0
  6
CONTINUOUS
 10
2.899160
 20
0.739640
  0
SEQEND
  8
0
  0
TEXT
  8
0
 10
5.287040
 20
0.572000
 40
0.137865
  1
BA  267
 41
1.000000
  7
SN0
 71
     0
 72
     5
 11
5.876142
 21
0.572000
  0
TEXT
  8
0
 10
4.965400
 20
0.380600
 40
0.137865
  1
1-5/8" x 5-13/16"
 41
1.000000
  7
SN0
 71
     0
 72
     5
 11
6.196507
 21
0.380600
  0
TEXT
  8
0
 10
7.588680
 20
7.742240
 40
0.137865
  1
crown
 41
1.000000
  7
SN0
 71
     0
 72
     5
 11
8.031168
 21
7.742240
  0
TEXT
  8
0
 10
7.671840
 20
7.550400
 40
0.137865
  1
267
 41
1.000000
  7
SN0
 71
     0
 72
     5
 11
7.948820
 21
7.550400
  0
ENDSEC
  0
EOF
