  0
SECTION
  2
HEADER
  9
$ACADVER
  1
AC1006
  9
$EXTMIN
 10
5.732320
 20
0.362120
  9
$EXTMAX
 10
8.118440
 20
6.011280
  9
$LTSCALE
 40
0.044000
  9
$PDMODE
 70
    35
  9
$PDSIZE
 40
0.035200
  0
ENDSEC
  0
SECTION
  2
TABLES
  0
TABLE
  2
LTYPE
 70
     9
  0
LTYPE
  2
CONTINUOUS
 70
    64
  3
Solid line
 72
    65
 73
     0
 40
0.000000
  0
LTYPE
  2
DASHED
 70
    64
  3
__ __ __ __ __ __ __ __ __ __ __ __ __ __ __
 72
    65
 73
     2
 40
0.000330
 49
0.000220
 49
-0.000110
  0
LTYPE
  2
HIDDEN
 70
    64
  3
 _ _ _ _ _ _ _ _ _ _ _ _ _ _ _ _ _ _ _ _ _ _
 72
    65
 73
     2
 40
0.000165
 49
0.000110
 49
-0.000055
  0
LTYPE
  2
CENTER
 70
    64
  3
____ _ ____ _ ____ _ ____ _ ____ _ ____ _ ____
 72
    65
 73
     4
 40
0.000880
 49
0.000550
 49
-0.000110
 49
0.000110
 49
-0.000110
  0
LTYPE
  2
PHANTOM
 70
    64
  3
_____ _ _ _____ _ _ _____ _ _ _____ _ _ ____
 72
    65
 73
     6
 40
0.001100
 49
0.000550
 49
-0.000110
 49
0.000110
 49
-0.000110
 49
0.000110
 49
-0.000110
  0
LTYPE
  2
DOT
 70
    64
  3
...............................................
 72
    65
 73
     2
 40
0.000110
 49
0.000000
 49
-0.000110
  0
LTYPE
  2
DASHDOT
 70
    64
  3
__ . __ . __ . __ . __ . __ . __ . __ . __ . __
 72
    65
 73
     4
 40
0.000440
 49
0.000220
 49
-0.000110
 49
0.000000
 49
-0.000110
  0
LTYPE
  2
BORDER
 70
    64
  3
__ __ . __ __ . __ __ . __ __ . __ __ . __ __
 72
    65
 73
     6
 40
0.000770
 49
0.000220
 49
-0.000110
 49
0.000220
 49
-0.000110
 49
0.000000
 49
-0.000110
  0
LTYPE
  2
DIVIDE
 70
    64
  3
__ . . __ . . __ . . __ . . __ . . __ . . __
 72
    65
 73
     6
 40
0.000550
 49
0.000220
 49
-0.000110
 49
0.000000
 49
-0.000110
 49
0.000000
 49
-0.000110
  0
LTYPE
  2
DOTDOT
 70
    64
  3
 . .  . .  . .  . .  . .  . . 
 72
    65
 73
     5
 40
0.000242
 49
-0.000110
 49
0.000000
 49
-0.000110
 49
0.000000
 49
-0.000110
  0
ENDTAB
  0
TABLE
  2
STYLE
 70
     2
  0
STYLE
 70
     0
  2
SN0
 40
0.000000
 41
0.000440
 50
0.000000
 71
     0
 42
0.000000
  3
ROMAND
  0
STYLE
 70
    68
  2
SV0
 40
0.000000
 41
0.000440
 50
0.000000
 71
     0
 42
0.000000
  3
ROMAND
  0
ENDTAB
  0
TABLE
  2
LAYER
 70
     3
  0
LAYER
  2
FOREGROUND
 70
    64
 62
     7
  6
CONTINUOUS
  0
LAYER
  2
BACKGROUND
 70
    65
 62
    -7
  6
CONTINUOUS
  0
LAYER
  2
0
 70
    64
 62
     7
  6
CONTINUOUS
  0
ENDTAB
  0
ENDSEC
  0
SECTION
  2
ENTITIES
  0
POLYLINE
  8
FOREGROUND
  6
CONTINUOUS
 66
     1
 40
0.000000
 41
0.000000
  0
VERTEX
  8
FOREGROUND
  6
CONTINUOUS
 10
0.000000
 20
6.373400
  0
VERTEX
  8
FOREGROUND
  6
CONTINUOUS
 10
8.499920
 20
6.373400
  0
VERTEX
  8
FOREGROUND
  6
CONTINUOUS
 10
8.499920
 20
-4.626600
  0
VERTEX
  8
FOREGROUND
  6
CONTINUOUS
 10
0.000000
 20
-4.626600
  0
VERTEX
  8
FOREGROUND
  6
CONTINUOUS
 10
0.000000
 20
6.373400
  0
SEQEND
  8
0
  0
POLYLINE
  8
FOREGROUND
  6
CONTINUOUS
 66
     1
 40
0.000000
 41
0.000000
  0
VERTEX
  8
FOREGROUND
  6
CONTINUOUS
 10
0.000000
 20
6.373400
  0
VERTEX
  8
FOREGROUND
  6
CONTINUOUS
 10
8.499920
 20
6.373400
  0
VERTEX
  8
FOREGROUND
  6
CONTINUOUS
 10
8.499920
 20
-4.626600
  0
VERTEX
  8
FOREGROUND
  6
CONTINUOUS
 10
0.000000
 20
-4.626600
  0
VERTEX
  8
FOREGROUND
  6
CONTINUOUS
 10
0.000000
 20
6.373400
  0
SEQEND
  8
0
  0
POLYLINE
  8
0
  6
CONTINUOUS
 66
     1
 40
0.014080
 41
0.014080
  0
VERTEX
  8
0
  6
CONTINUOUS
 10
5.926360
 20
5.989720
  0
VERTEX
  8
0
  6
CONTINUOUS
 10
5.738480
 20
5.989720
  0
VERTEX
  8
0
  6
CONTINUOUS
 10
5.739800
 20
5.988400
  0
VERTEX
  8
0
  6
CONTINUOUS
 10
5.739800
 20
3.725920
  0
VERTEX
  8
0
  6
CONTINUOUS
 10
7.239760
 20
3.725920
  0
VERTEX
  8
0
  6
CONTINUOUS
 10
7.239760
 20
3.912480
  0
VERTEX
  8
0
  6
CONTINUOUS
 10
6.927800
 20
3.912480
  0
VERTEX
  8
0
  6
CONTINUOUS
 10
6.927800
 20
4.007080
  0
VERTEX
  8
0
  6
CONTINUOUS
 10
6.992480
 20
4.038760
  0
VERTEX
  8
0
  6
CONTINUOUS
 10
7.030760
 20
4.062080
  0
VERTEX
  8
0
  6
CONTINUOUS
 10
7.081360
 20
4.101240
  0
VERTEX
  8
0
  6
CONTINUOUS
 10
7.110400
 20
4.130280
  0
VERTEX
  8
0
  6
CONTINUOUS
 10
7.136360
 20
4.160640
  0
VERTEX
  8
0
  6
CONTINUOUS
 10
7.157920
 20
4.192760
  0
VERTEX
  8
0
  6
CONTINUOUS
 10
7.175960
 20
4.226640
  0
VERTEX
  8
0
  6
CONTINUOUS
 10
7.190040
 20
4.261840
  0
VERTEX
  8
0
  6
CONTINUOUS
 10
7.199720
 20
4.297920
  0
VERTEX
  8
0
  6
CONTINUOUS
 10
7.205440
 20
4.335320
  0
VERTEX
  8
0
  6
CONTINUOUS
 10
7.206760
 20
4.373600
  0
VERTEX
  8
0
  6
CONTINUOUS
 10
7.204120
 20
4.412320
  0
VERTEX
  8
0
  6
CONTINUOUS
 10
7.196200
 20
4.451920
  0
VERTEX
  8
0
  6
CONTINUOUS
 10
7.184320
 20
4.491520
  0
VERTEX
  8
0
  6
CONTINUOUS
 10
7.167160
 20
4.531120
  0
VERTEX
  8
0
  6
CONTINUOUS
 10
7.145600
 20
4.570720
  0
VERTEX
  8
0
  6
CONTINUOUS
 10
7.118760
 20
4.610320
  0
VERTEX
  8
0
  6
CONTINUOUS
 10
7.087080
 20
4.649920
  0
VERTEX
  8
0
  6
CONTINUOUS
 10
7.050120
 20
4.688200
  0
VERTEX
  8
0
  6
CONTINUOUS
 10
7.008320
 20
4.726480
  0
VERTEX
  8
0
  6
CONTINUOUS
 10
6.934840
 20
4.781920
  0
VERTEX
  8
0
  6
CONTINUOUS
 10
6.849480
 20
4.834720
  0
VERTEX
  8
0
  6
CONTINUOUS
 10
6.785240
 20
4.868160
  0
VERTEX
  8
0
  6
CONTINUOUS
 10
6.715280
 20
4.899840
  0
VERTEX
  8
0
  6
CONTINUOUS
 10
6.639600
 20
4.930200
  0
VERTEX
  8
0
  6
CONTINUOUS
 10
6.557760
 20
4.958800
  0
VERTEX
  8
0
  6
CONTINUOUS
 10
6.470200
 20
4.985200
  0
VERTEX
  8
0
  6
CONTINUOUS
 10
6.376040
 20
5.008960
  0
VERTEX
  8
0
  6
CONTINUOUS
 10
6.275720
 20
5.030960
  0
VERTEX
  8
0
  6
CONTINUOUS
 10
6.169240
 20
5.049880
  0
VERTEX
  8
0
  6
CONTINUOUS
 10
6.166600
 20
5.051200
  0
VERTEX
  8
0
  6
CONTINUOUS
 10
6.166600
 20
5.148440
  0
VERTEX
  8
0
  6
CONTINUOUS
 10
6.188160
 20
5.149320
  0
VERTEX
  8
0
  6
CONTINUOUS
 10
6.218960
 20
5.155920
  0
VERTEX
  8
0
  6
CONTINUOUS
 10
6.233480
 20
5.161200
  0
VERTEX
  8
0
  6
CONTINUOUS
 10
6.260760
 20
5.176160
  0
VERTEX
  8
0
  6
CONTINUOUS
 10
6.284520
 20
5.195960
  0
VERTEX
  8
0
  6
CONTINUOUS
 10
6.304320
 20
5.219720
  0
VERTEX
  8
0
  6
CONTINUOUS
 10
6.319280
 20
5.247000
  0
VERTEX
  8
0
  6
CONTINUOUS
 10
6.328520
 20
5.276920
  0
VERTEX
  8
0
  6
CONTINUOUS
 10
6.331160
 20
5.292320
  0
VERTEX
  8
0
  6
CONTINUOUS
 10
6.332040
 20
5.308600
  0
VERTEX
  8
0
  6
CONTINUOUS
 10
6.328960
 20
5.340280
  0
VERTEX
  8
0
  6
CONTINUOUS
 10
6.319720
 20
5.369320
  0
VERTEX
  8
0
  6
CONTINUOUS
 10
6.305200
 20
5.396160
  0
VERTEX
  8
0
  6
CONTINUOUS
 10
6.285840
 20
5.419040
  0
VERTEX
  8
0
  6
CONTINUOUS
 10
6.262520
 20
5.437960
  0
VERTEX
  8
0
  6
CONTINUOUS
 10
6.235680
 20
5.452040
  0
VERTEX
  8
0
  6
CONTINUOUS
 10
6.206200
 20
5.461280
  0
VERTEX
  8
0
  6
CONTINUOUS
 10
6.173200
 20
5.464360
  0
VERTEX
  8
0
  6
CONTINUOUS
 10
6.093120
 20
5.464360
  0
VERTEX
  8
0
  6
CONTINUOUS
 10
6.093120
 20
5.737600
  0
VERTEX
  8
0
  6
CONTINUOUS
 10
6.057040
 20
5.744200
  0
VERTEX
  8
0
  6
CONTINUOUS
 10
6.040320
 20
5.749040
  0
VERTEX
  8
0
  6
CONTINUOUS
 10
6.009960
 20
5.763560
  0
VERTEX
  8
0
  6
CONTINUOUS
 10
5.984000
 20
5.783800
  0
VERTEX
  8
0
  6
CONTINUOUS
 10
5.962440
 20
5.811960
  0
VERTEX
  8
0
  6
CONTINUOUS
 10
5.949240
 20
5.838800
  0
VERTEX
  8
0
  6
CONTINUOUS
 10
5.936040
 20
5.883240
  0
VERTEX
  8
0
  6
CONTINUOUS
 10
5.929440
 20
5.923280
  0
VERTEX
  8
0
  6
CONTINUOUS
 10
5.925480
 20
5.969920
  0
VERTEX
  8
0
  6
CONTINUOUS
 10
5.925040
 20
5.987080
  0
VERTEX
  8
0
  6
CONTINUOUS
 10
5.926360
 20
5.989720
  0
SEQEND
  8
0
  0
SOLID
  8
0
 62
    15
 10
6.398920
 20
2.125200
 11
7.022400
 21
2.484680
 12
6.580640
 22
2.075040
 13
7.204120
 23
2.434520
  0
POLYLINE
  8
0
  6
CONTINUOUS
 66
     1
 40
0.000000
 41
0.000000
  0
VERTEX
  8
0
  6
CONTINUOUS
 10
6.398920
 20
2.125200
  0
VERTEX
  8
0
  6
CONTINUOUS
 10
7.022400
 20
2.484680
  0
VERTEX
  8
0
  6
CONTINUOUS
 10
7.204120
 20
2.434520
  0
VERTEX
  8
0
  6
CONTINUOUS
 10
6.580640
 20
2.075040
  0
VERTEX
  8
0
  6
CONTINUOUS
 10
6.398920
 20
2.125200
  0
SEQEND
  8
0
  0
SOLID
  8
0
 62
    15
 10
5.952320
 20
3.039520
 11
6.575800
 21
3.399000
 12
5.961560
 22
2.987600
 13
6.585040
 23
3.346640
  0
POLYLINE
  8
0
  6
CONTINUOUS
 66
     1
 40
0.000000
 41
0.000000
  0
VERTEX
  8
0
  6
CONTINUOUS
 10
5.952320
 20
3.039520
  0
VERTEX
  8
0
  6
CONTINUOUS
 10
6.575800
 20
3.399000
  0
VERTEX
  8
0
  6
CONTINUOUS
 10
6.585040
 20
3.346640
  0
VERTEX
  8
0
  6
CONTINUOUS
 10
5.961560
 20
2.987600
  0
VERTEX
  8
0
  6
CONTINUOUS
 10
5.952320
 20
3.039520
  0
SEQEND
  8
0
  0
SOLID
  8
0
 62
    15
 10
5.961560
 20
2.987600
 11
6.585040
 21
3.346640
 12
5.976080
 22
2.945800
 13
6.599560
 23
3.304840
  0
POLYLINE
  8
0
  6
CONTINUOUS
 66
     1
 40
0.000000
 41
0.000000
  0
VERTEX
  8
0
  6
CONTINUOUS
 10
5.961560
 20
2.987600
  0
VERTEX
  8
0
  6
CONTINUOUS
 10
6.585040
 20
3.346640
  0
VERTEX
  8
0
  6
CONTINUOUS
 10
6.599560
 20
3.304840
  0
VERTEX
  8
0
  6
CONTINUOUS
 10
5.976080
 20
2.945800
  0
VERTEX
  8
0
  6
CONTINUOUS
 10
5.961560
 20
2.987600
  0
SEQEND
  8
0
  0
SOLID
  8
0
 62
    15
 10
5.976080
 20
2.945800
 11
6.599560
 21
3.304840
 12
5.995440
 22
2.913240
 13
6.618920
 23
3.272720
  0
POLYLINE
  8
0
  6
CONTINUOUS
 66
     1
 40
0.000000
 41
0.000000
  0
VERTEX
  8
0
  6
CONTINUOUS
 10
5.976080
 20
2.945800
  0
VERTEX
  8
0
  6
CONTINUOUS
 10
6.599560
 20
3.304840
  0
VERTEX
  8
0
  6
CONTINUOUS
 10
6.618920
 20
3.272720
  0
VERTEX
  8
0
  6
CONTINUOUS
 10
5.995440
 20
2.913240
  0
VERTEX
  8
0
  6
CONTINUOUS
 10
5.976080
 20
2.945800
  0
SEQEND
  8
0
  0
SOLID
  8
0
 62
    15
 10
5.995440
 20
2.913240
 11
6.618920
 21
3.272720
 12
6.019200
 22
2.889040
 13
6.642680
 23
3.248520
  0
POLYLINE
  8
0
  6
CONTINUOUS
 66
     1
 40
0.000000
 41
0.000000
  0
VERTEX
  8
0
  6
CONTINUOUS
 10
5.995440
 20
2.913240
  0
VERTEX
  8
0
  6
CONTINUOUS
 10
6.618920
 20
3.272720
  0
VERTEX
  8
0
  6
CONTINUOUS
 10
6.642680
 20
3.248520
  0
VERTEX
  8
0
  6
CONTINUOUS
 10
6.019200
 20
2.889040
  0
VERTEX
  8
0
  6
CONTINUOUS
 10
5.995440
 20
2.913240
  0
SEQEND
  8
0
  0
SOLID
  8
0
 62
    15
 10
6.019200
 20
2.889040
 11
6.642680
 21
3.248520
 12
6.047360
 22
2.871880
 13
6.671280
 23
3.231360
  0
POLYLINE
  8
0
  6
CONTINUOUS
 66
     1
 40
0.000000
 41
0.000000
  0
VERTEX
  8
0
  6
CONTINUOUS
 10
6.019200
 20
2.889040
  0
VERTEX
  8
0
  6
CONTINUOUS
 10
6.642680
 20
3.248520
  0
VERTEX
  8
0
  6
CONTINUOUS
 10
6.671280
 20
3.231360
  0
VERTEX
  8
0
  6
CONTINUOUS
 10
6.047360
 20
2.871880
  0
VERTEX
  8
0
  6
CONTINUOUS
 10
6.019200
 20
2.889040
  0
SEQEND
  8
0
  0
SOLID
  8
0
 62
    15
 10
6.047360
 20
2.871880
 11
6.671280
 21
3.231360
 12
6.116000
 22
2.854280
 13
6.739480
 23
3.213320
  0
POLYLINE
  8
0
  6
CONTINUOUS
 66
     1
 40
0.000000
 41
0.000000
  0
VERTEX
  8
0
  6
CONTINUOUS
 10
6.047360
 20
2.871880
  0
VERTEX
  8
0
  6
CONTINUOUS
 10
6.671280
 20
3.231360
  0
VERTEX
  8
0
  6
CONTINUOUS
 10
6.739480
 20
3.213320
  0
VERTEX
  8
0
  6
CONTINUOUS
 10
6.116000
 20
2.854280
  0
VERTEX
  8
0
  6
CONTINUOUS
 10
6.047360
 20
2.871880
  0
SEQEND
  8
0
  0
SOLID
  8
0
 62
    15
 10
6.116000
 20
2.854280
 11
6.739480
 21
3.213320
 12
6.116000
 22
2.580600
 13
6.739480
 23
2.940080
  0
POLYLINE
  8
0
  6
CONTINUOUS
 66
     1
 40
0.000000
 41
0.000000
  0
VERTEX
  8
0
  6
CONTINUOUS
 10
6.116000
 20
2.854280
  0
VERTEX
  8
0
  6
CONTINUOUS
 10
6.739480
 20
3.213320
  0
VERTEX
  8
0
  6
CONTINUOUS
 10
6.739480
 20
2.940080
  0
VERTEX
  8
0
  6
CONTINUOUS
 10
6.116000
 20
2.580600
  0
VERTEX
  8
0
  6
CONTINUOUS
 10
6.116000
 20
2.854280
  0
SEQEND
  8
0
  0
SOLID
  8
0
 62
    15
 10
6.116000
 20
2.580600
 11
6.739480
 21
2.940080
 12
6.197400
 22
2.580600
 13
6.820880
 23
2.940080
  0
POLYLINE
  8
0
  6
CONTINUOUS
 66
     1
 40
0.000000
 41
0.000000
  0
VERTEX
  8
0
  6
CONTINUOUS
 10
6.116000
 20
2.580600
  0
VERTEX
  8
0
  6
CONTINUOUS
 10
6.739480
 20
2.940080
  0
VERTEX
  8
0
  6
CONTINUOUS
 10
6.820880
 20
2.940080
  0
VERTEX
  8
0
  6
CONTINUOUS
 10
6.197400
 20
2.580600
  0
VERTEX
  8
0
  6
CONTINUOUS
 10
6.116000
 20
2.580600
  0
SEQEND
  8
0
  0
SOLID
  8
0
 62
    15
 10
6.197400
 20
2.580600
 11
6.820880
 21
2.940080
 12
6.258560
 22
2.568720
 13
6.882040
 23
2.927760
  0
POLYLINE
  8
0
  6
CONTINUOUS
 66
     1
 40
0.000000
 41
0.000000
  0
VERTEX
  8
0
  6
CONTINUOUS
 10
6.197400
 20
2.580600
  0
VERTEX
  8
0
  6
CONTINUOUS
 10
6.820880
 20
2.940080
  0
VERTEX
  8
0
  6
CONTINUOUS
 10
6.882040
 20
2.927760
  0
VERTEX
  8
0
  6
CONTINUOUS
 10
6.258560
 20
2.568720
  0
VERTEX
  8
0
  6
CONTINUOUS
 10
6.197400
 20
2.580600
  0
SEQEND
  8
0
  0
SOLID
  8
0
 62
    15
 10
6.258560
 20
2.568720
 11
6.882040
 21
2.927760
 12
6.308280
 22
2.535280
 13
6.932200
 23
2.894760
  0
POLYLINE
  8
0
  6
CONTINUOUS
 66
     1
 40
0.000000
 41
0.000000
  0
VERTEX
  8
0
  6
CONTINUOUS
 10
6.258560
 20
2.568720
  0
VERTEX
  8
0
  6
CONTINUOUS
 10
6.882040
 20
2.927760
  0
VERTEX
  8
0
  6
CONTINUOUS
 10
6.932200
 20
2.894760
  0
VERTEX
  8
0
  6
CONTINUOUS
 10
6.308280
 20
2.535280
  0
VERTEX
  8
0
  6
CONTINUOUS
 10
6.258560
 20
2.568720
  0
SEQEND
  8
0
  0
SOLID
  8
0
 62
    15
 10
6.308280
 20
2.535280
 11
6.932200
 21
2.894760
 12
6.342160
 22
2.485560
 13
6.965640
 23
2.845040
  0
POLYLINE
  8
0
  6
CONTINUOUS
 66
     1
 40
0.000000
 41
0.000000
  0
VERTEX
  8
0
  6
CONTINUOUS
 10
6.308280
 20
2.535280
  0
VERTEX
  8
0
  6
CONTINUOUS
 10
6.932200
 20
2.894760
  0
VERTEX
  8
0
  6
CONTINUOUS
 10
6.965640
 20
2.845040
  0
VERTEX
  8
0
  6
CONTINUOUS
 10
6.342160
 20
2.485560
  0
VERTEX
  8
0
  6
CONTINUOUS
 10
6.308280
 20
2.535280
  0
SEQEND
  8
0
  0
SOLID
  8
0
 62
    15
 10
6.342160
 20
2.485560
 11
6.965640
 21
2.845040
 12
6.354480
 22
2.424840
 13
6.977960
 23
2.784320
  0
POLYLINE
  8
0
  6
CONTINUOUS
 66
     1
 40
0.000000
 41
0.000000
  0
VERTEX
  8
0
  6
CONTINUOUS
 10
6.342160
 20
2.485560
  0
VERTEX
  8
0
  6
CONTINUOUS
 10
6.965640
 20
2.845040
  0
VERTEX
  8
0
  6
CONTINUOUS
 10
6.977960
 20
2.784320
  0
VERTEX
  8
0
  6
CONTINUOUS
 10
6.354480
 20
2.424840
  0
VERTEX
  8
0
  6
CONTINUOUS
 10
6.342160
 20
2.485560
  0
SEQEND
  8
0
  0
SOLID
  8
0
 62
    15
 10
6.354480
 20
2.424840
 11
6.977960
 21
2.784320
 12
6.341720
 22
2.363240
 13
6.965200
 23
2.722720
  0
POLYLINE
  8
0
  6
CONTINUOUS
 66
     1
 40
0.000000
 41
0.000000
  0
VERTEX
  8
0
  6
CONTINUOUS
 10
6.354480
 20
2.424840
  0
VERTEX
  8
0
  6
CONTINUOUS
 10
6.977960
 20
2.784320
  0
VERTEX
  8
0
  6
CONTINUOUS
 10
6.965200
 20
2.722720
  0
VERTEX
  8
0
  6
CONTINUOUS
 10
6.341720
 20
2.363240
  0
VERTEX
  8
0
  6
CONTINUOUS
 10
6.354480
 20
2.424840
  0
SEQEND
  8
0
  0
SOLID
  8
0
 62
    15
 10
6.189040
 20
2.264680
 11
6.812960
 21
2.624160
 12
6.189040
 22
2.167440
 13
6.812960
 23
2.526920
  0
POLYLINE
  8
0
  6
CONTINUOUS
 66
     1
 40
0.000000
 41
0.000000
  0
VERTEX
  8
0
  6
CONTINUOUS
 10
6.189040
 20
2.264680
  0
VERTEX
  8
0
  6
CONTINUOUS
 10
6.812960
 20
2.624160
  0
VERTEX
  8
0
  6
CONTINUOUS
 10
6.812960
 20
2.526920
  0
VERTEX
  8
0
  6
CONTINUOUS
 10
6.189040
 20
2.167440
  0
VERTEX
  8
0
  6
CONTINUOUS
 10
6.189040
 20
2.264680
  0
SEQEND
  8
0
  0
SOLID
  8
0
 62
    15
 10
6.306960
 20
2.312200
 11
6.930880
 21
2.671680
 12
6.256360
 22
2.277440
 13
6.879840
 23
2.636920
  0
POLYLINE
  8
0
  6
CONTINUOUS
 66
     1
 40
0.000000
 41
0.000000
  0
VERTEX
  8
0
  6
CONTINUOUS
 10
6.306960
 20
2.312200
  0
VERTEX
  8
0
  6
CONTINUOUS
 10
6.930880
 20
2.671680
  0
VERTEX
  8
0
  6
CONTINUOUS
 10
6.879840
 20
2.636920
  0
VERTEX
  8
0
  6
CONTINUOUS
 10
6.256360
 20
2.277440
  0
VERTEX
  8
0
  6
CONTINUOUS
 10
6.306960
 20
2.312200
  0
SEQEND
  8
0
  0
SOLID
  8
0
 62
    15
 10
6.341720
 20
2.363240
 11
6.965200
 21
2.722720
 12
6.306960
 22
2.312200
 13
6.930880
 23
2.671680
  0
POLYLINE
  8
0
  6
CONTINUOUS
 66
     1
 40
0.000000
 41
0.000000
  0
VERTEX
  8
0
  6
CONTINUOUS
 10
6.341720
 20
2.363240
  0
VERTEX
  8
0
  6
CONTINUOUS
 10
6.965200
 20
2.722720
  0
VERTEX
  8
0
  6
CONTINUOUS
 10
6.930880
 20
2.671680
  0
VERTEX
  8
0
  6
CONTINUOUS
 10
6.306960
 20
2.312200
  0
VERTEX
  8
0
  6
CONTINUOUS
 10
6.341720
 20
2.363240
  0
SEQEND
  8
0
  0
SOLID
  8
0
 62
    15
 10
6.189040
 20
2.167440
 11
6.812960
 21
2.526920
 12
6.192120
 22
2.166120
 13
6.815600
 23
2.525600
  0
POLYLINE
  8
0
  6
CONTINUOUS
 66
     1
 40
0.000000
 41
0.000000
  0
VERTEX
  8
0
  6
CONTINUOUS
 10
6.189040
 20
2.167440
  0
VERTEX
  8
0
  6
CONTINUOUS
 10
6.812960
 20
2.526920
  0
VERTEX
  8
0
  6
CONTINUOUS
 10
6.815600
 20
2.525600
  0
VERTEX
  8
0
  6
CONTINUOUS
 10
6.192120
 20
2.166120
  0
VERTEX
  8
0
  6
CONTINUOUS
 10
6.189040
 20
2.167440
  0
SEQEND
  8
0
  0
SOLID
  8
0
 62
    15
 10
6.192120
 20
2.166120
 11
6.815600
 21
2.525600
 12
6.298600
 22
2.147200
 13
6.922080
 23
2.506240
  0
POLYLINE
  8
0
  6
CONTINUOUS
 66
     1
 40
0.000000
 41
0.000000
  0
VERTEX
  8
0
  6
CONTINUOUS
 10
6.192120
 20
2.166120
  0
VERTEX
  8
0
  6
CONTINUOUS
 10
6.815600
 20
2.525600
  0
VERTEX
  8
0
  6
CONTINUOUS
 10
6.922080
 20
2.506240
  0
VERTEX
  8
0
  6
CONTINUOUS
 10
6.298600
 20
2.147200
  0
VERTEX
  8
0
  6
CONTINUOUS
 10
6.192120
 20
2.166120
  0
SEQEND
  8
0
  0
SOLID
  8
0
 62
    15
 10
6.298600
 20
2.147200
 11
6.922080
 21
2.506240
 12
6.398920
 22
2.125200
 13
7.022400
 23
2.484680
  0
POLYLINE
  8
0
  6
CONTINUOUS
 66
     1
 40
0.000000
 41
0.000000
  0
VERTEX
  8
0
  6
CONTINUOUS
 10
6.298600
 20
2.147200
  0
VERTEX
  8
0
  6
CONTINUOUS
 10
6.922080
 20
2.506240
  0
VERTEX
  8
0
  6
CONTINUOUS
 10
7.022400
 20
2.484680
  0
VERTEX
  8
0
  6
CONTINUOUS
 10
6.398920
 20
2.125200
  0
VERTEX
  8
0
  6
CONTINUOUS
 10
6.298600
 20
2.147200
  0
SEQEND
  8
0
  0
SOLID
  8
0
 62
    15
 10
5.947920
 20
3.103320
 11
6.571400
 21
3.462800
 12
5.952320
 22
3.039520
 13
6.575800
 23
3.399000
  0
POLYLINE
  8
0
  6
CONTINUOUS
 66
     1
 40
0.000000
 41
0.000000
  0
VERTEX
  8
0
  6
CONTINUOUS
 10
5.947920
 20
3.103320
  0
VERTEX
  8
0
  6
CONTINUOUS
 10
6.571400
 20
3.462800
  0
VERTEX
  8
0
  6
CONTINUOUS
 10
6.575800
 20
3.399000
  0
VERTEX
  8
0
  6
CONTINUOUS
 10
5.952320
 20
3.039520
  0
VERTEX
  8
0
  6
CONTINUOUS
 10
5.947920
 20
3.103320
  0
SEQEND
  8
0
  0
SOLID
  8
0
 62
    15
 10
6.580640
 20
2.075040
 11
7.204120
 21
2.434520
 12
6.738160
 22
2.016520
 13
7.361640
 23
2.375560
  0
POLYLINE
  8
0
  6
CONTINUOUS
 66
     1
 40
0.000000
 41
0.000000
  0
VERTEX
  8
0
  6
CONTINUOUS
 10
6.580640
 20
2.075040
  0
VERTEX
  8
0
  6
CONTINUOUS
 10
7.204120
 20
2.434520
  0
VERTEX
  8
0
  6
CONTINUOUS
 10
7.361640
 20
2.375560
  0
VERTEX
  8
0
  6
CONTINUOUS
 10
6.738160
 20
2.016520
  0
VERTEX
  8
0
  6
CONTINUOUS
 10
6.580640
 20
2.075040
  0
SEQEND
  8
0
  0
SOLID
  8
0
 62
    15
 10
6.738160
 20
2.016520
 11
7.361640
 21
2.375560
 12
6.871920
 22
1.950960
 13
7.495400
 23
2.310440
  0
POLYLINE
  8
0
  6
CONTINUOUS
 66
     1
 40
0.000000
 41
0.000000
  0
VERTEX
  8
0
  6
CONTINUOUS
 10
6.738160
 20
2.016520
  0
VERTEX
  8
0
  6
CONTINUOUS
 10
7.361640
 20
2.375560
  0
VERTEX
  8
0
  6
CONTINUOUS
 10
7.495400
 20
2.310440
  0
VERTEX
  8
0
  6
CONTINUOUS
 10
6.871920
 20
1.950960
  0
VERTEX
  8
0
  6
CONTINUOUS
 10
6.738160
 20
2.016520
  0
SEQEND
  8
0
  0
SOLID
  8
0
 62
    15
 10
6.871920
 20
1.950960
 11
7.495400
 21
2.310440
 12
6.983240
 22
1.879680
 13
7.606720
 23
2.239160
  0
POLYLINE
  8
0
  6
CONTINUOUS
 66
     1
 40
0.000000
 41
0.000000
  0
VERTEX
  8
0
  6
CONTINUOUS
 10
6.871920
 20
1.950960
  0
VERTEX
  8
0
  6
CONTINUOUS
 10
7.495400
 20
2.310440
  0
VERTEX
  8
0
  6
CONTINUOUS
 10
7.606720
 20
2.239160
  0
VERTEX
  8
0
  6
CONTINUOUS
 10
6.983240
 20
1.879680
  0
VERTEX
  8
0
  6
CONTINUOUS
 10
6.871920
 20
1.950960
  0
SEQEND
  8
0
  0
SOLID
  8
0
 62
    15
 10
6.983240
 20
1.879680
 11
7.606720
 21
2.239160
 12
7.073000
 22
1.804880
 13
7.696480
 23
2.164360
  0
POLYLINE
  8
0
  6
CONTINUOUS
 66
     1
 40
0.000000
 41
0.000000
  0
VERTEX
  8
0
  6
CONTINUOUS
 10
6.983240
 20
1.879680
  0
VERTEX
  8
0
  6
CONTINUOUS
 10
7.606720
 20
2.239160
  0
VERTEX
  8
0
  6
CONTINUOUS
 10
7.696480
 20
2.164360
  0
VERTEX
  8
0
  6
CONTINUOUS
 10
7.073000
 20
1.804880
  0
VERTEX
  8
0
  6
CONTINUOUS
 10
6.983240
 20
1.879680
  0
SEQEND
  8
0
  0
SOLID
  8
0
 62
    15
 10
7.073000
 20
1.804880
 11
7.696480
 21
2.164360
 12
7.141640
 22
1.727000
 13
7.765120
 23
2.086040
  0
POLYLINE
  8
0
  6
CONTINUOUS
 66
     1
 40
0.000000
 41
0.000000
  0
VERTEX
  8
0
  6
CONTINUOUS
 10
7.073000
 20
1.804880
  0
VERTEX
  8
0
  6
CONTINUOUS
 10
7.696480
 20
2.164360
  0
VERTEX
  8
0
  6
CONTINUOUS
 10
7.765120
 20
2.086040
  0
VERTEX
  8
0
  6
CONTINUOUS
 10
7.141640
 20
1.727000
  0
VERTEX
  8
0
  6
CONTINUOUS
 10
7.073000
 20
1.804880
  0
SEQEND
  8
0
  0
SOLID
  8
0
 62
    15
 10
7.141640
 20
1.727000
 11
7.765120
 21
2.086040
 12
7.190040
 22
1.647360
 13
7.813520
 23
2.006840
  0
POLYLINE
  8
0
  6
CONTINUOUS
 66
     1
 40
0.000000
 41
0.000000
  0
VERTEX
  8
0
  6
CONTINUOUS
 10
7.141640
 20
1.727000
  0
VERTEX
  8
0
  6
CONTINUOUS
 10
7.765120
 20
2.086040
  0
VERTEX
  8
0
  6
CONTINUOUS
 10
7.813520
 20
2.006840
  0
VERTEX
  8
0
  6
CONTINUOUS
 10
7.190040
 20
1.647360
  0
VERTEX
  8
0
  6
CONTINUOUS
 10
7.141640
 20
1.727000
  0
SEQEND
  8
0
  0
SOLID
  8
0
 62
    15
 10
7.190040
 20
1.647360
 11
7.813520
 21
2.006840
 12
7.219080
 22
1.568160
 13
7.842560
 23
1.927200
  0
POLYLINE
  8
0
  6
CONTINUOUS
 66
     1
 40
0.000000
 41
0.000000
  0
VERTEX
  8
0
  6
CONTINUOUS
 10
7.190040
 20
1.647360
  0
VERTEX
  8
0
  6
CONTINUOUS
 10
7.813520
 20
2.006840
  0
VERTEX
  8
0
  6
CONTINUOUS
 10
7.842560
 20
1.927200
  0
VERTEX
  8
0
  6
CONTINUOUS
 10
7.219080
 20
1.568160
  0
VERTEX
  8
0
  6
CONTINUOUS
 10
7.190040
 20
1.647360
  0
SEQEND
  8
0
  0
SOLID
  8
0
 62
    15
 10
7.219080
 20
1.568160
 11
7.842560
 21
1.927200
 12
7.229640
 22
1.489840
 13
7.853120
 23
1.849320
  0
POLYLINE
  8
0
  6
CONTINUOUS
 66
     1
 40
0.000000
 41
0.000000
  0
VERTEX
  8
0
  6
CONTINUOUS
 10
7.219080
 20
1.568160
  0
VERTEX
  8
0
  6
CONTINUOUS
 10
7.842560
 20
1.927200
  0
VERTEX
  8
0
  6
CONTINUOUS
 10
7.853120
 20
1.849320
  0
VERTEX
  8
0
  6
CONTINUOUS
 10
7.229640
 20
1.489840
  0
VERTEX
  8
0
  6
CONTINUOUS
 10
7.219080
 20
1.568160
  0
SEQEND
  8
0
  0
SOLID
  8
0
 62
    15
 10
7.229640
 20
1.489840
 11
7.853120
 21
1.849320
 12
7.222600
 22
1.414600
 13
7.846080
 23
1.773640
  0
POLYLINE
  8
0
  6
CONTINUOUS
 66
     1
 40
0.000000
 41
0.000000
  0
VERTEX
  8
0
  6
CONTINUOUS
 10
7.229640
 20
1.489840
  0
VERTEX
  8
0
  6
CONTINUOUS
 10
7.853120
 20
1.849320
  0
VERTEX
  8
0
  6
CONTINUOUS
 10
7.846080
 20
1.773640
  0
VERTEX
  8
0
  6
CONTINUOUS
 10
7.222600
 20
1.414600
  0
VERTEX
  8
0
  6
CONTINUOUS
 10
7.229640
 20
1.489840
  0
SEQEND
  8
0
  0
SOLID
  8
0
 62
    15
 10
7.222600
 20
1.414600
 11
7.846080
 21
1.773640
 12
7.198840
 22
1.342880
 13
7.822320
 23
1.702360
  0
POLYLINE
  8
0
  6
CONTINUOUS
 66
     1
 40
0.000000
 41
0.000000
  0
VERTEX
  8
0
  6
CONTINUOUS
 10
7.222600
 20
1.414600
  0
VERTEX
  8
0
  6
CONTINUOUS
 10
7.846080
 20
1.773640
  0
VERTEX
  8
0
  6
CONTINUOUS
 10
7.822320
 20
1.702360
  0
VERTEX
  8
0
  6
CONTINUOUS
 10
7.198840
 20
1.342880
  0
VERTEX
  8
0
  6
CONTINUOUS
 10
7.222600
 20
1.414600
  0
SEQEND
  8
0
  0
SOLID
  8
0
 62
    15
 10
7.198840
 20
1.342880
 11
7.822320
 21
1.702360
 12
7.158800
 22
1.276880
 13
7.782720
 23
1.636360
  0
POLYLINE
  8
0
  6
CONTINUOUS
 66
     1
 40
0.000000
 41
0.000000
  0
VERTEX
  8
0
  6
CONTINUOUS
 10
7.198840
 20
1.342880
  0
VERTEX
  8
0
  6
CONTINUOUS
 10
7.822320
 20
1.702360
  0
VERTEX
  8
0
  6
CONTINUOUS
 10
7.782720
 20
1.636360
  0
VERTEX
  8
0
  6
CONTINUOUS
 10
7.158800
 20
1.276880
  0
VERTEX
  8
0
  6
CONTINUOUS
 10
7.198840
 20
1.342880
  0
SEQEND
  8
0
  0
SOLID
  8
0
 62
    15
 10
7.158800
 20
1.276880
 11
7.782720
 21
1.636360
 12
7.103800
 22
1.217480
 13
7.727720
 23
1.576960
  0
POLYLINE
  8
0
  6
CONTINUOUS
 66
     1
 40
0.000000
 41
0.000000
  0
VERTEX
  8
0
  6
CONTINUOUS
 10
7.158800
 20
1.276880
  0
VERTEX
  8
0
  6
CONTINUOUS
 10
7.782720
 20
1.636360
  0
VERTEX
  8
0
  6
CONTINUOUS
 10
7.727720
 20
1.576960
  0
VERTEX
  8
0
  6
CONTINUOUS
 10
7.103800
 20
1.217480
  0
VERTEX
  8
0
  6
CONTINUOUS
 10
7.158800
 20
1.276880
  0
SEQEND
  8
0
  0
SOLID
  8
0
 62
    15
 10
6.952000
 20
1.124640
 11
7.575480
 21
1.484120
 12
6.950680
 22
1.123320
 13
7.574160
 23
1.482800
  0
POLYLINE
  8
0
  6
CONTINUOUS
 66
     1
 40
0.000000
 41
0.000000
  0
VERTEX
  8
0
  6
CONTINUOUS
 10
6.952000
 20
1.124640
  0
VERTEX
  8
0
  6
CONTINUOUS
 10
7.575480
 20
1.484120
  0
VERTEX
  8
0
  6
CONTINUOUS
 10
7.574160
 20
1.482800
  0
VERTEX
  8
0
  6
CONTINUOUS
 10
6.950680
 20
1.123320
  0
VERTEX
  8
0
  6
CONTINUOUS
 10
6.952000
 20
1.124640
  0
SEQEND
  8
0
  0
SOLID
  8
0
 62
    15
 10
6.950680
 20
1.123320
 11
7.574160
 21
1.482800
 12
6.950680
 22
1.028720
 13
7.574160
 23
1.388200
  0
POLYLINE
  8
0
  6
CONTINUOUS
 66
     1
 40
0.000000
 41
0.000000
  0
VERTEX
  8
0
  6
CONTINUOUS
 10
6.950680
 20
1.123320
  0
VERTEX
  8
0
  6
CONTINUOUS
 10
7.574160
 20
1.482800
  0
VERTEX
  8
0
  6
CONTINUOUS
 10
7.574160
 20
1.388200
  0
VERTEX
  8
0
  6
CONTINUOUS
 10
6.950680
 20
1.028720
  0
VERTEX
  8
0
  6
CONTINUOUS
 10
6.950680
 20
1.123320
  0
SEQEND
  8
0
  0
SOLID
  8
0
 62
    15
 10
7.103800
 20
1.217480
 11
7.727720
 21
1.576960
 12
7.034720
 22
1.166440
 13
7.658200
 23
1.525920
  0
POLYLINE
  8
0
  6
CONTINUOUS
 66
     1
 40
0.000000
 41
0.000000
  0
VERTEX
  8
0
  6
CONTINUOUS
 10
7.103800
 20
1.217480
  0
VERTEX
  8
0
  6
CONTINUOUS
 10
7.727720
 20
1.576960
  0
VERTEX
  8
0
  6
CONTINUOUS
 10
7.658200
 20
1.525920
  0
VERTEX
  8
0
  6
CONTINUOUS
 10
7.034720
 20
1.166440
  0
VERTEX
  8
0
  6
CONTINUOUS
 10
7.103800
 20
1.217480
  0
SEQEND
  8
0
  0
SOLID
  8
0
 62
    15
 10
6.950680
 20
1.028720
 11
7.574160
 21
1.388200
 12
7.262640
 22
1.028720
 13
7.886120
 23
1.388200
  0
POLYLINE
  8
0
  6
CONTINUOUS
 66
     1
 40
0.000000
 41
0.000000
  0
VERTEX
  8
0
  6
CONTINUOUS
 10
6.950680
 20
1.028720
  0
VERTEX
  8
0
  6
CONTINUOUS
 10
7.574160
 20
1.388200
  0
VERTEX
  8
0
  6
CONTINUOUS
 10
7.886120
 20
1.388200
  0
VERTEX
  8
0
  6
CONTINUOUS
 10
7.262640
 20
1.028720
  0
VERTEX
  8
0
  6
CONTINUOUS
 10
6.950680
 20
1.028720
  0
SEQEND
  8
0
  0
SOLID
  8
0
 62
    15
 10
7.262640
 20
1.028720
 11
7.886120
 21
1.388200
 12
7.262640
 22
0.842160
 13
7.886120
 23
1.201640
  0
POLYLINE
  8
0
  6
CONTINUOUS
 66
     1
 40
0.000000
 41
0.000000
  0
VERTEX
  8
0
  6
CONTINUOUS
 10
7.262640
 20
1.028720
  0
VERTEX
  8
0
  6
CONTINUOUS
 10
7.886120
 20
1.388200
  0
VERTEX
  8
0
  6
CONTINUOUS
 10
7.886120
 20
1.201640
  0
VERTEX
  8
0
  6
CONTINUOUS
 10
7.262640
 20
0.842160
  0
VERTEX
  8
0
  6
CONTINUOUS
 10
7.262640
 20
1.028720
  0
SEQEND
  8
0
  0
SOLID
  8
0
 62
    15
 10
5.761360
 20
3.105960
 11
6.384840
 21
3.465440
 12
5.949240
 22
3.105960
 13
6.572720
 23
3.465440
  0
POLYLINE
  8
0
  6
CONTINUOUS
 66
     1
 40
0.000000
 41
0.000000
  0
VERTEX
  8
0
  6
CONTINUOUS
 10
5.761360
 20
3.105960
  0
VERTEX
  8
0
  6
CONTINUOUS
 10
6.384840
 20
3.465440
  0
VERTEX
  8
0
  6
CONTINUOUS
 10
6.572720
 20
3.465440
  0
VERTEX
  8
0
  6
CONTINUOUS
 10
5.949240
 20
3.105960
  0
VERTEX
  8
0
  6
CONTINUOUS
 10
5.761360
 20
3.105960
  0
SEQEND
  8
0
  0
SOLID
  8
0
 62
    15
 10
5.949240
 20
3.105960
 11
6.572720
 21
3.465440
 12
5.947920
 22
3.103320
 13
6.571400
 23
3.462800
  0
POLYLINE
  8
0
  6
CONTINUOUS
 66
     1
 40
0.000000
 41
0.000000
  0
VERTEX
  8
0
  6
CONTINUOUS
 10
5.949240
 20
3.105960
  0
VERTEX
  8
0
  6
CONTINUOUS
 10
6.572720
 20
3.465440
  0
VERTEX
  8
0
  6
CONTINUOUS
 10
6.571400
 20
3.462800
  0
VERTEX
  8
0
  6
CONTINUOUS
 10
5.947920
 20
3.103320
  0
VERTEX
  8
0
  6
CONTINUOUS
 10
5.949240
 20
3.105960
  0
SEQEND
  8
0
  0
POLYLINE
  8
0
  6
CONTINUOUS
 66
     1
 40
0.000000
 41
0.000000
  0
VERTEX
  8
0
  6
CONTINUOUS
 10
5.947920
 20
3.103320
  0
VERTEX
  8
0
  6
CONTINUOUS
 10
5.952320
 20
3.039520
  0
VERTEX
  8
0
  6
CONTINUOUS
 10
5.961560
 20
2.987600
  0
VERTEX
  8
0
  6
CONTINUOUS
 10
5.976080
 20
2.945800
  0
VERTEX
  8
0
  6
CONTINUOUS
 10
5.995440
 20
2.913240
  0
VERTEX
  8
0
  6
CONTINUOUS
 10
6.019200
 20
2.889040
  0
VERTEX
  8
0
  6
CONTINUOUS
 10
6.047360
 20
2.871880
  0
VERTEX
  8
0
  6
CONTINUOUS
 10
6.116000
 20
2.854280
  0
VERTEX
  8
0
  6
CONTINUOUS
 10
6.116000
 20
2.580600
  0
VERTEX
  8
0
  6
CONTINUOUS
 10
6.197400
 20
2.580600
  0
VERTEX
  8
0
  6
CONTINUOUS
 10
6.258560
 20
2.568720
  0
VERTEX
  8
0
  6
CONTINUOUS
 10
6.308280
 20
2.535280
  0
VERTEX
  8
0
  6
CONTINUOUS
 10
6.342160
 20
2.485560
  0
VERTEX
  8
0
  6
CONTINUOUS
 10
6.354480
 20
2.424840
  0
VERTEX
  8
0
  6
CONTINUOUS
 10
6.341720
 20
2.363240
  0
VERTEX
  8
0
  6
CONTINUOUS
 10
6.306960
 20
2.312200
  0
VERTEX
  8
0
  6
CONTINUOUS
 10
6.256360
 20
2.277440
  0
VERTEX
  8
0
  6
CONTINUOUS
 10
6.194760
 20
2.264680
  0
VERTEX
  8
0
  6
CONTINUOUS
 10
6.189040
 20
2.264680
  0
VERTEX
  8
0
  6
CONTINUOUS
 10
6.189040
 20
2.167440
  0
VERTEX
  8
0
  6
CONTINUOUS
 10
6.192120
 20
2.166120
  0
VERTEX
  8
0
  6
CONTINUOUS
 10
6.298600
 20
2.147200
  0
VERTEX
  8
0
  6
CONTINUOUS
 10
6.398920
 20
2.125200
  0
VERTEX
  8
0
  6
CONTINUOUS
 10
6.580640
 20
2.075040
  0
VERTEX
  8
0
  6
CONTINUOUS
 10
6.738160
 20
2.016520
  0
VERTEX
  8
0
  6
CONTINUOUS
 10
6.871920
 20
1.950960
  0
VERTEX
  8
0
  6
CONTINUOUS
 10
6.983240
 20
1.879680
  0
VERTEX
  8
0
  6
CONTINUOUS
 10
7.073000
 20
1.804880
  0
VERTEX
  8
0
  6
CONTINUOUS
 10
7.141640
 20
1.727000
  0
VERTEX
  8
0
  6
CONTINUOUS
 10
7.190040
 20
1.647360
  0
VERTEX
  8
0
  6
CONTINUOUS
 10
7.219080
 20
1.568160
  0
VERTEX
  8
0
  6
CONTINUOUS
 10
7.229640
 20
1.489840
  0
VERTEX
  8
0
  6
CONTINUOUS
 10
7.222600
 20
1.414600
  0
VERTEX
  8
0
  6
CONTINUOUS
 10
7.198840
 20
1.342880
  0
VERTEX
  8
0
  6
CONTINUOUS
 10
7.158800
 20
1.276880
  0
VERTEX
  8
0
  6
CONTINUOUS
 10
7.103800
 20
1.217480
  0
VERTEX
  8
0
  6
CONTINUOUS
 10
7.034720
 20
1.166440
  0
VERTEX
  8
0
  6
CONTINUOUS
 10
6.952000
 20
1.124640
  0
VERTEX
  8
0
  6
CONTINUOUS
 10
6.950680
 20
1.123320
  0
VERTEX
  8
0
  6
CONTINUOUS
 10
6.950680
 20
1.028720
  0
VERTEX
  8
0
  6
CONTINUOUS
 10
7.262640
 20
1.028720
  0
VERTEX
  8
0
  6
CONTINUOUS
 10
7.262640
 20
0.842160
  0
VERTEX
  8
0
  6
CONTINUOUS
 10
5.762680
 20
0.842160
  0
VERTEX
  8
0
  6
CONTINUOUS
 10
5.762680
 20
3.104640
  0
VERTEX
  8
0
  6
CONTINUOUS
 10
5.761360
 20
3.105960
  0
VERTEX
  8
0
  6
CONTINUOUS
 10
5.949240
 20
3.105960
  0
VERTEX
  8
0
  6
CONTINUOUS
 10
5.947920
 20
3.103320
  0
SEQEND
  8
0
  0
TEXT
  8
0
 10
6.529600
 20
0.597080
 40
0.138009
  1
BA  266
 41
1.000000
  7
SN0
 71
     0
 72
     5
 11
7.120502
 21
0.597080
  0
TEXT
  8
0
 10
6.299920
 20
0.405680
 40
0.138009
  1
1-1/2" x 2-1/4"
 41
1.000000
  7
SN0
 71
     0
 72
     5
 11
7.349251
 21
0.405680
  0
TEXT
  8
0
 10
7.758960
 20
5.860360
 40
0.138009
  1
base
 41
1.000000
  7
SN0
 71
     0
 72
     5
 11
8.119376
 21
5.860360
  0
TEXT
  8
0
 10
7.800320
 20
5.668520
 40
0.138009
  1
266
 41
1.000000
  7
SN0
 71
     0
 72
     5
 11
8.077694
 21
5.668520
  0
ENDSEC
  0
EOF
