  0
SECTION
  2
HEADER
  9
$ACADVER
  1
AC1006
  9
$EXTMIN
 10
4.208600
 20
0.443080
  9
$EXTMAX
 10
8.088960
 20
4.133800
  9
$LTSCALE
 40
0.044000
  9
$PDMODE
 70
    35
  9
$PDSIZE
 40
0.035200
  0
ENDSEC
  0
SECTION
  2
TABLES
  0
TABLE
  2
LTYPE
 70
     9
  0
LTYPE
  2
CONTINUOUS
 70
    64
  3
Solid line
 72
    65
 73
     0
 40
0.000000
  0
LTYPE
  2
DASHED
 70
    64
  3
__ __ __ __ __ __ __ __ __ __ __ __ __ __ __
 72
    65
 73
     2
 40
0.000330
 49
0.000220
 49
-0.000110
  0
LTYPE
  2
HIDDEN
 70
    64
  3
 _ _ _ _ _ _ _ _ _ _ _ _ _ _ _ _ _ _ _ _ _ _
 72
    65
 73
     2
 40
0.000165
 49
0.000110
 49
-0.000055
  0
LTYPE
  2
CENTER
 70
    64
  3
____ _ ____ _ ____ _ ____ _ ____ _ ____ _ ____
 72
    65
 73
     4
 40
0.000880
 49
0.000550
 49
-0.000110
 49
0.000110
 49
-0.000110
  0
LTYPE
  2
PHANTOM
 70
    64
  3
_____ _ _ _____ _ _ _____ _ _ _____ _ _ ____
 72
    65
 73
     6
 40
0.001100
 49
0.000550
 49
-0.000110
 49
0.000110
 49
-0.000110
 49
0.000110
 49
-0.000110
  0
LTYPE
  2
DOT
 70
    64
  3
...............................................
 72
    65
 73
     2
 40
0.000110
 49
0.000000
 49
-0.000110
  0
LTYPE
  2
DASHDOT
 70
    64
  3
__ . __ . __ . __ . __ . __ . __ . __ . __ . __
 72
    65
 73
     4
 40
0.000440
 49
0.000220
 49
-0.000110
 49
0.000000
 49
-0.000110
  0
LTYPE
  2
BORDER
 70
    64
  3
__ __ . __ __ . __ __ . __ __ . __ __ . __ __
 72
    65
 73
     6
 40
0.000770
 49
0.000220
 49
-0.000110
 49
0.000220
 49
-0.000110
 49
0.000000
 49
-0.000110
  0
LTYPE
  2
DIVIDE
 70
    64
  3
__ . . __ . . __ . . __ . . __ . . __ . . __
 72
    65
 73
     6
 40
0.000550
 49
0.000220
 49
-0.000110
 49
0.000000
 49
-0.000110
 49
0.000000
 49
-0.000110
  0
LTYPE
  2
DOTDOT
 70
    64
  3
 . .  . .  . .  . .  . .  . . 
 72
    65
 73
     5
 40
0.000242
 49
-0.000110
 49
0.000000
 49
-0.000110
 49
0.000000
 49
-0.000110
  0
ENDTAB
  0
TABLE
  2
STYLE
 70
     2
  0
STYLE
 70
     0
  2
SN0
 40
0.000000
 41
0.000440
 50
0.000000
 71
     0
 42
0.000000
  3
ROMAND
  0
STYLE
 70
    68
  2
SV0
 40
0.000000
 41
0.000440
 50
0.000000
 71
     0
 42
0.000000
  3
ROMAND
  0
ENDTAB
  0
TABLE
  2
LAYER
 70
     3
  0
LAYER
  2
FOREGROUND
 70
    64
 62
     7
  6
CONTINUOUS
  0
LAYER
  2
BACKGROUND
 70
    65
 62
    -7
  6
CONTINUOUS
  0
LAYER
  2
0
 70
    64
 62
     7
  6
CONTINUOUS
  0
ENDTAB
  0
ENDSEC
  0
SECTION
  2
ENTITIES
  0
POLYLINE
  8
FOREGROUND
  6
CONTINUOUS
 66
     1
 40
0.000000
 41
0.000000
  0
VERTEX
  8
FOREGROUND
  6
CONTINUOUS
 10
0.000000
 20
4.576880
  0
VERTEX
  8
FOREGROUND
  6
CONTINUOUS
 10
8.499920
 20
4.576880
  0
VERTEX
  8
FOREGROUND
  6
CONTINUOUS
 10
8.499920
 20
-6.423120
  0
VERTEX
  8
FOREGROUND
  6
CONTINUOUS
 10
0.000000
 20
-6.423120
  0
VERTEX
  8
FOREGROUND
  6
CONTINUOUS
 10
0.000000
 20
4.576880
  0
SEQEND
  8
0
  0
POLYLINE
  8
FOREGROUND
  6
CONTINUOUS
 66
     1
 40
0.000000
 41
0.000000
  0
VERTEX
  8
FOREGROUND
  6
CONTINUOUS
 10
0.000000
 20
4.576880
  0
VERTEX
  8
FOREGROUND
  6
CONTINUOUS
 10
8.499920
 20
4.576880
  0
VERTEX
  8
FOREGROUND
  6
CONTINUOUS
 10
8.499920
 20
-6.423120
  0
VERTEX
  8
FOREGROUND
  6
CONTINUOUS
 10
0.000000
 20
-6.423120
  0
VERTEX
  8
FOREGROUND
  6
CONTINUOUS
 10
0.000000
 20
4.576880
  0
SEQEND
  8
0
  0
POLYLINE
  8
0
  6
CONTINUOUS
 66
     1
 40
0.014080
 41
0.014080
  0
VERTEX
  8
0
  6
CONTINUOUS
 10
5.082880
 20
3.853080
  0
VERTEX
  8
0
  6
CONTINUOUS
 10
5.082880
 20
3.802920
  0
VERTEX
  8
0
  6
CONTINUOUS
 10
6.107640
 20
3.802920
  0
VERTEX
  8
0
  6
CONTINUOUS
 10
6.107640
 20
2.817760
  0
VERTEX
  8
0
  6
CONTINUOUS
 10
4.216080
 20
2.817760
  0
VERTEX
  8
0
  6
CONTINUOUS
 10
4.216080
 20
4.032160
  0
VERTEX
  8
0
  6
CONTINUOUS
 10
4.216080
 20
4.034360
  0
VERTEX
  8
0
  6
CONTINUOUS
 10
4.718120
 20
4.034360
  0
VERTEX
  8
0
  6
CONTINUOUS
 10
4.718120
 20
3.990800
  0
VERTEX
  8
0
  6
CONTINUOUS
 10
4.720320
 20
3.990800
  0
VERTEX
  8
0
  6
CONTINUOUS
 10
4.735280
 20
3.990360
  0
VERTEX
  8
0
  6
CONTINUOUS
 10
4.749360
 20
3.989040
  0
VERTEX
  8
0
  6
CONTINUOUS
 10
4.762560
 20
3.987280
  0
VERTEX
  8
0
  6
CONTINUOUS
 10
4.775320
 20
3.984640
  0
VERTEX
  8
0
  6
CONTINUOUS
 10
4.787200
 20
3.982000
  0
VERTEX
  8
0
  6
CONTINUOUS
 10
4.798640
 20
3.978480
  0
VERTEX
  8
0
  6
CONTINUOUS
 10
4.809200
 20
3.974520
  0
VERTEX
  8
0
  6
CONTINUOUS
 10
4.819320
 20
3.970120
  0
VERTEX
  8
0
  6
CONTINUOUS
 10
4.838680
 20
3.960440
  0
VERTEX
  8
0
  6
CONTINUOUS
 10
4.856720
 20
3.949440
  0
VERTEX
  8
0
  6
CONTINUOUS
 10
4.891040
 20
3.925680
  0
VERTEX
  8
0
  6
CONTINUOUS
 10
4.908640
 20
3.913800
  0
VERTEX
  8
0
  6
CONTINUOUS
 10
4.926680
 20
3.901480
  0
VERTEX
  8
0
  6
CONTINUOUS
 10
4.946040
 20
3.890040
  0
VERTEX
  8
0
  6
CONTINUOUS
 10
4.967600
 20
3.879480
  0
VERTEX
  8
0
  6
CONTINUOUS
 10
4.979040
 20
3.874640
  0
VERTEX
  8
0
  6
CONTINUOUS
 10
4.990920
 20
3.870240
  0
VERTEX
  8
0
  6
CONTINUOUS
 10
5.004120
 20
3.866280
  0
VERTEX
  8
0
  6
CONTINUOUS
 10
5.017320
 20
3.862760
  0
VERTEX
  8
0
  6
CONTINUOUS
 10
5.031840
 20
3.859240
  0
VERTEX
  8
0
  6
CONTINUOUS
 10
5.047240
 20
3.856600
  0
VERTEX
  8
0
  6
CONTINUOUS
 10
5.063520
 20
3.854400
  0
VERTEX
  8
0
  6
CONTINUOUS
 10
5.080680
 20
3.853080
  0
VERTEX
  8
0
  6
CONTINUOUS
 10
5.082880
 20
3.853080
  0
SEQEND
  8
0
  0
SOLID
  8
0
 62
    15
 10
5.806680
 20
2.063160
 11
6.452600
 21
2.431880
 12
5.844080
 22
2.042920
 13
6.490000
 23
2.411200
  0
POLYLINE
  8
0
  6
CONTINUOUS
 66
     1
 40
0.000000
 41
0.000000
  0
VERTEX
  8
0
  6
CONTINUOUS
 10
5.806680
 20
2.063160
  0
VERTEX
  8
0
  6
CONTINUOUS
 10
6.452600
 20
2.431880
  0
VERTEX
  8
0
  6
CONTINUOUS
 10
6.490000
 20
2.411200
  0
VERTEX
  8
0
  6
CONTINUOUS
 10
5.844080
 20
2.042920
  0
VERTEX
  8
0
  6
CONTINUOUS
 10
5.806680
 20
2.063160
  0
SEQEND
  8
0
  0
SOLID
  8
0
 62
    15
 10
6.070240
 20
1.896400
 11
6.716160
 21
2.265120
 12
7.095000
 22
1.896400
 13
7.741360
 23
2.265120
  0
POLYLINE
  8
0
  6
CONTINUOUS
 66
     1
 40
0.000000
 41
0.000000
  0
VERTEX
  8
0
  6
CONTINUOUS
 10
6.070240
 20
1.896400
  0
VERTEX
  8
0
  6
CONTINUOUS
 10
6.716160
 20
2.265120
  0
VERTEX
  8
0
  6
CONTINUOUS
 10
7.741360
 20
2.265120
  0
VERTEX
  8
0
  6
CONTINUOUS
 10
7.095000
 20
1.896400
  0
VERTEX
  8
0
  6
CONTINUOUS
 10
6.070240
 20
1.896400
  0
SEQEND
  8
0
  0
SOLID
  8
0
 62
    15
 10
7.095000
 20
1.896400
 11
7.741360
 21
2.265120
 12
7.095000
 22
0.910800
 13
7.741360
 23
1.279520
  0
POLYLINE
  8
0
  6
CONTINUOUS
 66
     1
 40
0.000000
 41
0.000000
  0
VERTEX
  8
0
  6
CONTINUOUS
 10
7.095000
 20
1.896400
  0
VERTEX
  8
0
  6
CONTINUOUS
 10
7.741360
 20
2.265120
  0
VERTEX
  8
0
  6
CONTINUOUS
 10
7.741360
 20
1.279520
  0
VERTEX
  8
0
  6
CONTINUOUS
 10
7.095000
 20
0.910800
  0
VERTEX
  8
0
  6
CONTINUOUS
 10
7.095000
 20
1.896400
  0
SEQEND
  8
0
  0
SOLID
  8
0
 62
    15
 10
5.203440
 20
2.127840
 11
5.849360
 21
2.496120
 12
5.705480
 22
2.127840
 13
6.351400
 23
2.496120
  0
POLYLINE
  8
0
  6
CONTINUOUS
 66
     1
 40
0.000000
 41
0.000000
  0
VERTEX
  8
0
  6
CONTINUOUS
 10
5.203440
 20
2.127840
  0
VERTEX
  8
0
  6
CONTINUOUS
 10
5.849360
 20
2.496120
  0
VERTEX
  8
0
  6
CONTINUOUS
 10
6.351400
 20
2.496120
  0
VERTEX
  8
0
  6
CONTINUOUS
 10
5.705480
 20
2.127840
  0
VERTEX
  8
0
  6
CONTINUOUS
 10
5.203440
 20
2.127840
  0
SEQEND
  8
0
  0
SOLID
  8
0
 62
    15
 10
5.705480
 20
2.127840
 11
6.351400
 21
2.496120
 12
5.705480
 22
2.083840
 13
6.351400
 23
2.452560
  0
POLYLINE
  8
0
  6
CONTINUOUS
 66
     1
 40
0.000000
 41
0.000000
  0
VERTEX
  8
0
  6
CONTINUOUS
 10
5.705480
 20
2.127840
  0
VERTEX
  8
0
  6
CONTINUOUS
 10
6.351400
 20
2.496120
  0
VERTEX
  8
0
  6
CONTINUOUS
 10
6.351400
 20
2.452560
  0
VERTEX
  8
0
  6
CONTINUOUS
 10
5.705480
 20
2.083840
  0
VERTEX
  8
0
  6
CONTINUOUS
 10
5.705480
 20
2.127840
  0
SEQEND
  8
0
  0
SOLID
  8
0
 62
    15
 10
5.705480
 20
2.083840
 11
6.351400
 21
2.452560
 12
5.707680
 22
2.083840
 13
6.353600
 23
2.452560
  0
POLYLINE
  8
0
  6
CONTINUOUS
 66
     1
 40
0.000000
 41
0.000000
  0
VERTEX
  8
0
  6
CONTINUOUS
 10
5.705480
 20
2.083840
  0
VERTEX
  8
0
  6
CONTINUOUS
 10
6.351400
 20
2.452560
  0
VERTEX
  8
0
  6
CONTINUOUS
 10
6.353600
 20
2.452560
  0
VERTEX
  8
0
  6
CONTINUOUS
 10
5.707680
 20
2.083840
  0
VERTEX
  8
0
  6
CONTINUOUS
 10
5.705480
 20
2.083840
  0
SEQEND
  8
0
  0
SOLID
  8
0
 62
    15
 10
5.707680
 20
2.083840
 11
6.353600
 21
2.452560
 12
5.762680
 22
2.078120
 13
6.408600
 23
2.446400
  0
POLYLINE
  8
0
  6
CONTINUOUS
 66
     1
 40
0.000000
 41
0.000000
  0
VERTEX
  8
0
  6
CONTINUOUS
 10
5.707680
 20
2.083840
  0
VERTEX
  8
0
  6
CONTINUOUS
 10
6.353600
 20
2.452560
  0
VERTEX
  8
0
  6
CONTINUOUS
 10
6.408600
 20
2.446400
  0
VERTEX
  8
0
  6
CONTINUOUS
 10
5.762680
 20
2.078120
  0
VERTEX
  8
0
  6
CONTINUOUS
 10
5.707680
 20
2.083840
  0
SEQEND
  8
0
  0
SOLID
  8
0
 62
    15
 10
5.762680
 20
2.078120
 11
6.408600
 21
2.446400
 12
5.806680
 22
2.063160
 13
6.452600
 23
2.431880
  0
POLYLINE
  8
0
  6
CONTINUOUS
 66
     1
 40
0.000000
 41
0.000000
  0
VERTEX
  8
0
  6
CONTINUOUS
 10
5.762680
 20
2.078120
  0
VERTEX
  8
0
  6
CONTINUOUS
 10
6.408600
 20
2.446400
  0
VERTEX
  8
0
  6
CONTINUOUS
 10
6.452600
 20
2.431880
  0
VERTEX
  8
0
  6
CONTINUOUS
 10
5.806680
 20
2.063160
  0
VERTEX
  8
0
  6
CONTINUOUS
 10
5.762680
 20
2.078120
  0
SEQEND
  8
0
  0
SOLID
  8
0
 62
    15
 10
6.070240
 20
1.946560
 11
6.716160
 21
2.314840
 12
6.070240
 22
1.896400
 13
6.716160
 23
2.265120
  0
POLYLINE
  8
0
  6
CONTINUOUS
 66
     1
 40
0.000000
 41
0.000000
  0
VERTEX
  8
0
  6
CONTINUOUS
 10
6.070240
 20
1.946560
  0
VERTEX
  8
0
  6
CONTINUOUS
 10
6.716160
 20
2.314840
  0
VERTEX
  8
0
  6
CONTINUOUS
 10
6.716160
 20
2.265120
  0
VERTEX
  8
0
  6
CONTINUOUS
 10
6.070240
 20
1.896400
  0
VERTEX
  8
0
  6
CONTINUOUS
 10
6.070240
 20
1.946560
  0
SEQEND
  8
0
  0
SOLID
  8
0
 62
    15
 10
5.844080
 20
2.042920
 11
6.490000
 21
2.411200
 12
5.861240
 22
2.031040
 13
6.507160
 23
2.399760
  0
POLYLINE
  8
0
  6
CONTINUOUS
 66
     1
 40
0.000000
 41
0.000000
  0
VERTEX
  8
0
  6
CONTINUOUS
 10
5.844080
 20
2.042920
  0
VERTEX
  8
0
  6
CONTINUOUS
 10
6.490000
 20
2.411200
  0
VERTEX
  8
0
  6
CONTINUOUS
 10
6.507160
 20
2.399760
  0
VERTEX
  8
0
  6
CONTINUOUS
 10
5.861240
 20
2.031040
  0
VERTEX
  8
0
  6
CONTINUOUS
 10
5.844080
 20
2.042920
  0
SEQEND
  8
0
  0
SOLID
  8
0
 62
    15
 10
5.861240
 20
2.031040
 11
6.507160
 21
2.399760
 12
5.870040
 22
2.025320
 13
6.515960
 23
2.393600
  0
POLYLINE
  8
0
  6
CONTINUOUS
 66
     1
 40
0.000000
 41
0.000000
  0
VERTEX
  8
0
  6
CONTINUOUS
 10
5.861240
 20
2.031040
  0
VERTEX
  8
0
  6
CONTINUOUS
 10
6.507160
 20
2.399760
  0
VERTEX
  8
0
  6
CONTINUOUS
 10
6.515960
 20
2.393600
  0
VERTEX
  8
0
  6
CONTINUOUS
 10
5.870040
 20
2.025320
  0
VERTEX
  8
0
  6
CONTINUOUS
 10
5.861240
 20
2.031040
  0
SEQEND
  8
0
  0
SOLID
  8
0
 62
    15
 10
5.870040
 20
2.025320
 11
6.515960
 21
2.393600
 12
5.878400
 22
2.019160
 13
6.524320
 23
2.387440
  0
POLYLINE
  8
0
  6
CONTINUOUS
 66
     1
 40
0.000000
 41
0.000000
  0
VERTEX
  8
0
  6
CONTINUOUS
 10
5.870040
 20
2.025320
  0
VERTEX
  8
0
  6
CONTINUOUS
 10
6.515960
 20
2.393600
  0
VERTEX
  8
0
  6
CONTINUOUS
 10
6.524320
 20
2.387440
  0
VERTEX
  8
0
  6
CONTINUOUS
 10
5.878400
 20
2.019160
  0
VERTEX
  8
0
  6
CONTINUOUS
 10
5.870040
 20
2.025320
  0
SEQEND
  8
0
  0
SOLID
  8
0
 62
    15
 10
5.878400
 20
2.019160
 11
6.524320
 21
2.387440
 12
5.914040
 22
1.994960
 13
6.559960
 23
2.363240
  0
POLYLINE
  8
0
  6
CONTINUOUS
 66
     1
 40
0.000000
 41
0.000000
  0
VERTEX
  8
0
  6
CONTINUOUS
 10
5.878400
 20
2.019160
  0
VERTEX
  8
0
  6
CONTINUOUS
 10
6.524320
 20
2.387440
  0
VERTEX
  8
0
  6
CONTINUOUS
 10
6.559960
 20
2.363240
  0
VERTEX
  8
0
  6
CONTINUOUS
 10
5.914040
 20
1.994960
  0
VERTEX
  8
0
  6
CONTINUOUS
 10
5.878400
 20
2.019160
  0
SEQEND
  8
0
  0
SOLID
  8
0
 62
    15
 10
5.914040
 20
1.994960
 11
6.559960
 21
2.363240
 12
5.954960
 22
1.972960
 13
6.600880
 23
2.341240
  0
POLYLINE
  8
0
  6
CONTINUOUS
 66
     1
 40
0.000000
 41
0.000000
  0
VERTEX
  8
0
  6
CONTINUOUS
 10
5.914040
 20
1.994960
  0
VERTEX
  8
0
  6
CONTINUOUS
 10
6.559960
 20
2.363240
  0
VERTEX
  8
0
  6
CONTINUOUS
 10
6.600880
 20
2.341240
  0
VERTEX
  8
0
  6
CONTINUOUS
 10
5.954960
 20
1.972960
  0
VERTEX
  8
0
  6
CONTINUOUS
 10
5.914040
 20
1.994960
  0
SEQEND
  8
0
  0
SOLID
  8
0
 62
    15
 10
5.954960
 20
1.972960
 11
6.600880
 21
2.341240
 12
6.005120
 22
1.955800
 13
6.651040
 23
2.324520
  0
POLYLINE
  8
0
  6
CONTINUOUS
 66
     1
 40
0.000000
 41
0.000000
  0
VERTEX
  8
0
  6
CONTINUOUS
 10
5.954960
 20
1.972960
  0
VERTEX
  8
0
  6
CONTINUOUS
 10
6.600880
 20
2.341240
  0
VERTEX
  8
0
  6
CONTINUOUS
 10
6.651040
 20
2.324520
  0
VERTEX
  8
0
  6
CONTINUOUS
 10
6.005120
 20
1.955800
  0
VERTEX
  8
0
  6
CONTINUOUS
 10
5.954960
 20
1.972960
  0
SEQEND
  8
0
  0
SOLID
  8
0
 62
    15
 10
6.005120
 20
1.955800
 11
6.651040
 21
2.324520
 12
6.068040
 22
1.946560
 13
6.713960
 23
2.314840
  0
POLYLINE
  8
0
  6
CONTINUOUS
 66
     1
 40
0.000000
 41
0.000000
  0
VERTEX
  8
0
  6
CONTINUOUS
 10
6.005120
 20
1.955800
  0
VERTEX
  8
0
  6
CONTINUOUS
 10
6.651040
 20
2.324520
  0
VERTEX
  8
0
  6
CONTINUOUS
 10
6.713960
 20
2.314840
  0
VERTEX
  8
0
  6
CONTINUOUS
 10
6.068040
 20
1.946560
  0
VERTEX
  8
0
  6
CONTINUOUS
 10
6.005120
 20
1.955800
  0
SEQEND
  8
0
  0
SOLID
  8
0
 62
    15
 10
6.068040
 20
1.946560
 11
6.713960
 21
2.314840
 12
6.070240
 22
1.946560
 13
6.716160
 23
2.314840
  0
POLYLINE
  8
0
  6
CONTINUOUS
 66
     1
 40
0.000000
 41
0.000000
  0
VERTEX
  8
0
  6
CONTINUOUS
 10
6.068040
 20
1.946560
  0
VERTEX
  8
0
  6
CONTINUOUS
 10
6.713960
 20
2.314840
  0
VERTEX
  8
0
  6
CONTINUOUS
 10
6.716160
 20
2.314840
  0
VERTEX
  8
0
  6
CONTINUOUS
 10
6.070240
 20
1.946560
  0
VERTEX
  8
0
  6
CONTINUOUS
 10
6.068040
 20
1.946560
  0
SEQEND
  8
0
  0
POLYLINE
  8
0
  6
CONTINUOUS
 66
     1
 40
0.000000
 41
0.000000
  0
VERTEX
  8
0
  6
CONTINUOUS
 10
6.070240
 20
1.946560
  0
VERTEX
  8
0
  6
CONTINUOUS
 10
6.070240
 20
1.896400
  0
VERTEX
  8
0
  6
CONTINUOUS
 10
7.095000
 20
1.896400
  0
VERTEX
  8
0
  6
CONTINUOUS
 10
7.095000
 20
0.910800
  0
VERTEX
  8
0
  6
CONTINUOUS
 10
5.203440
 20
0.910800
  0
VERTEX
  8
0
  6
CONTINUOUS
 10
5.203440
 20
2.127840
  0
VERTEX
  8
0
  6
CONTINUOUS
 10
5.705480
 20
2.127840
  0
VERTEX
  8
0
  6
CONTINUOUS
 10
5.705480
 20
2.083840
  0
VERTEX
  8
0
  6
CONTINUOUS
 10
5.707680
 20
2.083840
  0
VERTEX
  8
0
  6
CONTINUOUS
 10
5.762680
 20
2.078120
  0
VERTEX
  8
0
  6
CONTINUOUS
 10
5.806680
 20
2.063160
  0
VERTEX
  8
0
  6
CONTINUOUS
 10
5.844080
 20
2.042920
  0
VERTEX
  8
0
  6
CONTINUOUS
 10
5.861240
 20
2.031040
  0
VERTEX
  8
0
  6
CONTINUOUS
 10
5.870040
 20
2.025320
  0
VERTEX
  8
0
  6
CONTINUOUS
 10
5.878400
 20
2.019160
  0
VERTEX
  8
0
  6
CONTINUOUS
 10
5.914040
 20
1.994960
  0
VERTEX
  8
0
  6
CONTINUOUS
 10
5.954960
 20
1.972960
  0
VERTEX
  8
0
  6
CONTINUOUS
 10
6.005120
 20
1.955800
  0
VERTEX
  8
0
  6
CONTINUOUS
 10
6.068040
 20
1.946560
  0
VERTEX
  8
0
  6
CONTINUOUS
 10
6.070240
 20
1.946560
  0
SEQEND
  8
0
  0
TEXT
  8
0
 10
6.175400
 20
0.678040
 40
0.138194
  1
BA  265
 41
1.000000
  7
SN0
 71
     0
 72
     5
 11
6.765021
 21
0.678040
  0
TEXT
  8
0
 10
5.945720
 20
0.486640
 40
0.138194
  1
1-1/4" x 2-7/8"
 41
1.000000
  7
SN0
 71
     0
 72
     5
 11
6.992835
 21
0.486640
  0
TEXT
  8
0
 10
7.009640
 20
3.982440
 40
0.138194
  1
brick mold/trim
 41
1.000000
  7
SN0
 71
     0
 72
     5
 11
8.086440
 21
3.982440
  0
TEXT
  8
0
 10
7.410920
 20
3.791040
 40
0.138194
  1
265
 41
1.000000
  7
SN0
 71
     0
 72
     5
 11
7.687784
 21
3.791040
  0
TEXT
  8
0
 10
7.493640
 20
3.599200
 40
0.138194
  1
B
 41
1.000000
  7
SN0
 71
     0
 72
     5
 11
7.604618
 21
3.599200
  0
ENDSEC
  0
EOF
