  0
SECTION
  2
HEADER
  9
$ACADVER
  1
AC1006
  9
$EXTMIN
 10
5.988840
 20
0.367400
  9
$EXTMAX
 10
8.035280
 20
4.840000
  9
$LTSCALE
 40
0.044000
  9
$PDMODE
 70
    35
  9
$PDSIZE
 40
0.035200
  0
ENDSEC
  0
SECTION
  2
TABLES
  0
TABLE
  2
LTYPE
 70
     9
  0
LTYPE
  2
CONTINUOUS
 70
    64
  3
Solid line
 72
    65
 73
     0
 40
0.000000
  0
LTYPE
  2
DASHED
 70
    64
  3
__ __ __ __ __ __ __ __ __ __ __ __ __ __ __
 72
    65
 73
     2
 40
0.000330
 49
0.000220
 49
-0.000110
  0
LTYPE
  2
HIDDEN
 70
    64
  3
 _ _ _ _ _ _ _ _ _ _ _ _ _ _ _ _ _ _ _ _ _ _
 72
    65
 73
     2
 40
0.000165
 49
0.000110
 49
-0.000055
  0
LTYPE
  2
CENTER
 70
    64
  3
____ _ ____ _ ____ _ ____ _ ____ _ ____ _ ____
 72
    65
 73
     4
 40
0.000880
 49
0.000550
 49
-0.000110
 49
0.000110
 49
-0.000110
  0
LTYPE
  2
PHANTOM
 70
    64
  3
_____ _ _ _____ _ _ _____ _ _ _____ _ _ ____
 72
    65
 73
     6
 40
0.001100
 49
0.000550
 49
-0.000110
 49
0.000110
 49
-0.000110
 49
0.000110
 49
-0.000110
  0
LTYPE
  2
DOT
 70
    64
  3
...............................................
 72
    65
 73
     2
 40
0.000110
 49
0.000000
 49
-0.000110
  0
LTYPE
  2
DASHDOT
 70
    64
  3
__ . __ . __ . __ . __ . __ . __ . __ . __ . __
 72
    65
 73
     4
 40
0.000440
 49
0.000220
 49
-0.000110
 49
0.000000
 49
-0.000110
  0
LTYPE
  2
BORDER
 70
    64
  3
__ __ . __ __ . __ __ . __ __ . __ __ . __ __
 72
    65
 73
     6
 40
0.000770
 49
0.000220
 49
-0.000110
 49
0.000220
 49
-0.000110
 49
0.000000
 49
-0.000110
  0
LTYPE
  2
DIVIDE
 70
    64
  3
__ . . __ . . __ . . __ . . __ . . __ . . __
 72
    65
 73
     6
 40
0.000550
 49
0.000220
 49
-0.000110
 49
0.000000
 49
-0.000110
 49
0.000000
 49
-0.000110
  0
LTYPE
  2
DOTDOT
 70
    64
  3
 . .  . .  . .  . .  . .  . . 
 72
    65
 73
     5
 40
0.000242
 49
-0.000110
 49
0.000000
 49
-0.000110
 49
0.000000
 49
-0.000110
  0
ENDTAB
  0
TABLE
  2
STYLE
 70
     2
  0
STYLE
 70
     0
  2
SN0
 40
0.000000
 41
0.000440
 50
0.000000
 71
     0
 42
0.000000
  3
ROMAND
  0
STYLE
 70
    68
  2
SV0
 40
0.000000
 41
0.000440
 50
0.000000
 71
     0
 42
0.000000
  3
ROMAND
  0
ENDTAB
  0
TABLE
  2
LAYER
 70
     3
  0
LAYER
  2
FOREGROUND
 70
    64
 62
     7
  6
CONTINUOUS
  0
LAYER
  2
BACKGROUND
 70
    65
 62
    -7
  6
CONTINUOUS
  0
LAYER
  2
0
 70
    64
 62
     7
  6
CONTINUOUS
  0
ENDTAB
  0
ENDSEC
  0
SECTION
  2
ENTITIES
  0
POLYLINE
  8
FOREGROUND
  6
CONTINUOUS
 66
     1
 40
0.000000
 41
0.000000
  0
VERTEX
  8
FOREGROUND
  6
CONTINUOUS
 10
0.000000
 20
5.207400
  0
VERTEX
  8
FOREGROUND
  6
CONTINUOUS
 10
8.499920
 20
5.207400
  0
VERTEX
  8
FOREGROUND
  6
CONTINUOUS
 10
8.499920
 20
-5.792600
  0
VERTEX
  8
FOREGROUND
  6
CONTINUOUS
 10
0.000000
 20
-5.792600
  0
VERTEX
  8
FOREGROUND
  6
CONTINUOUS
 10
0.000000
 20
5.207400
  0
SEQEND
  8
0
  0
POLYLINE
  8
FOREGROUND
  6
CONTINUOUS
 66
     1
 40
0.000000
 41
0.000000
  0
VERTEX
  8
FOREGROUND
  6
CONTINUOUS
 10
0.000000
 20
5.207400
  0
VERTEX
  8
FOREGROUND
  6
CONTINUOUS
 10
8.499920
 20
5.207400
  0
VERTEX
  8
FOREGROUND
  6
CONTINUOUS
 10
8.499920
 20
-5.792600
  0
VERTEX
  8
FOREGROUND
  6
CONTINUOUS
 10
0.000000
 20
-5.792600
  0
VERTEX
  8
FOREGROUND
  6
CONTINUOUS
 10
0.000000
 20
5.207400
  0
SEQEND
  8
0
  0
POLYLINE
  8
0
  6
CONTINUOUS
 66
     1
 40
0.014080
 41
0.014080
  0
VERTEX
  8
0
  6
CONTINUOUS
 10
6.678760
 20
3.075160
  0
VERTEX
  8
0
  6
CONTINUOUS
 10
6.678760
 20
3.501960
  0
VERTEX
  8
0
  6
CONTINUOUS
 10
6.533560
 20
3.501960
  0
VERTEX
  8
0
  6
CONTINUOUS
 10
6.533560
 20
3.607120
  0
VERTEX
  8
0
  6
CONTINUOUS
 10
6.578440
 20
3.618120
  0
VERTEX
  8
0
  6
CONTINUOUS
 10
6.611440
 20
3.630880
  0
VERTEX
  8
0
  6
CONTINUOUS
 10
6.639160
 20
3.645840
  0
VERTEX
  8
0
  6
CONTINUOUS
 10
6.660720
 20
3.663000
  0
VERTEX
  8
0
  6
CONTINUOUS
 10
6.676560
 20
3.682360
  0
VERTEX
  8
0
  6
CONTINUOUS
 10
6.687560
 20
3.703040
  0
VERTEX
  8
0
  6
CONTINUOUS
 10
6.691080
 20
3.714040
  0
VERTEX
  8
0
  6
CONTINUOUS
 10
6.693720
 20
3.736480
  0
VERTEX
  8
0
  6
CONTINUOUS
 10
6.691960
 20
3.760240
  0
VERTEX
  8
0
  6
CONTINUOUS
 10
6.680080
 20
3.795880
  0
VERTEX
  8
0
  6
CONTINUOUS
 10
6.666440
 20
3.820080
  0
VERTEX
  8
0
  6
CONTINUOUS
 10
6.637840
 20
3.855720
  0
VERTEX
  8
0
  6
CONTINUOUS
 10
6.600000
 20
3.890040
  0
VERTEX
  8
0
  6
CONTINUOUS
 10
6.553360
 20
3.921280
  0
VERTEX
  8
0
  6
CONTINUOUS
 10
6.497480
 20
3.952960
  0
VERTEX
  8
0
  6
CONTINUOUS
 10
6.444240
 20
3.989040
  0
VERTEX
  8
0
  6
CONTINUOUS
 10
6.397600
 20
4.028200
  0
VERTEX
  8
0
  6
CONTINUOUS
 10
6.370760
 20
4.055480
  0
VERTEX
  8
0
  6
CONTINUOUS
 10
6.337320
 20
4.098600
  0
VERTEX
  8
0
  6
CONTINUOUS
 10
6.319720
 20
4.128080
  0
VERTEX
  8
0
  6
CONTINUOUS
 10
6.306520
 20
4.158000
  0
VERTEX
  8
0
  6
CONTINUOUS
 10
6.297280
 20
4.188360
  0
VERTEX
  8
0
  6
CONTINUOUS
 10
6.293320
 20
4.219160
  0
VERTEX
  8
0
  6
CONTINUOUS
 10
6.292880
 20
4.234560
  0
VERTEX
  8
0
  6
CONTINUOUS
 10
6.295960
 20
4.265360
  0
VERTEX
  8
0
  6
CONTINUOUS
 10
6.304320
 20
4.296160
  0
VERTEX
  8
0
  6
CONTINUOUS
 10
6.317960
 20
4.326520
  0
VERTEX
  8
0
  6
CONTINUOUS
 10
6.337320
 20
4.356440
  0
VERTEX
  8
0
  6
CONTINUOUS
 10
6.364160
 20
4.387240
  0
VERTEX
  8
0
  6
CONTINUOUS
 10
6.101480
 20
4.832520
  0
VERTEX
  8
0
  6
CONTINUOUS
 10
5.995000
 20
4.832520
  0
VERTEX
  8
0
  6
CONTINUOUS
 10
5.996320
 20
4.831200
  0
VERTEX
  8
0
  6
CONTINUOUS
 10
5.996320
 20
3.075160
  0
VERTEX
  8
0
  6
CONTINUOUS
 10
5.995000
 20
3.075160
  0
VERTEX
  8
0
  6
CONTINUOUS
 10
6.678760
 20
3.075160
  0
SEQEND
  8
0
  0
SOLID
  8
0
 62
     7
 10
6.829240
 20
1.739760
 11
7.457120
 21
2.101880
 12
6.904480
 22
1.694000
 13
7.531920
 23
2.056120
  0
POLYLINE
  8
0
  6
CONTINUOUS
 66
     1
 40
0.000000
 41
0.000000
  0
VERTEX
  8
0
  6
CONTINUOUS
 10
6.829240
 20
1.739760
  0
VERTEX
  8
0
  6
CONTINUOUS
 10
7.457120
 20
2.101880
  0
VERTEX
  8
0
  6
CONTINUOUS
 10
7.531920
 20
2.056120
  0
VERTEX
  8
0
  6
CONTINUOUS
 10
6.904480
 20
1.694000
  0
VERTEX
  8
0
  6
CONTINUOUS
 10
6.829240
 20
1.739760
  0
SEQEND
  8
0
  0
SOLID
  8
0
 62
     7
 10
6.469760
 20
2.595120
 11
7.097200
 21
2.957240
 12
6.732440
 22
2.149840
 13
7.359880
 23
2.511960
  0
POLYLINE
  8
0
  6
CONTINUOUS
 66
     1
 40
0.000000
 41
0.000000
  0
VERTEX
  8
0
  6
CONTINUOUS
 10
6.469760
 20
2.595120
  0
VERTEX
  8
0
  6
CONTINUOUS
 10
7.097200
 20
2.957240
  0
VERTEX
  8
0
  6
CONTINUOUS
 10
7.359880
 20
2.511960
  0
VERTEX
  8
0
  6
CONTINUOUS
 10
6.732440
 20
2.149840
  0
VERTEX
  8
0
  6
CONTINUOUS
 10
6.469760
 20
2.595120
  0
SEQEND
  8
0
  0
SOLID
  8
0
 62
    15
 10
6.732440
 20
2.149840
 11
7.359880
 21
2.511960
 12
6.731120
 22
2.148520
 13
7.358560
 23
2.510640
  0
POLYLINE
  8
0
  6
CONTINUOUS
 66
     1
 40
0.000000
 41
0.000000
  0
VERTEX
  8
0
  6
CONTINUOUS
 10
6.732440
 20
2.149840
  0
VERTEX
  8
0
  6
CONTINUOUS
 10
7.359880
 20
2.511960
  0
VERTEX
  8
0
  6
CONTINUOUS
 10
7.358560
 20
2.510640
  0
VERTEX
  8
0
  6
CONTINUOUS
 10
6.731120
 20
2.148520
  0
VERTEX
  8
0
  6
CONTINUOUS
 10
6.732440
 20
2.149840
  0
SEQEND
  8
0
  0
SOLID
  8
0
 62
    15
 10
6.731120
 20
2.148520
 11
7.358560
 21
2.510640
 12
6.705600
 22
2.119480
 13
7.333480
 23
2.481160
  0
POLYLINE
  8
0
  6
CONTINUOUS
 66
     1
 40
0.000000
 41
0.000000
  0
VERTEX
  8
0
  6
CONTINUOUS
 10
6.731120
 20
2.148520
  0
VERTEX
  8
0
  6
CONTINUOUS
 10
7.358560
 20
2.510640
  0
VERTEX
  8
0
  6
CONTINUOUS
 10
7.333480
 20
2.481160
  0
VERTEX
  8
0
  6
CONTINUOUS
 10
6.705600
 20
2.119480
  0
VERTEX
  8
0
  6
CONTINUOUS
 10
6.731120
 20
2.148520
  0
SEQEND
  8
0
  0
SOLID
  8
0
 62
    15
 10
6.705600
 20
2.119480
 11
7.333480
 21
2.481160
 12
6.686240
 22
2.089560
 13
7.313680
 23
2.451240
  0
POLYLINE
  8
0
  6
CONTINUOUS
 66
     1
 40
0.000000
 41
0.000000
  0
VERTEX
  8
0
  6
CONTINUOUS
 10
6.705600
 20
2.119480
  0
VERTEX
  8
0
  6
CONTINUOUS
 10
7.333480
 20
2.481160
  0
VERTEX
  8
0
  6
CONTINUOUS
 10
7.313680
 20
2.451240
  0
VERTEX
  8
0
  6
CONTINUOUS
 10
6.686240
 20
2.089560
  0
VERTEX
  8
0
  6
CONTINUOUS
 10
6.705600
 20
2.119480
  0
SEQEND
  8
0
  0
SOLID
  8
0
 62
    15
 10
6.686240
 20
2.089560
 11
7.313680
 21
2.451240
 12
6.672160
 22
2.058760
 13
7.300040
 23
2.420880
  0
POLYLINE
  8
0
  6
CONTINUOUS
 66
     1
 40
0.000000
 41
0.000000
  0
VERTEX
  8
0
  6
CONTINUOUS
 10
6.686240
 20
2.089560
  0
VERTEX
  8
0
  6
CONTINUOUS
 10
7.313680
 20
2.451240
  0
VERTEX
  8
0
  6
CONTINUOUS
 10
7.300040
 20
2.420880
  0
VERTEX
  8
0
  6
CONTINUOUS
 10
6.672160
 20
2.058760
  0
VERTEX
  8
0
  6
CONTINUOUS
 10
6.686240
 20
2.089560
  0
SEQEND
  8
0
  0
SOLID
  8
0
 62
    15
 10
6.672160
 20
2.058760
 11
7.300040
 21
2.420880
 12
6.663800
 22
2.028400
 13
7.291680
 23
2.390520
  0
POLYLINE
  8
0
  6
CONTINUOUS
 66
     1
 40
0.000000
 41
0.000000
  0
VERTEX
  8
0
  6
CONTINUOUS
 10
6.672160
 20
2.058760
  0
VERTEX
  8
0
  6
CONTINUOUS
 10
7.300040
 20
2.420880
  0
VERTEX
  8
0
  6
CONTINUOUS
 10
7.291680
 20
2.390520
  0
VERTEX
  8
0
  6
CONTINUOUS
 10
6.663800
 20
2.028400
  0
VERTEX
  8
0
  6
CONTINUOUS
 10
6.672160
 20
2.058760
  0
SEQEND
  8
0
  0
SOLID
  8
0
 62
    15
 10
6.663800
 20
2.028400
 11
7.291680
 21
2.390520
 12
6.661160
 22
1.997600
 13
7.288600
 23
2.359280
  0
POLYLINE
  8
0
  6
CONTINUOUS
 66
     1
 40
0.000000
 41
0.000000
  0
VERTEX
  8
0
  6
CONTINUOUS
 10
6.663800
 20
2.028400
  0
VERTEX
  8
0
  6
CONTINUOUS
 10
7.291680
 20
2.390520
  0
VERTEX
  8
0
  6
CONTINUOUS
 10
7.288600
 20
2.359280
  0
VERTEX
  8
0
  6
CONTINUOUS
 10
6.661160
 20
1.997600
  0
VERTEX
  8
0
  6
CONTINUOUS
 10
6.663800
 20
2.028400
  0
SEQEND
  8
0
  0
SOLID
  8
0
 62
    15
 10
6.661160
 20
1.997600
 11
7.288600
 21
2.359280
 12
6.662920
 22
1.966800
 13
7.290360
 23
2.328480
  0
POLYLINE
  8
0
  6
CONTINUOUS
 66
     1
 40
0.000000
 41
0.000000
  0
VERTEX
  8
0
  6
CONTINUOUS
 10
6.661160
 20
1.997600
  0
VERTEX
  8
0
  6
CONTINUOUS
 10
7.288600
 20
2.359280
  0
VERTEX
  8
0
  6
CONTINUOUS
 10
7.290360
 20
2.328480
  0
VERTEX
  8
0
  6
CONTINUOUS
 10
6.662920
 20
1.966800
  0
VERTEX
  8
0
  6
CONTINUOUS
 10
6.661160
 20
1.997600
  0
SEQEND
  8
0
  0
SOLID
  8
0
 62
     7
 10
6.662920
 20
1.966800
 11
7.290360
 21
2.328480
 12
6.669520
 22
1.936000
 13
7.297400
 23
2.298120
  0
POLYLINE
  8
0
  6
CONTINUOUS
 66
     1
 40
0.000000
 41
0.000000
  0
VERTEX
  8
0
  6
CONTINUOUS
 10
6.662920
 20
1.966800
  0
VERTEX
  8
0
  6
CONTINUOUS
 10
7.290360
 20
2.328480
  0
VERTEX
  8
0
  6
CONTINUOUS
 10
7.297400
 20
2.298120
  0
VERTEX
  8
0
  6
CONTINUOUS
 10
6.669520
 20
1.936000
  0
VERTEX
  8
0
  6
CONTINUOUS
 10
6.662920
 20
1.966800
  0
SEQEND
  8
0
  0
SOLID
  8
0
 62
     7
 10
6.669520
 20
1.936000
 11
7.297400
 21
2.298120
 12
6.680520
 22
1.905640
 13
7.308400
 23
2.267760
  0
POLYLINE
  8
0
  6
CONTINUOUS
 66
     1
 40
0.000000
 41
0.000000
  0
VERTEX
  8
0
  6
CONTINUOUS
 10
6.669520
 20
1.936000
  0
VERTEX
  8
0
  6
CONTINUOUS
 10
7.297400
 20
2.298120
  0
VERTEX
  8
0
  6
CONTINUOUS
 10
7.308400
 20
2.267760
  0
VERTEX
  8
0
  6
CONTINUOUS
 10
6.680520
 20
1.905640
  0
VERTEX
  8
0
  6
CONTINUOUS
 10
6.669520
 20
1.936000
  0
SEQEND
  8
0
  0
SOLID
  8
0
 62
     7
 10
6.680520
 20
1.905640
 11
7.308400
 21
2.267760
 12
6.696360
 22
1.876160
 13
7.323800
 23
2.237840
  0
POLYLINE
  8
0
  6
CONTINUOUS
 66
     1
 40
0.000000
 41
0.000000
  0
VERTEX
  8
0
  6
CONTINUOUS
 10
6.680520
 20
1.905640
  0
VERTEX
  8
0
  6
CONTINUOUS
 10
7.308400
 20
2.267760
  0
VERTEX
  8
0
  6
CONTINUOUS
 10
7.323800
 20
2.237840
  0
VERTEX
  8
0
  6
CONTINUOUS
 10
6.696360
 20
1.876160
  0
VERTEX
  8
0
  6
CONTINUOUS
 10
6.680520
 20
1.905640
  0
SEQEND
  8
0
  0
SOLID
  8
0
 62
     7
 10
6.696360
 20
1.876160
 11
7.323800
 21
2.237840
 12
6.715720
 22
1.846680
 13
7.343600
 23
2.208800
  0
POLYLINE
  8
0
  6
CONTINUOUS
 66
     1
 40
0.000000
 41
0.000000
  0
VERTEX
  8
0
  6
CONTINUOUS
 10
6.696360
 20
1.876160
  0
VERTEX
  8
0
  6
CONTINUOUS
 10
7.323800
 20
2.237840
  0
VERTEX
  8
0
  6
CONTINUOUS
 10
7.343600
 20
2.208800
  0
VERTEX
  8
0
  6
CONTINUOUS
 10
6.715720
 20
1.846680
  0
VERTEX
  8
0
  6
CONTINUOUS
 10
6.696360
 20
1.876160
  0
SEQEND
  8
0
  0
SOLID
  8
0
 62
     7
 10
6.715720
 20
1.846680
 11
7.343600
 21
2.208800
 12
6.739040
 22
1.818520
 13
7.366920
 23
2.180640
  0
POLYLINE
  8
0
  6
CONTINUOUS
 66
     1
 40
0.000000
 41
0.000000
  0
VERTEX
  8
0
  6
CONTINUOUS
 10
6.715720
 20
1.846680
  0
VERTEX
  8
0
  6
CONTINUOUS
 10
7.343600
 20
2.208800
  0
VERTEX
  8
0
  6
CONTINUOUS
 10
7.366920
 20
2.180640
  0
VERTEX
  8
0
  6
CONTINUOUS
 10
6.739040
 20
1.818520
  0
VERTEX
  8
0
  6
CONTINUOUS
 10
6.715720
 20
1.846680
  0
SEQEND
  8
0
  0
SOLID
  8
0
 62
     7
 10
6.739040
 20
1.818520
 11
7.366920
 21
2.180640
 12
6.765880
 22
1.791240
 13
7.393760
 23
2.152920
  0
POLYLINE
  8
0
  6
CONTINUOUS
 66
     1
 40
0.000000
 41
0.000000
  0
VERTEX
  8
0
  6
CONTINUOUS
 10
6.739040
 20
1.818520
  0
VERTEX
  8
0
  6
CONTINUOUS
 10
7.366920
 20
2.180640
  0
VERTEX
  8
0
  6
CONTINUOUS
 10
7.393760
 20
2.152920
  0
VERTEX
  8
0
  6
CONTINUOUS
 10
6.765880
 20
1.791240
  0
VERTEX
  8
0
  6
CONTINUOUS
 10
6.739040
 20
1.818520
  0
SEQEND
  8
0
  0
SOLID
  8
0
 62
     7
 10
6.765880
 20
1.791240
 11
7.393760
 21
2.152920
 12
6.796240
 22
1.764840
 13
7.423680
 23
2.126960
  0
POLYLINE
  8
0
  6
CONTINUOUS
 66
     1
 40
0.000000
 41
0.000000
  0
VERTEX
  8
0
  6
CONTINUOUS
 10
6.765880
 20
1.791240
  0
VERTEX
  8
0
  6
CONTINUOUS
 10
7.393760
 20
2.152920
  0
VERTEX
  8
0
  6
CONTINUOUS
 10
7.423680
 20
2.126960
  0
VERTEX
  8
0
  6
CONTINUOUS
 10
6.796240
 20
1.764840
  0
VERTEX
  8
0
  6
CONTINUOUS
 10
6.765880
 20
1.791240
  0
SEQEND
  8
0
  0
SOLID
  8
0
 62
     7
 10
6.796240
 20
1.764840
 11
7.423680
 21
2.126960
 12
6.829240
 22
1.739760
 13
7.457120
 23
2.101880
  0
POLYLINE
  8
0
  6
CONTINUOUS
 66
     1
 40
0.000000
 41
0.000000
  0
VERTEX
  8
0
  6
CONTINUOUS
 10
6.796240
 20
1.764840
  0
VERTEX
  8
0
  6
CONTINUOUS
 10
7.423680
 20
2.126960
  0
VERTEX
  8
0
  6
CONTINUOUS
 10
7.457120
 20
2.101880
  0
VERTEX
  8
0
  6
CONTINUOUS
 10
6.829240
 20
1.739760
  0
VERTEX
  8
0
  6
CONTINUOUS
 10
6.796240
 20
1.764840
  0
SEQEND
  8
0
  0
SOLID
  8
0
 62
    15
 10
6.362840
 20
2.595120
 11
6.990720
 21
2.957240
 12
6.469760
 22
2.595120
 13
7.097200
 23
2.957240
  0
POLYLINE
  8
0
  6
CONTINUOUS
 66
     1
 40
0.000000
 41
0.000000
  0
VERTEX
  8
0
  6
CONTINUOUS
 10
6.362840
 20
2.595120
  0
VERTEX
  8
0
  6
CONTINUOUS
 10
6.990720
 20
2.957240
  0
VERTEX
  8
0
  6
CONTINUOUS
 10
7.097200
 20
2.957240
  0
VERTEX
  8
0
  6
CONTINUOUS
 10
6.469760
 20
2.595120
  0
VERTEX
  8
0
  6
CONTINUOUS
 10
6.362840
 20
2.595120
  0
SEQEND
  8
0
  0
SOLID
  8
0
 62
     7
 10
6.904480
 20
1.694000
 11
7.531920
 21
2.056120
 12
6.937920
 22
1.674200
 13
7.565800
 23
2.036320
  0
POLYLINE
  8
0
  6
CONTINUOUS
 66
     1
 40
0.000000
 41
0.000000
  0
VERTEX
  8
0
  6
CONTINUOUS
 10
6.904480
 20
1.694000
  0
VERTEX
  8
0
  6
CONTINUOUS
 10
7.531920
 20
2.056120
  0
VERTEX
  8
0
  6
CONTINUOUS
 10
7.565800
 20
2.036320
  0
VERTEX
  8
0
  6
CONTINUOUS
 10
6.937920
 20
1.674200
  0
VERTEX
  8
0
  6
CONTINUOUS
 10
6.904480
 20
1.694000
  0
SEQEND
  8
0
  0
SOLID
  8
0
 62
     7
 10
6.937920
 20
1.674200
 11
7.565800
 21
2.036320
 12
6.968280
 22
1.652640
 13
7.595720
 23
2.014760
  0
POLYLINE
  8
0
  6
CONTINUOUS
 66
     1
 40
0.000000
 41
0.000000
  0
VERTEX
  8
0
  6
CONTINUOUS
 10
6.937920
 20
1.674200
  0
VERTEX
  8
0
  6
CONTINUOUS
 10
7.565800
 20
2.036320
  0
VERTEX
  8
0
  6
CONTINUOUS
 10
7.595720
 20
2.014760
  0
VERTEX
  8
0
  6
CONTINUOUS
 10
6.968280
 20
1.652640
  0
VERTEX
  8
0
  6
CONTINUOUS
 10
6.937920
 20
1.674200
  0
SEQEND
  8
0
  0
SOLID
  8
0
 62
     7
 10
6.968280
 20
1.652640
 11
7.595720
 21
2.014760
 12
6.994240
 22
1.630200
 13
7.622120
 23
1.992320
  0
POLYLINE
  8
0
  6
CONTINUOUS
 66
     1
 40
0.000000
 41
0.000000
  0
VERTEX
  8
0
  6
CONTINUOUS
 10
6.968280
 20
1.652640
  0
VERTEX
  8
0
  6
CONTINUOUS
 10
7.595720
 20
2.014760
  0
VERTEX
  8
0
  6
CONTINUOUS
 10
7.622120
 20
1.992320
  0
VERTEX
  8
0
  6
CONTINUOUS
 10
6.994240
 20
1.630200
  0
VERTEX
  8
0
  6
CONTINUOUS
 10
6.968280
 20
1.652640
  0
SEQEND
  8
0
  0
SOLID
  8
0
 62
     7
 10
6.994240
 20
1.630200
 11
7.622120
 21
1.992320
 12
7.016680
 22
1.606880
 13
7.644120
 23
1.969000
  0
POLYLINE
  8
0
  6
CONTINUOUS
 66
     1
 40
0.000000
 41
0.000000
  0
VERTEX
  8
0
  6
CONTINUOUS
 10
6.994240
 20
1.630200
  0
VERTEX
  8
0
  6
CONTINUOUS
 10
7.622120
 20
1.992320
  0
VERTEX
  8
0
  6
CONTINUOUS
 10
7.644120
 20
1.969000
  0
VERTEX
  8
0
  6
CONTINUOUS
 10
7.016680
 20
1.606880
  0
VERTEX
  8
0
  6
CONTINUOUS
 10
6.994240
 20
1.630200
  0
SEQEND
  8
0
  0
SOLID
  8
0
 62
     7
 10
7.016680
 20
1.606880
 11
7.644120
 21
1.969000
 12
7.034720
 22
1.583120
 13
7.662160
 23
1.945240
  0
POLYLINE
  8
0
  6
CONTINUOUS
 66
     1
 40
0.000000
 41
0.000000
  0
VERTEX
  8
0
  6
CONTINUOUS
 10
7.016680
 20
1.606880
  0
VERTEX
  8
0
  6
CONTINUOUS
 10
7.644120
 20
1.969000
  0
VERTEX
  8
0
  6
CONTINUOUS
 10
7.662160
 20
1.945240
  0
VERTEX
  8
0
  6
CONTINUOUS
 10
7.034720
 20
1.583120
  0
VERTEX
  8
0
  6
CONTINUOUS
 10
7.016680
 20
1.606880
  0
SEQEND
  8
0
  0
SOLID
  8
0
 62
     7
 10
7.034720
 20
1.583120
 11
7.662160
 21
1.945240
 12
7.048360
 22
1.558920
 13
7.675800
 23
1.921040
  0
POLYLINE
  8
0
  6
CONTINUOUS
 66
     1
 40
0.000000
 41
0.000000
  0
VERTEX
  8
0
  6
CONTINUOUS
 10
7.034720
 20
1.583120
  0
VERTEX
  8
0
  6
CONTINUOUS
 10
7.662160
 20
1.945240
  0
VERTEX
  8
0
  6
CONTINUOUS
 10
7.675800
 20
1.921040
  0
VERTEX
  8
0
  6
CONTINUOUS
 10
7.048360
 20
1.558920
  0
VERTEX
  8
0
  6
CONTINUOUS
 10
7.034720
 20
1.583120
  0
SEQEND
  8
0
  0
SOLID
  8
0
 62
     7
 10
7.048360
 20
1.558920
 11
7.675800
 21
1.921040
 12
7.057160
 22
1.534720
 13
7.685040
 23
1.896840
  0
POLYLINE
  8
0
  6
CONTINUOUS
 66
     1
 40
0.000000
 41
0.000000
  0
VERTEX
  8
0
  6
CONTINUOUS
 10
7.048360
 20
1.558920
  0
VERTEX
  8
0
  6
CONTINUOUS
 10
7.675800
 20
1.921040
  0
VERTEX
  8
0
  6
CONTINUOUS
 10
7.685040
 20
1.896840
  0
VERTEX
  8
0
  6
CONTINUOUS
 10
7.057160
 20
1.534720
  0
VERTEX
  8
0
  6
CONTINUOUS
 10
7.048360
 20
1.558920
  0
SEQEND
  8
0
  0
SOLID
  8
0
 62
    15
 10
7.057160
 20
1.534720
 11
7.685040
 21
1.896840
 12
7.061560
 22
1.510960
 13
7.689440
 23
1.873080
  0
POLYLINE
  8
0
  6
CONTINUOUS
 66
     1
 40
0.000000
 41
0.000000
  0
VERTEX
  8
0
  6
CONTINUOUS
 10
7.057160
 20
1.534720
  0
VERTEX
  8
0
  6
CONTINUOUS
 10
7.685040
 20
1.896840
  0
VERTEX
  8
0
  6
CONTINUOUS
 10
7.689440
 20
1.873080
  0
VERTEX
  8
0
  6
CONTINUOUS
 10
7.061560
 20
1.510960
  0
VERTEX
  8
0
  6
CONTINUOUS
 10
7.057160
 20
1.534720
  0
SEQEND
  8
0
  0
SOLID
  8
0
 62
    15
 10
7.061560
 20
1.510960
 11
7.689440
 21
1.873080
 12
7.061120
 22
1.488080
 13
7.689000
 23
1.850200
  0
POLYLINE
  8
0
  6
CONTINUOUS
 66
     1
 40
0.000000
 41
0.000000
  0
VERTEX
  8
0
  6
CONTINUOUS
 10
7.061560
 20
1.510960
  0
VERTEX
  8
0
  6
CONTINUOUS
 10
7.689440
 20
1.873080
  0
VERTEX
  8
0
  6
CONTINUOUS
 10
7.689000
 20
1.850200
  0
VERTEX
  8
0
  6
CONTINUOUS
 10
7.061120
 20
1.488080
  0
VERTEX
  8
0
  6
CONTINUOUS
 10
7.061560
 20
1.510960
  0
SEQEND
  8
0
  0
SOLID
  8
0
 62
    15
 10
7.061120
 20
1.488080
 11
7.689000
 21
1.850200
 12
7.055840
 22
1.466080
 13
7.683280
 23
1.828200
  0
POLYLINE
  8
0
  6
CONTINUOUS
 66
     1
 40
0.000000
 41
0.000000
  0
VERTEX
  8
0
  6
CONTINUOUS
 10
7.061120
 20
1.488080
  0
VERTEX
  8
0
  6
CONTINUOUS
 10
7.689000
 20
1.850200
  0
VERTEX
  8
0
  6
CONTINUOUS
 10
7.683280
 20
1.828200
  0
VERTEX
  8
0
  6
CONTINUOUS
 10
7.055840
 20
1.466080
  0
VERTEX
  8
0
  6
CONTINUOUS
 10
7.061120
 20
1.488080
  0
SEQEND
  8
0
  0
SOLID
  8
0
 62
    15
 10
6.901840
 20
1.370160
 11
7.529280
 21
1.731840
 12
6.901840
 22
1.264560
 13
7.529280
 23
1.626680
  0
POLYLINE
  8
0
  6
CONTINUOUS
 66
     1
 40
0.000000
 41
0.000000
  0
VERTEX
  8
0
  6
CONTINUOUS
 10
6.901840
 20
1.370160
  0
VERTEX
  8
0
  6
CONTINUOUS
 10
7.529280
 20
1.731840
  0
VERTEX
  8
0
  6
CONTINUOUS
 10
7.529280
 20
1.626680
  0
VERTEX
  8
0
  6
CONTINUOUS
 10
6.901840
 20
1.264560
  0
VERTEX
  8
0
  6
CONTINUOUS
 10
6.901840
 20
1.370160
  0
SEQEND
  8
0
  0
SOLID
  8
0
 62
    15
 10
7.044840
 20
1.445400
 11
7.672720
 21
1.807080
 12
7.029000
 22
1.426040
 13
7.656440
 23
1.788160
  0
POLYLINE
  8
0
  6
CONTINUOUS
 66
     1
 40
0.000000
 41
0.000000
  0
VERTEX
  8
0
  6
CONTINUOUS
 10
7.044840
 20
1.445400
  0
VERTEX
  8
0
  6
CONTINUOUS
 10
7.672720
 20
1.807080
  0
VERTEX
  8
0
  6
CONTINUOUS
 10
7.656440
 20
1.788160
  0
VERTEX
  8
0
  6
CONTINUOUS
 10
7.029000
 20
1.426040
  0
VERTEX
  8
0
  6
CONTINUOUS
 10
7.044840
 20
1.445400
  0
SEQEND
  8
0
  0
SOLID
  8
0
 62
    15
 10
7.029000
 20
1.426040
 11
7.656440
 21
1.788160
 12
7.007000
 22
1.408880
 13
7.634880
 23
1.770560
  0
POLYLINE
  8
0
  6
CONTINUOUS
 66
     1
 40
0.000000
 41
0.000000
  0
VERTEX
  8
0
  6
CONTINUOUS
 10
7.029000
 20
1.426040
  0
VERTEX
  8
0
  6
CONTINUOUS
 10
7.656440
 20
1.788160
  0
VERTEX
  8
0
  6
CONTINUOUS
 10
7.634880
 20
1.770560
  0
VERTEX
  8
0
  6
CONTINUOUS
 10
7.007000
 20
1.408880
  0
VERTEX
  8
0
  6
CONTINUOUS
 10
7.029000
 20
1.426040
  0
SEQEND
  8
0
  0
SOLID
  8
0
 62
    15
 10
7.055840
 20
1.466080
 11
7.683280
 21
1.828200
 12
7.044840
 22
1.445400
 13
7.672720
 23
1.807080
  0
POLYLINE
  8
0
  6
CONTINUOUS
 66
     1
 40
0.000000
 41
0.000000
  0
VERTEX
  8
0
  6
CONTINUOUS
 10
7.055840
 20
1.466080
  0
VERTEX
  8
0
  6
CONTINUOUS
 10
7.683280
 20
1.828200
  0
VERTEX
  8
0
  6
CONTINUOUS
 10
7.672720
 20
1.807080
  0
VERTEX
  8
0
  6
CONTINUOUS
 10
7.044840
 20
1.445400
  0
VERTEX
  8
0
  6
CONTINUOUS
 10
7.055840
 20
1.466080
  0
SEQEND
  8
0
  0
SOLID
  8
0
 62
    15
 10
6.901840
 20
1.264560
 11
7.529280
 21
1.626680
 12
7.047040
 22
1.264560
 13
7.674920
 23
1.626680
  0
POLYLINE
  8
0
  6
CONTINUOUS
 66
     1
 40
0.000000
 41
0.000000
  0
VERTEX
  8
0
  6
CONTINUOUS
 10
6.901840
 20
1.264560
  0
VERTEX
  8
0
  6
CONTINUOUS
 10
7.529280
 20
1.626680
  0
VERTEX
  8
0
  6
CONTINUOUS
 10
7.674920
 20
1.626680
  0
VERTEX
  8
0
  6
CONTINUOUS
 10
7.047040
 20
1.264560
  0
VERTEX
  8
0
  6
CONTINUOUS
 10
6.901840
 20
1.264560
  0
SEQEND
  8
0
  0
SOLID
  8
0
 62
    15
 10
7.047040
 20
1.264560
 11
7.674920
 21
1.626680
 12
7.047040
 22
0.838200
 13
7.674920
 23
1.199880
  0
POLYLINE
  8
0
  6
CONTINUOUS
 66
     1
 40
0.000000
 41
0.000000
  0
VERTEX
  8
0
  6
CONTINUOUS
 10
7.047040
 20
1.264560
  0
VERTEX
  8
0
  6
CONTINUOUS
 10
7.674920
 20
1.626680
  0
VERTEX
  8
0
  6
CONTINUOUS
 10
7.674920
 20
1.199880
  0
VERTEX
  8
0
  6
CONTINUOUS
 10
7.047040
 20
0.838200
  0
VERTEX
  8
0
  6
CONTINUOUS
 10
7.047040
 20
1.264560
  0
SEQEND
  8
0
  0
POLYLINE
  8
0
  6
CONTINUOUS
 66
     1
 40
0.000000
 41
0.000000
  0
VERTEX
  8
0
  6
CONTINUOUS
 10
7.043080
 20
0.838200
  0
VERTEX
  8
0
  6
CONTINUOUS
 10
6.364160
 20
0.838200
  0
VERTEX
  8
0
  6
CONTINUOUS
 10
6.364160
 20
2.593800
  0
VERTEX
  8
0
  6
CONTINUOUS
 10
6.362840
 20
2.595120
  0
VERTEX
  8
0
  6
CONTINUOUS
 10
6.469760
 20
2.595120
  0
VERTEX
  8
0
  6
CONTINUOUS
 10
6.732440
 20
2.149840
  0
VERTEX
  8
0
  6
CONTINUOUS
 10
6.731120
 20
2.148520
  0
VERTEX
  8
0
  6
CONTINUOUS
 10
6.705600
 20
2.119480
  0
VERTEX
  8
0
  6
CONTINUOUS
 10
6.686240
 20
2.089560
  0
VERTEX
  8
0
  6
CONTINUOUS
 10
6.672160
 20
2.058760
  0
VERTEX
  8
0
  6
CONTINUOUS
 10
6.663800
 20
2.028400
  0
VERTEX
  8
0
  6
CONTINUOUS
 10
6.661160
 20
1.997600
  0
VERTEX
  8
0
  6
CONTINUOUS
 10
6.662920
 20
1.966800
  0
VERTEX
  8
0
  6
CONTINUOUS
 10
6.669520
 20
1.936000
  0
VERTEX
  8
0
  6
CONTINUOUS
 10
6.680520
 20
1.905640
  0
VERTEX
  8
0
  6
CONTINUOUS
 10
6.696360
 20
1.876160
  0
VERTEX
  8
0
  6
CONTINUOUS
 10
6.715720
 20
1.846680
  0
VERTEX
  8
0
  6
CONTINUOUS
 10
6.739040
 20
1.818520
  0
VERTEX
  8
0
  6
CONTINUOUS
 10
6.765880
 20
1.791240
  0
VERTEX
  8
0
  6
CONTINUOUS
 10
6.796240
 20
1.764840
  0
VERTEX
  8
0
  6
CONTINUOUS
 10
6.829240
 20
1.739760
  0
VERTEX
  8
0
  6
CONTINUOUS
 10
6.904480
 20
1.694000
  0
VERTEX
  8
0
  6
CONTINUOUS
 10
6.937920
 20
1.674200
  0
VERTEX
  8
0
  6
CONTINUOUS
 10
6.968280
 20
1.652640
  0
VERTEX
  8
0
  6
CONTINUOUS
 10
6.994240
 20
1.630200
  0
VERTEX
  8
0
  6
CONTINUOUS
 10
7.016680
 20
1.606880
  0
VERTEX
  8
0
  6
CONTINUOUS
 10
7.034720
 20
1.583120
  0
VERTEX
  8
0
  6
CONTINUOUS
 10
7.048360
 20
1.558920
  0
VERTEX
  8
0
  6
CONTINUOUS
 10
7.057160
 20
1.534720
  0
VERTEX
  8
0
  6
CONTINUOUS
 10
7.061560
 20
1.510960
  0
VERTEX
  8
0
  6
CONTINUOUS
 10
7.061120
 20
1.488080
  0
VERTEX
  8
0
  6
CONTINUOUS
 10
7.055840
 20
1.466080
  0
VERTEX
  8
0
  6
CONTINUOUS
 10
7.044840
 20
1.445400
  0
VERTEX
  8
0
  6
CONTINUOUS
 10
7.029000
 20
1.426040
  0
VERTEX
  8
0
  6
CONTINUOUS
 10
7.007000
 20
1.408880
  0
VERTEX
  8
0
  6
CONTINUOUS
 10
6.979720
 20
1.393480
  0
VERTEX
  8
0
  6
CONTINUOUS
 10
6.946280
 20
1.381160
  0
VERTEX
  8
0
  6
CONTINUOUS
 10
6.907120
 20
1.371480
  0
VERTEX
  8
0
  6
CONTINUOUS
 10
6.905800
 20
1.371480
  0
VERTEX
  8
0
  6
CONTINUOUS
 10
6.901840
 20
1.370160
  0
VERTEX
  8
0
  6
CONTINUOUS
 10
6.901840
 20
1.264560
  0
VERTEX
  8
0
  6
CONTINUOUS
 10
7.047040
 20
1.264560
  0
VERTEX
  8
0
  6
CONTINUOUS
 10
7.047040
 20
0.838200
  0
VERTEX
  8
0
  6
CONTINUOUS
 10
7.043080
 20
0.838200
  0
SEQEND
  8
0
  0
TEXT
  8
0
 10
6.731120
 20
0.603240
 40
0.138171
  1
BA  264
 41
1.000000
  7
SN0
 71
     0
 72
     5
 11
7.321950
 21
0.603240
  0
TEXT
  8
0
 10
6.483400
 20
0.411400
 40
0.138171
  1
11/16" x 1-3/4"
 41
1.000000
  7
SN0
 71
     0
 72
     5
 11
7.570242
 21
0.411400
  0
TEXT
  8
0
 10
7.361200
 20
4.584360
 40
0.138171
  1
base cap
 41
1.000000
  7
SN0
 71
     0
 72
     5
 11
8.035221
 21
4.584360
  0
TEXT
  8
0
 10
7.559640
 20
4.392960
 40
0.138171
  1
264
 41
1.000000
  7
SN0
 71
     0
 72
     5
 11
7.836941
 21
4.392960
  0
TEXT
  8
0
 10
7.642800
 20
4.201120
 40
0.138171
  1
B
 41
1.000000
  7
SN0
 71
     0
 72
     5
 11
7.753720
 21
4.201120
  0
ENDSEC
  0
EOF
