  0
SECTION
  2
HEADER
  9
$ACADVER
  1
AC1006
  9
$EXTMIN
 10
5.153280
 20
0.435160
  9
$EXTMAX
 10
8.046720
 20
4.112240
  9
$LTSCALE
 40
0.044000
  9
$PDMODE
 70
    35
  9
$PDSIZE
 40
0.035200
  0
ENDSEC
  0
SECTION
  2
TABLES
  0
TABLE
  2
LTYPE
 70
     9
  0
LTYPE
  2
CONTINUOUS
 70
    64
  3
Solid line
 72
    65
 73
     0
 40
0.000000
  0
LTYPE
  2
DASHED
 70
    64
  3
__ __ __ __ __ __ __ __ __ __ __ __ __ __ __
 72
    65
 73
     2
 40
0.000330
 49
0.000220
 49
-0.000110
  0
LTYPE
  2
HIDDEN
 70
    64
  3
 _ _ _ _ _ _ _ _ _ _ _ _ _ _ _ _ _ _ _ _ _ _
 72
    65
 73
     2
 40
0.000165
 49
0.000110
 49
-0.000055
  0
LTYPE
  2
CENTER
 70
    64
  3
____ _ ____ _ ____ _ ____ _ ____ _ ____ _ ____
 72
    65
 73
     4
 40
0.000880
 49
0.000550
 49
-0.000110
 49
0.000110
 49
-0.000110
  0
LTYPE
  2
PHANTOM
 70
    64
  3
_____ _ _ _____ _ _ _____ _ _ _____ _ _ ____
 72
    65
 73
     6
 40
0.001100
 49
0.000550
 49
-0.000110
 49
0.000110
 49
-0.000110
 49
0.000110
 49
-0.000110
  0
LTYPE
  2
DOT
 70
    64
  3
...............................................
 72
    65
 73
     2
 40
0.000110
 49
0.000000
 49
-0.000110
  0
LTYPE
  2
DASHDOT
 70
    64
  3
__ . __ . __ . __ . __ . __ . __ . __ . __ . __
 72
    65
 73
     4
 40
0.000440
 49
0.000220
 49
-0.000110
 49
0.000000
 49
-0.000110
  0
LTYPE
  2
BORDER
 70
    64
  3
__ __ . __ __ . __ __ . __ __ . __ __ . __ __
 72
    65
 73
     6
 40
0.000770
 49
0.000220
 49
-0.000110
 49
0.000220
 49
-0.000110
 49
0.000000
 49
-0.000110
  0
LTYPE
  2
DIVIDE
 70
    64
  3
__ . . __ . . __ . . __ . . __ . . __ . . __
 72
    65
 73
     6
 40
0.000550
 49
0.000220
 49
-0.000110
 49
0.000000
 49
-0.000110
 49
0.000000
 49
-0.000110
  0
LTYPE
  2
DOTDOT
 70
    64
  3
 . .  . .  . .  . .  . .  . . 
 72
    65
 73
     5
 40
0.000242
 49
-0.000110
 49
0.000000
 49
-0.000110
 49
0.000000
 49
-0.000110
  0
ENDTAB
  0
TABLE
  2
STYLE
 70
     2
  0
STYLE
 70
     0
  2
SN0
 40
0.000000
 41
0.000440
 50
0.000000
 71
     0
 42
0.000000
  3
ROMAND
  0
STYLE
 70
    68
  2
SV0
 40
0.000000
 41
0.000440
 50
0.000000
 71
     0
 42
0.000000
  3
ROMAND
  0
ENDTAB
  0
TABLE
  2
LAYER
 70
     3
  0
LAYER
  2
FOREGROUND
 70
    64
 62
     7
  6
CONTINUOUS
  0
LAYER
  2
BACKGROUND
 70
    65
 62
    -7
  6
CONTINUOUS
  0
LAYER
  2
0
 70
    64
 62
     7
  6
CONTINUOUS
  0
ENDTAB
  0
ENDSEC
  0
SECTION
  2
ENTITIES
  0
POLYLINE
  8
FOREGROUND
  6
CONTINUOUS
 66
     1
 40
0.000000
 41
0.000000
  0
VERTEX
  8
FOREGROUND
  6
CONTINUOUS
 10
0.000000
 20
4.547400
  0
VERTEX
  8
FOREGROUND
  6
CONTINUOUS
 10
8.499920
 20
4.547400
  0
VERTEX
  8
FOREGROUND
  6
CONTINUOUS
 10
8.499920
 20
-6.452600
  0
VERTEX
  8
FOREGROUND
  6
CONTINUOUS
 10
0.000000
 20
-6.452600
  0
VERTEX
  8
FOREGROUND
  6
CONTINUOUS
 10
0.000000
 20
4.547400
  0
SEQEND
  8
0
  0
POLYLINE
  8
FOREGROUND
  6
CONTINUOUS
 66
     1
 40
0.000000
 41
0.000000
  0
VERTEX
  8
FOREGROUND
  6
CONTINUOUS
 10
0.000000
 20
4.547400
  0
VERTEX
  8
FOREGROUND
  6
CONTINUOUS
 10
8.499920
 20
4.547400
  0
VERTEX
  8
FOREGROUND
  6
CONTINUOUS
 10
8.499920
 20
-6.452600
  0
VERTEX
  8
FOREGROUND
  6
CONTINUOUS
 10
0.000000
 20
-6.452600
  0
VERTEX
  8
FOREGROUND
  6
CONTINUOUS
 10
0.000000
 20
4.547400
  0
SEQEND
  8
0
  0
POLYLINE
  8
0
  6
CONTINUOUS
 66
     1
 40
0.014080
 41
0.014080
  0
VERTEX
  8
0
  6
CONTINUOUS
 10
6.413000
 20
3.718000
  0
VERTEX
  8
0
  6
CONTINUOUS
 10
6.664680
 20
3.718000
  0
VERTEX
  8
0
  6
CONTINUOUS
 10
6.664680
 20
3.723280
  0
VERTEX
  8
0
  6
CONTINUOUS
 10
6.664680
 20
4.103000
  0
VERTEX
  8
0
  6
CONTINUOUS
 10
6.660720
 20
4.104320
  0
VERTEX
  8
0
  6
CONTINUOUS
 10
5.160760
 20
4.104320
  0
VERTEX
  8
0
  6
CONTINUOUS
 10
5.160760
 20
2.604360
  0
VERTEX
  8
0
  6
CONTINUOUS
 10
5.163400
 20
2.597760
  0
VERTEX
  8
0
  6
CONTINUOUS
 10
5.543560
 20
2.597760
  0
VERTEX
  8
0
  6
CONTINUOUS
 10
5.550160
 20
2.597760
  0
VERTEX
  8
0
  6
CONTINUOUS
 10
5.550160
 20
2.844600
  0
VERTEX
  8
0
  6
CONTINUOUS
 10
5.550160
 20
2.851200
  0
VERTEX
  8
0
  6
CONTINUOUS
 10
5.595040
 20
2.852520
  0
VERTEX
  8
0
  6
CONTINUOUS
 10
5.639040
 20
2.855600
  0
VERTEX
  8
0
  6
CONTINUOUS
 10
5.682600
 20
2.861320
  0
VERTEX
  8
0
  6
CONTINUOUS
 10
5.725280
 20
2.868800
  0
VERTEX
  8
0
  6
CONTINUOUS
 10
5.767080
 20
2.878480
  0
VERTEX
  8
0
  6
CONTINUOUS
 10
5.808000
 20
2.889920
  0
VERTEX
  8
0
  6
CONTINUOUS
 10
5.848040
 20
2.903560
  0
VERTEX
  8
0
  6
CONTINUOUS
 10
5.887200
 20
2.918960
  0
VERTEX
  8
0
  6
CONTINUOUS
 10
5.925040
 20
2.936120
  0
VERTEX
  8
0
  6
CONTINUOUS
 10
5.962000
 20
2.955480
  0
VERTEX
  8
0
  6
CONTINUOUS
 10
5.998080
 20
2.976160
  0
VERTEX
  8
0
  6
CONTINUOUS
 10
6.032400
 20
2.998600
  0
VERTEX
  8
0
  6
CONTINUOUS
 10
6.066280
 20
3.022800
  0
VERTEX
  8
0
  6
CONTINUOUS
 10
6.098400
 20
3.048320
  0
VERTEX
  8
0
  6
CONTINUOUS
 10
6.129200
 20
3.075600
  0
VERTEX
  8
0
  6
CONTINUOUS
 10
6.158680
 20
3.104200
  0
VERTEX
  8
0
  6
CONTINUOUS
 10
6.186840
 20
3.134120
  0
VERTEX
  8
0
  6
CONTINUOUS
 10
6.213680
 20
3.165360
  0
VERTEX
  8
0
  6
CONTINUOUS
 10
6.238760
 20
3.198360
  0
VERTEX
  8
0
  6
CONTINUOUS
 10
6.262520
 20
3.232240
  0
VERTEX
  8
0
  6
CONTINUOUS
 10
6.284520
 20
3.267440
  0
VERTEX
  8
0
  6
CONTINUOUS
 10
6.304760
 20
3.303520
  0
VERTEX
  8
0
  6
CONTINUOUS
 10
6.323240
 20
3.340920
  0
VERTEX
  8
0
  6
CONTINUOUS
 10
6.340400
 20
3.379640
  0
VERTEX
  8
0
  6
CONTINUOUS
 10
6.355360
 20
3.418800
  0
VERTEX
  8
0
  6
CONTINUOUS
 10
6.368560
 20
3.459280
  0
VERTEX
  8
0
  6
CONTINUOUS
 10
6.380000
 20
3.500640
  0
VERTEX
  8
0
  6
CONTINUOUS
 10
6.389240
 20
3.542440
  0
VERTEX
  8
0
  6
CONTINUOUS
 10
6.396720
 20
3.585560
  0
VERTEX
  8
0
  6
CONTINUOUS
 10
6.402000
 20
3.629120
  0
VERTEX
  8
0
  6
CONTINUOUS
 10
6.405520
 20
3.673120
  0
VERTEX
  8
0
  6
CONTINUOUS
 10
6.406400
 20
3.718000
  0
VERTEX
  8
0
  6
CONTINUOUS
 10
6.413000
 20
3.718000
  0
SEQEND
  8
0
  0
SOLID
  8
0
 62
    15
 10
6.305200
 20
1.253120
 11
6.953320
 21
0.871200
 12
6.234800
 22
1.210000
 13
6.882920
 23
0.827640
  0
POLYLINE
  8
0
  6
CONTINUOUS
 66
     1
 40
0.000000
 41
0.000000
  0
VERTEX
  8
0
  6
CONTINUOUS
 10
6.305200
 20
1.253120
  0
VERTEX
  8
0
  6
CONTINUOUS
 10
6.953320
 20
0.871200
  0
VERTEX
  8
0
  6
CONTINUOUS
 10
6.882920
 20
0.827640
  0
VERTEX
  8
0
  6
CONTINUOUS
 10
6.234800
 20
1.210000
  0
VERTEX
  8
0
  6
CONTINUOUS
 10
6.305200
 20
1.253120
  0
SEQEND
  8
0
  0
SOLID
  8
0
 62
    15
 10
6.674800
 20
1.883640
 11
7.322920
 21
1.501280
 12
6.662040
 22
1.796960
 13
7.310160
 23
1.415040
  0
POLYLINE
  8
0
  6
CONTINUOUS
 66
     1
 40
0.000000
 41
0.000000
  0
VERTEX
  8
0
  6
CONTINUOUS
 10
6.674800
 20
1.883640
  0
VERTEX
  8
0
  6
CONTINUOUS
 10
7.322920
 20
1.501280
  0
VERTEX
  8
0
  6
CONTINUOUS
 10
7.310160
 20
1.415040
  0
VERTEX
  8
0
  6
CONTINUOUS
 10
6.662040
 20
1.796960
  0
VERTEX
  8
0
  6
CONTINUOUS
 10
6.674800
 20
1.883640
  0
SEQEND
  8
0
  0
SOLID
  8
0
 62
    15
 10
6.662040
 20
1.796960
 11
7.310160
 21
1.415040
 12
6.641360
 22
1.713800
 13
7.289480
 23
1.331440
  0
POLYLINE
  8
0
  6
CONTINUOUS
 66
     1
 40
0.000000
 41
0.000000
  0
VERTEX
  8
0
  6
CONTINUOUS
 10
6.662040
 20
1.796960
  0
VERTEX
  8
0
  6
CONTINUOUS
 10
7.310160
 20
1.415040
  0
VERTEX
  8
0
  6
CONTINUOUS
 10
7.289480
 20
1.331440
  0
VERTEX
  8
0
  6
CONTINUOUS
 10
6.641360
 20
1.713800
  0
VERTEX
  8
0
  6
CONTINUOUS
 10
6.662040
 20
1.796960
  0
SEQEND
  8
0
  0
SOLID
  8
0
 62
    15
 10
6.641360
 20
1.713800
 11
7.289480
 21
1.331440
 12
6.612760
 22
1.634160
 13
7.260880
 23
1.251800
  0
POLYLINE
  8
0
  6
CONTINUOUS
 66
     1
 40
0.000000
 41
0.000000
  0
VERTEX
  8
0
  6
CONTINUOUS
 10
6.641360
 20
1.713800
  0
VERTEX
  8
0
  6
CONTINUOUS
 10
7.289480
 20
1.331440
  0
VERTEX
  8
0
  6
CONTINUOUS
 10
7.260880
 20
1.251800
  0
VERTEX
  8
0
  6
CONTINUOUS
 10
6.612760
 20
1.634160
  0
VERTEX
  8
0
  6
CONTINUOUS
 10
6.641360
 20
1.713800
  0
SEQEND
  8
0
  0
SOLID
  8
0
 62
    15
 10
6.612760
 20
1.634160
 11
7.260880
 21
1.251800
 12
6.577560
 22
1.558040
 13
7.225680
 23
1.176120
  0
POLYLINE
  8
0
  6
CONTINUOUS
 66
     1
 40
0.000000
 41
0.000000
  0
VERTEX
  8
0
  6
CONTINUOUS
 10
6.612760
 20
1.634160
  0
VERTEX
  8
0
  6
CONTINUOUS
 10
7.260880
 20
1.251800
  0
VERTEX
  8
0
  6
CONTINUOUS
 10
7.225680
 20
1.176120
  0
VERTEX
  8
0
  6
CONTINUOUS
 10
6.577560
 20
1.558040
  0
VERTEX
  8
0
  6
CONTINUOUS
 10
6.612760
 20
1.634160
  0
SEQEND
  8
0
  0
SOLID
  8
0
 62
    15
 10
6.577560
 20
1.558040
 11
7.225680
 21
1.176120
 12
6.534880
 22
1.486760
 13
7.183000
 23
1.104400
  0
POLYLINE
  8
0
  6
CONTINUOUS
 66
     1
 40
0.000000
 41
0.000000
  0
VERTEX
  8
0
  6
CONTINUOUS
 10
6.577560
 20
1.558040
  0
VERTEX
  8
0
  6
CONTINUOUS
 10
7.225680
 20
1.176120
  0
VERTEX
  8
0
  6
CONTINUOUS
 10
7.183000
 20
1.104400
  0
VERTEX
  8
0
  6
CONTINUOUS
 10
6.534880
 20
1.486760
  0
VERTEX
  8
0
  6
CONTINUOUS
 10
6.577560
 20
1.558040
  0
SEQEND
  8
0
  0
SOLID
  8
0
 62
    15
 10
6.534880
 20
1.486760
 11
7.183000
 21
1.104400
 12
6.486480
 22
1.420320
 13
7.134160
 23
1.037960
  0
POLYLINE
  8
0
  6
CONTINUOUS
 66
     1
 40
0.000000
 41
0.000000
  0
VERTEX
  8
0
  6
CONTINUOUS
 10
6.534880
 20
1.486760
  0
VERTEX
  8
0
  6
CONTINUOUS
 10
7.183000
 20
1.104400
  0
VERTEX
  8
0
  6
CONTINUOUS
 10
7.134160
 20
1.037960
  0
VERTEX
  8
0
  6
CONTINUOUS
 10
6.486480
 20
1.420320
  0
VERTEX
  8
0
  6
CONTINUOUS
 10
6.534880
 20
1.486760
  0
SEQEND
  8
0
  0
SOLID
  8
0
 62
    15
 10
6.486480
 20
1.420320
 11
7.134160
 21
1.037960
 12
6.431480
 22
1.358720
 13
7.079600
 23
0.976360
  0
POLYLINE
  8
0
  6
CONTINUOUS
 66
     1
 40
0.000000
 41
0.000000
  0
VERTEX
  8
0
  6
CONTINUOUS
 10
6.486480
 20
1.420320
  0
VERTEX
  8
0
  6
CONTINUOUS
 10
7.134160
 20
1.037960
  0
VERTEX
  8
0
  6
CONTINUOUS
 10
7.079600
 20
0.976360
  0
VERTEX
  8
0
  6
CONTINUOUS
 10
6.431480
 20
1.358720
  0
VERTEX
  8
0
  6
CONTINUOUS
 10
6.486480
 20
1.420320
  0
SEQEND
  8
0
  0
SOLID
  8
0
 62
    15
 10
6.431480
 20
1.358720
 11
7.079600
 21
0.976360
 12
6.371200
 22
1.302840
 13
7.019320
 23
0.920920
  0
POLYLINE
  8
0
  6
CONTINUOUS
 66
     1
 40
0.000000
 41
0.000000
  0
VERTEX
  8
0
  6
CONTINUOUS
 10
6.431480
 20
1.358720
  0
VERTEX
  8
0
  6
CONTINUOUS
 10
7.079600
 20
0.976360
  0
VERTEX
  8
0
  6
CONTINUOUS
 10
7.019320
 20
0.920920
  0
VERTEX
  8
0
  6
CONTINUOUS
 10
6.371200
 20
1.302840
  0
VERTEX
  8
0
  6
CONTINUOUS
 10
6.431480
 20
1.358720
  0
SEQEND
  8
0
  0
SOLID
  8
0
 62
    15
 10
6.371200
 20
1.302840
 11
7.019320
 21
0.920920
 12
6.305200
 22
1.253120
 13
6.953320
 23
0.871200
  0
POLYLINE
  8
0
  6
CONTINUOUS
 66
     1
 40
0.000000
 41
0.000000
  0
VERTEX
  8
0
  6
CONTINUOUS
 10
6.371200
 20
1.302840
  0
VERTEX
  8
0
  6
CONTINUOUS
 10
7.019320
 20
0.920920
  0
VERTEX
  8
0
  6
CONTINUOUS
 10
6.953320
 20
0.871200
  0
VERTEX
  8
0
  6
CONTINUOUS
 10
6.305200
 20
1.253120
  0
VERTEX
  8
0
  6
CONTINUOUS
 10
6.371200
 20
1.302840
  0
SEQEND
  8
0
  0
SOLID
  8
0
 62
    15
 10
6.679200
 20
1.972520
 11
7.326880
 21
1.590160
 12
6.674800
 22
1.883640
 13
7.322920
 23
1.501280
  0
POLYLINE
  8
0
  6
CONTINUOUS
 66
     1
 40
0.000000
 41
0.000000
  0
VERTEX
  8
0
  6
CONTINUOUS
 10
6.679200
 20
1.972520
  0
VERTEX
  8
0
  6
CONTINUOUS
 10
7.326880
 20
1.590160
  0
VERTEX
  8
0
  6
CONTINUOUS
 10
7.322920
 20
1.501280
  0
VERTEX
  8
0
  6
CONTINUOUS
 10
6.674800
 20
1.883640
  0
VERTEX
  8
0
  6
CONTINUOUS
 10
6.679200
 20
1.972520
  0
SEQEND
  8
0
  0
SOLID
  8
0
 62
    15
 10
6.234800
 20
1.210000
 11
6.882920
 21
0.827640
 12
6.160000
 22
1.173480
 13
6.808120
 23
0.791560
  0
POLYLINE
  8
0
  6
CONTINUOUS
 66
     1
 40
0.000000
 41
0.000000
  0
VERTEX
  8
0
  6
CONTINUOUS
 10
6.234800
 20
1.210000
  0
VERTEX
  8
0
  6
CONTINUOUS
 10
6.882920
 20
0.827640
  0
VERTEX
  8
0
  6
CONTINUOUS
 10
6.808120
 20
0.791560
  0
VERTEX
  8
0
  6
CONTINUOUS
 10
6.160000
 20
1.173480
  0
VERTEX
  8
0
  6
CONTINUOUS
 10
6.234800
 20
1.210000
  0
SEQEND
  8
0
  0
SOLID
  8
0
 62
    15
 10
6.160000
 20
1.173480
 11
6.808120
 21
0.791560
 12
6.080800
 22
1.144440
 13
6.728920
 23
0.762520
  0
POLYLINE
  8
0
  6
CONTINUOUS
 66
     1
 40
0.000000
 41
0.000000
  0
VERTEX
  8
0
  6
CONTINUOUS
 10
6.160000
 20
1.173480
  0
VERTEX
  8
0
  6
CONTINUOUS
 10
6.808120
 20
0.791560
  0
VERTEX
  8
0
  6
CONTINUOUS
 10
6.728920
 20
0.762520
  0
VERTEX
  8
0
  6
CONTINUOUS
 10
6.080800
 20
1.144440
  0
VERTEX
  8
0
  6
CONTINUOUS
 10
6.160000
 20
1.173480
  0
SEQEND
  8
0
  0
SOLID
  8
0
 62
    15
 10
6.080800
 20
1.144440
 11
6.728920
 21
0.762520
 12
5.998080
 22
1.123320
 13
6.646200
 23
0.740960
  0
POLYLINE
  8
0
  6
CONTINUOUS
 66
     1
 40
0.000000
 41
0.000000
  0
VERTEX
  8
0
  6
CONTINUOUS
 10
6.080800
 20
1.144440
  0
VERTEX
  8
0
  6
CONTINUOUS
 10
6.728920
 20
0.762520
  0
VERTEX
  8
0
  6
CONTINUOUS
 10
6.646200
 20
0.740960
  0
VERTEX
  8
0
  6
CONTINUOUS
 10
5.998080
 20
1.123320
  0
VERTEX
  8
0
  6
CONTINUOUS
 10
6.080800
 20
1.144440
  0
SEQEND
  8
0
  0
SOLID
  8
0
 62
    15
 10
5.998080
 20
1.123320
 11
6.646200
 21
0.740960
 12
5.911840
 22
1.110120
 13
6.559960
 23
0.728200
  0
POLYLINE
  8
0
  6
CONTINUOUS
 66
     1
 40
0.000000
 41
0.000000
  0
VERTEX
  8
0
  6
CONTINUOUS
 10
5.998080
 20
1.123320
  0
VERTEX
  8
0
  6
CONTINUOUS
 10
6.646200
 20
0.740960
  0
VERTEX
  8
0
  6
CONTINUOUS
 10
6.559960
 20
0.728200
  0
VERTEX
  8
0
  6
CONTINUOUS
 10
5.911840
 20
1.110120
  0
VERTEX
  8
0
  6
CONTINUOUS
 10
5.998080
 20
1.123320
  0
SEQEND
  8
0
  0
SOLID
  8
0
 62
    15
 10
5.911840
 20
1.110120
 11
6.559960
 21
0.728200
 12
5.822960
 22
1.105720
 13
6.471080
 23
0.723800
  0
POLYLINE
  8
0
  6
CONTINUOUS
 66
     1
 40
0.000000
 41
0.000000
  0
VERTEX
  8
0
  6
CONTINUOUS
 10
5.911840
 20
1.110120
  0
VERTEX
  8
0
  6
CONTINUOUS
 10
6.559960
 20
0.728200
  0
VERTEX
  8
0
  6
CONTINUOUS
 10
6.471080
 20
0.723800
  0
VERTEX
  8
0
  6
CONTINUOUS
 10
5.822960
 20
1.105720
  0
VERTEX
  8
0
  6
CONTINUOUS
 10
5.911840
 20
1.110120
  0
SEQEND
  8
0
  0
SOLID
  8
0
 62
    15
 10
5.822960
 20
1.105720
 11
6.471080
 21
0.723800
 12
5.822960
 22
0.852280
 13
6.471080
 23
0.470360
  0
POLYLINE
  8
0
  6
CONTINUOUS
 66
     1
 40
0.000000
 41
0.000000
  0
VERTEX
  8
0
  6
CONTINUOUS
 10
5.822960
 20
1.105720
  0
VERTEX
  8
0
  6
CONTINUOUS
 10
6.471080
 20
0.723800
  0
VERTEX
  8
0
  6
CONTINUOUS
 10
6.471080
 20
0.470360
  0
VERTEX
  8
0
  6
CONTINUOUS
 10
5.822960
 20
0.852280
  0
VERTEX
  8
0
  6
CONTINUOUS
 10
5.822960
 20
1.105720
  0
SEQEND
  8
0
  0
SOLID
  8
0
 62
    15
 10
5.822960
 20
0.852280
 11
6.471080
 21
0.470360
 12
5.436200
 22
0.852280
 13
6.084320
 23
0.470360
  0
POLYLINE
  8
0
  6
CONTINUOUS
 66
     1
 40
0.000000
 41
0.000000
  0
VERTEX
  8
0
  6
CONTINUOUS
 10
5.822960
 20
0.852280
  0
VERTEX
  8
0
  6
CONTINUOUS
 10
6.471080
 20
0.470360
  0
VERTEX
  8
0
  6
CONTINUOUS
 10
6.084320
 20
0.470360
  0
VERTEX
  8
0
  6
CONTINUOUS
 10
5.436200
 20
0.852280
  0
VERTEX
  8
0
  6
CONTINUOUS
 10
5.822960
 20
0.852280
  0
SEQEND
  8
0
  0
SOLID
  8
0
 62
    15
 10
6.937920
 20
2.357960
 11
7.585600
 21
1.975600
 12
6.937920
 22
1.972520
 13
7.585600
 23
1.590160
  0
POLYLINE
  8
0
  6
CONTINUOUS
 66
     1
 40
0.000000
 41
0.000000
  0
VERTEX
  8
0
  6
CONTINUOUS
 10
6.937920
 20
2.357960
  0
VERTEX
  8
0
  6
CONTINUOUS
 10
7.585600
 20
1.975600
  0
VERTEX
  8
0
  6
CONTINUOUS
 10
7.585600
 20
1.590160
  0
VERTEX
  8
0
  6
CONTINUOUS
 10
6.937920
 20
1.972520
  0
VERTEX
  8
0
  6
CONTINUOUS
 10
6.937920
 20
2.357960
  0
SEQEND
  8
0
  0
SOLID
  8
0
 62
    15
 10
6.937920
 20
1.972520
 11
7.585600
 21
1.590160
 12
6.685800
 22
1.972520
 13
7.333920
 23
1.590160
  0
POLYLINE
  8
0
  6
CONTINUOUS
 66
     1
 40
0.000000
 41
0.000000
  0
VERTEX
  8
0
  6
CONTINUOUS
 10
6.937920
 20
1.972520
  0
VERTEX
  8
0
  6
CONTINUOUS
 10
7.585600
 20
1.590160
  0
VERTEX
  8
0
  6
CONTINUOUS
 10
7.333920
 20
1.590160
  0
VERTEX
  8
0
  6
CONTINUOUS
 10
6.685800
 20
1.972520
  0
VERTEX
  8
0
  6
CONTINUOUS
 10
6.937920
 20
1.972520
  0
SEQEND
  8
0
  0
SOLID
  8
0
 62
    15
 10
6.685800
 20
1.972520
 11
7.333920
 21
1.590160
 12
6.679200
 22
1.972520
 13
7.326880
 23
1.590160
  0
POLYLINE
  8
0
  6
CONTINUOUS
 66
     1
 40
0.000000
 41
0.000000
  0
VERTEX
  8
0
  6
CONTINUOUS
 10
6.685800
 20
1.972520
  0
VERTEX
  8
0
  6
CONTINUOUS
 10
7.333920
 20
1.590160
  0
VERTEX
  8
0
  6
CONTINUOUS
 10
7.326880
 20
1.590160
  0
VERTEX
  8
0
  6
CONTINUOUS
 10
6.679200
 20
1.972520
  0
VERTEX
  8
0
  6
CONTINUOUS
 10
6.685800
 20
1.972520
  0
SEQEND
  8
0
  0
POLYLINE
  8
0
  6
CONTINUOUS
 66
     1
 40
0.000000
 41
0.000000
  0
VERTEX
  8
0
  6
CONTINUOUS
 10
6.679200
 20
1.972520
  0
VERTEX
  8
0
  6
CONTINUOUS
 10
6.674800
 20
1.883640
  0
VERTEX
  8
0
  6
CONTINUOUS
 10
6.662040
 20
1.796960
  0
VERTEX
  8
0
  6
CONTINUOUS
 10
6.641360
 20
1.713800
  0
VERTEX
  8
0
  6
CONTINUOUS
 10
6.612760
 20
1.634160
  0
VERTEX
  8
0
  6
CONTINUOUS
 10
6.577560
 20
1.558040
  0
VERTEX
  8
0
  6
CONTINUOUS
 10
6.534880
 20
1.486760
  0
VERTEX
  8
0
  6
CONTINUOUS
 10
6.486480
 20
1.420320
  0
VERTEX
  8
0
  6
CONTINUOUS
 10
6.431480
 20
1.358720
  0
VERTEX
  8
0
  6
CONTINUOUS
 10
6.371200
 20
1.302840
  0
VERTEX
  8
0
  6
CONTINUOUS
 10
6.305200
 20
1.253120
  0
VERTEX
  8
0
  6
CONTINUOUS
 10
6.234800
 20
1.210000
  0
VERTEX
  8
0
  6
CONTINUOUS
 10
6.160000
 20
1.173480
  0
VERTEX
  8
0
  6
CONTINUOUS
 10
6.080800
 20
1.144440
  0
VERTEX
  8
0
  6
CONTINUOUS
 10
5.998080
 20
1.123320
  0
VERTEX
  8
0
  6
CONTINUOUS
 10
5.911840
 20
1.110120
  0
VERTEX
  8
0
  6
CONTINUOUS
 10
5.822960
 20
1.105720
  0
VERTEX
  8
0
  6
CONTINUOUS
 10
5.822960
 20
0.852280
  0
VERTEX
  8
0
  6
CONTINUOUS
 10
5.436200
 20
0.852280
  0
VERTEX
  8
0
  6
CONTINUOUS
 10
5.433560
 20
0.859320
  0
VERTEX
  8
0
  6
CONTINUOUS
 10
5.433560
 20
2.359280
  0
VERTEX
  8
0
  6
CONTINUOUS
 10
6.933520
 20
2.359280
  0
VERTEX
  8
0
  6
CONTINUOUS
 10
6.937920
 20
2.357960
  0
VERTEX
  8
0
  6
CONTINUOUS
 10
6.937920
 20
1.972520
  0
VERTEX
  8
0
  6
CONTINUOUS
 10
6.685800
 20
1.972520
  0
VERTEX
  8
0
  6
CONTINUOUS
 10
6.679200
 20
1.972520
  0
SEQEND
  8
0
  0
TEXT
  8
0
 10
7.082680
 20
0.671440
 40
0.138033
  1
BA  261
 41
1.000000
  7
SN0
 71
     0
 72
     5
 11
7.672300
 21
0.671440
  0
TEXT
  8
0
 10
6.853000
 20
0.479600
 40
0.138033
  1
1-1/2" x 1-1/2"
 41
1.000000
  7
SN0
 71
     0
 72
     5
 11
7.899313
 21
0.479600
  0
TEXT
  8
0
 10
7.602320
 20
3.902360
 40
0.138033
  1
crown
 41
1.000000
  7
SN0
 71
     0
 72
     5
 11
8.044673
 21
3.902360
  0
TEXT
  8
0
 10
7.685480
 20
3.710960
 40
0.138033
  1
261
 41
1.000000
  7
SN0
 71
     0
 72
     5
 11
7.962180
 21
3.710960
  0
ENDSEC
  0
EOF
