  0
SECTION
  2
HEADER
  9
$ACADVER
  1
AC1006
  9
$EXTMIN
 10
4.694800
 20
0.399080
  9
$EXTMAX
 10
8.041440
 20
1.953600
  9
$LTSCALE
 40
0.044000
  9
$PDMODE
 70
    35
  9
$PDSIZE
 40
0.035200
  0
ENDSEC
  0
SECTION
  2
TABLES
  0
TABLE
  2
LTYPE
 70
     9
  0
LTYPE
  2
CONTINUOUS
 70
    64
  3
Solid line
 72
    65
 73
     0
 40
0.000000
  0
LTYPE
  2
DASHED
 70
    64
  3
__ __ __ __ __ __ __ __ __ __ __ __ __ __ __
 72
    65
 73
     2
 40
0.000330
 49
0.000220
 49
-0.000110
  0
LTYPE
  2
HIDDEN
 70
    64
  3
 _ _ _ _ _ _ _ _ _ _ _ _ _ _ _ _ _ _ _ _ _ _
 72
    65
 73
     2
 40
0.000165
 49
0.000110
 49
-0.000055
  0
LTYPE
  2
CENTER
 70
    64
  3
____ _ ____ _ ____ _ ____ _ ____ _ ____ _ ____
 72
    65
 73
     4
 40
0.000880
 49
0.000550
 49
-0.000110
 49
0.000110
 49
-0.000110
  0
LTYPE
  2
PHANTOM
 70
    64
  3
_____ _ _ _____ _ _ _____ _ _ _____ _ _ ____
 72
    65
 73
     6
 40
0.001100
 49
0.000550
 49
-0.000110
 49
0.000110
 49
-0.000110
 49
0.000110
 49
-0.000110
  0
LTYPE
  2
DOT
 70
    64
  3
...............................................
 72
    65
 73
     2
 40
0.000110
 49
0.000000
 49
-0.000110
  0
LTYPE
  2
DASHDOT
 70
    64
  3
__ . __ . __ . __ . __ . __ . __ . __ . __ . __
 72
    65
 73
     4
 40
0.000440
 49
0.000220
 49
-0.000110
 49
0.000000
 49
-0.000110
  0
LTYPE
  2
BORDER
 70
    64
  3
__ __ . __ __ . __ __ . __ __ . __ __ . __ __
 72
    65
 73
     6
 40
0.000770
 49
0.000220
 49
-0.000110
 49
0.000220
 49
-0.000110
 49
0.000000
 49
-0.000110
  0
LTYPE
  2
DIVIDE
 70
    64
  3
__ . . __ . . __ . . __ . . __ . . __ . . __
 72
    65
 73
     6
 40
0.000550
 49
0.000220
 49
-0.000110
 49
0.000000
 49
-0.000110
 49
0.000000
 49
-0.000110
  0
LTYPE
  2
DOTDOT
 70
    64
  3
 . .  . .  . .  . .  . .  . . 
 72
    65
 73
     5
 40
0.000242
 49
-0.000110
 49
0.000000
 49
-0.000110
 49
0.000000
 49
-0.000110
  0
ENDTAB
  0
TABLE
  2
STYLE
 70
     2
  0
STYLE
 70
     0
  2
SN0
 40
0.000000
 41
0.000440
 50
0.000000
 71
     0
 42
0.000000
  3
ROMAND
  0
STYLE
 70
    68
  2
SV0
 40
0.000000
 41
0.000440
 50
0.000000
 71
     0
 42
0.000000
  3
ROMAND
  0
ENDTAB
  0
TABLE
  2
LAYER
 70
     3
  0
LAYER
  2
FOREGROUND
 70
    64
 62
     7
  6
CONTINUOUS
  0
LAYER
  2
BACKGROUND
 70
    65
 62
    -7
  6
CONTINUOUS
  0
LAYER
  2
0
 70
    64
 62
     7
  6
CONTINUOUS
  0
ENDTAB
  0
ENDSEC
  0
SECTION
  2
ENTITIES
  0
POLYLINE
  8
FOREGROUND
  6
CONTINUOUS
 66
     1
 40
0.000000
 41
0.000000
  0
VERTEX
  8
FOREGROUND
  6
CONTINUOUS
 10
0.000000
 20
2.352680
  0
VERTEX
  8
FOREGROUND
  6
CONTINUOUS
 10
8.499920
 20
2.352680
  0
VERTEX
  8
FOREGROUND
  6
CONTINUOUS
 10
8.499920
 20
-8.647320
  0
VERTEX
  8
FOREGROUND
  6
CONTINUOUS
 10
0.000000
 20
-8.647320
  0
VERTEX
  8
FOREGROUND
  6
CONTINUOUS
 10
0.000000
 20
2.352680
  0
SEQEND
  8
0
  0
POLYLINE
  8
FOREGROUND
  6
CONTINUOUS
 66
     1
 40
0.000000
 41
0.000000
  0
VERTEX
  8
FOREGROUND
  6
CONTINUOUS
 10
0.000000
 20
2.352680
  0
VERTEX
  8
FOREGROUND
  6
CONTINUOUS
 10
8.499920
 20
2.352680
  0
VERTEX
  8
FOREGROUND
  6
CONTINUOUS
 10
8.499920
 20
-8.647320
  0
VERTEX
  8
FOREGROUND
  6
CONTINUOUS
 10
0.000000
 20
-8.647320
  0
VERTEX
  8
FOREGROUND
  6
CONTINUOUS
 10
0.000000
 20
2.352680
  0
SEQEND
  8
0
  0
POLYLINE
  8
0
  6
CONTINUOUS
 66
     1
 40
0.014080
 41
0.014080
  0
VERTEX
  8
0
  6
CONTINUOUS
 10
6.882480
 20
1.128600
  0
VERTEX
  8
0
  6
CONTINUOUS
 10
6.880775
 20
1.128600
  0
VERTEX
  8
0
  6
CONTINUOUS
 10
6.875799
 20
1.128600
  0
VERTEX
  8
0
  6
CONTINUOUS
 10
6.867764
 20
1.128600
  0
VERTEX
  8
0
  6
CONTINUOUS
 10
6.856881
 20
1.128600
  0
VERTEX
  8
0
  6
CONTINUOUS
 10
6.843360
 20
1.128600
  0
VERTEX
  8
0
  6
CONTINUOUS
 10
6.827414
 20
1.128600
  0
VERTEX
  8
0
  6
CONTINUOUS
 10
6.809251
 20
1.128600
  0
VERTEX
  8
0
  6
CONTINUOUS
 10
6.789085
 20
1.128600
  0
VERTEX
  8
0
  6
CONTINUOUS
 10
6.767125
 20
1.128600
  0
VERTEX
  8
0
  6
CONTINUOUS
 10
6.743583
 20
1.128600
  0
VERTEX
  8
0
  6
CONTINUOUS
 10
6.718670
 20
1.128600
  0
VERTEX
  8
0
  6
CONTINUOUS
 10
6.692596
 20
1.128600
  0
VERTEX
  8
0
  6
CONTINUOUS
 10
6.665572
 20
1.128600
  0
VERTEX
  8
0
  6
CONTINUOUS
 10
6.637811
 20
1.128600
  0
VERTEX
  8
0
  6
CONTINUOUS
 10
6.609521
 20
1.128600
  0
VERTEX
  8
0
  6
CONTINUOUS
 10
6.580916
 20
1.128600
  0
VERTEX
  8
0
  6
CONTINUOUS
 10
6.552204
 20
1.128600
  0
VERTEX
  8
0
  6
CONTINUOUS
 10
6.523599
 20
1.128600
  0
VERTEX
  8
0
  6
CONTINUOUS
 10
6.495309
 20
1.128600
  0
VERTEX
  8
0
  6
CONTINUOUS
 10
6.467548
 20
1.128600
  0
VERTEX
  8
0
  6
CONTINUOUS
 10
6.440524
 20
1.128600
  0
VERTEX
  8
0
  6
CONTINUOUS
 10
6.414450
 20
1.128600
  0
VERTEX
  8
0
  6
CONTINUOUS
 10
6.389537
 20
1.128600
  0
VERTEX
  8
0
  6
CONTINUOUS
 10
6.365995
 20
1.128600
  0
VERTEX
  8
0
  6
CONTINUOUS
 10
6.344035
 20
1.128600
  0
VERTEX
  8
0
  6
CONTINUOUS
 10
6.323869
 20
1.128600
  0
VERTEX
  8
0
  6
CONTINUOUS
 10
6.305706
 20
1.128600
  0
VERTEX
  8
0
  6
CONTINUOUS
 10
6.289760
 20
1.128600
  0
VERTEX
  8
0
  6
CONTINUOUS
 10
6.276239
 20
1.128600
  0
VERTEX
  8
0
  6
CONTINUOUS
 10
6.265356
 20
1.128600
  0
VERTEX
  8
0
  6
CONTINUOUS
 10
6.257321
 20
1.128600
  0
VERTEX
  8
0
  6
CONTINUOUS
 10
6.252345
 20
1.128600
  0
VERTEX
  8
0
  6
CONTINUOUS
 10
6.250640
 20
1.128600
  0
VERTEX
  8
0
  6
CONTINUOUS
 10
6.249956
 20
1.128600
  0
VERTEX
  8
0
  6
CONTINUOUS
 10
6.248684
 20
1.128600
  0
VERTEX
  8
0
  6
CONTINUOUS
 10
6.248000
 20
1.128600
  0
VERTEX
  8
0
  6
CONTINUOUS
 10
6.248000
 20
1.130048
  0
VERTEX
  8
0
  6
CONTINUOUS
 10
6.248000
 20
1.134290
  0
VERTEX
  8
0
  6
CONTINUOUS
 10
6.248000
 20
1.141175
  0
VERTEX
  8
0
  6
CONTINUOUS
 10
6.248000
 20
1.150553
  0
VERTEX
  8
0
  6
CONTINUOUS
 10
6.248000
 20
1.162272
  0
VERTEX
  8
0
  6
CONTINUOUS
 10
6.248000
 20
1.176181
  0
VERTEX
  8
0
  6
CONTINUOUS
 10
6.248000
 20
1.192129
  0
VERTEX
  8
0
  6
CONTINUOUS
 10
6.248000
 20
1.209966
  0
VERTEX
  8
0
  6
CONTINUOUS
 10
6.248000
 20
1.229539
  0
VERTEX
  8
0
  6
CONTINUOUS
 10
6.248000
 20
1.250699
  0
VERTEX
  8
0
  6
CONTINUOUS
 10
6.248000
 20
1.273294
  0
VERTEX
  8
0
  6
CONTINUOUS
 10
6.248000
 20
1.297172
  0
VERTEX
  8
0
  6
CONTINUOUS
 10
6.248000
 20
1.322184
  0
VERTEX
  8
0
  6
CONTINUOUS
 10
6.248000
 20
1.348177
  0
VERTEX
  8
0
  6
CONTINUOUS
 10
6.248000
 20
1.375001
  0
VERTEX
  8
0
  6
CONTINUOUS
 10
6.248000
 20
1.402505
  0
VERTEX
  8
0
  6
CONTINUOUS
 10
6.248000
 20
1.430537
  0
VERTEX
  8
0
  6
CONTINUOUS
 10
6.248000
 20
1.458947
  0
VERTEX
  8
0
  6
CONTINUOUS
 10
6.248000
 20
1.487584
  0
VERTEX
  8
0
  6
CONTINUOUS
 10
6.248000
 20
1.516296
  0
VERTEX
  8
0
  6
CONTINUOUS
 10
6.248000
 20
1.544933
  0
VERTEX
  8
0
  6
CONTINUOUS
 10
6.248000
 20
1.573343
  0
VERTEX
  8
0
  6
CONTINUOUS
 10
6.248000
 20
1.601375
  0
VERTEX
  8
0
  6
CONTINUOUS
 10
6.248000
 20
1.628879
  0
VERTEX
  8
0
  6
CONTINUOUS
 10
6.248000
 20
1.655703
  0
VERTEX
  8
0
  6
CONTINUOUS
 10
6.248000
 20
1.681696
  0
VERTEX
  8
0
  6
CONTINUOUS
 10
6.248000
 20
1.706708
  0
VERTEX
  8
0
  6
CONTINUOUS
 10
6.248000
 20
1.730586
  0
VERTEX
  8
0
  6
CONTINUOUS
 10
6.248000
 20
1.753181
  0
VERTEX
  8
0
  6
CONTINUOUS
 10
6.248000
 20
1.774341
  0
VERTEX
  8
0
  6
CONTINUOUS
 10
6.248000
 20
1.793914
  0
VERTEX
  8
0
  6
CONTINUOUS
 10
6.248000
 20
1.811751
  0
VERTEX
  8
0
  6
CONTINUOUS
 10
6.248000
 20
1.827699
  0
VERTEX
  8
0
  6
CONTINUOUS
 10
6.248000
 20
1.841608
  0
VERTEX
  8
0
  6
CONTINUOUS
 10
6.248000
 20
1.853327
  0
VERTEX
  8
0
  6
CONTINUOUS
 10
6.248000
 20
1.862705
  0
VERTEX
  8
0
  6
CONTINUOUS
 10
6.248000
 20
1.869590
  0
VERTEX
  8
0
  6
CONTINUOUS
 10
6.248000
 20
1.873832
  0
VERTEX
  8
0
  6
CONTINUOUS
 10
6.248000
 20
1.875280
  0
VERTEX
  8
0
  6
CONTINUOUS
 10
6.248000
 20
1.875622
  0
VERTEX
  8
0
  6
CONTINUOUS
 10
6.248000
 20
1.876258
  0
VERTEX
  8
0
  6
CONTINUOUS
 10
6.248000
 20
1.876600
  0
VERTEX
  8
0
  6
CONTINUOUS
 10
6.251940
 20
1.876600
  0
VERTEX
  8
0
  6
CONTINUOUS
 10
6.263024
 20
1.876600
  0
VERTEX
  8
0
  6
CONTINUOUS
 10
6.280148
 20
1.876600
  0
VERTEX
  8
0
  6
CONTINUOUS
 10
6.302207
 20
1.876600
  0
VERTEX
  8
0
  6
CONTINUOUS
 10
6.328096
 20
1.876600
  0
VERTEX
  8
0
  6
CONTINUOUS
 10
6.356712
 20
1.876600
  0
VERTEX
  8
0
  6
CONTINUOUS
 10
6.386949
 20
1.876600
  0
VERTEX
  8
0
  6
CONTINUOUS
 10
6.417703
 20
1.876600
  0
VERTEX
  8
0
  6
CONTINUOUS
 10
6.447869
 20
1.876600
  0
VERTEX
  8
0
  6
CONTINUOUS
 10
6.476344
 20
1.876600
  0
VERTEX
  8
0
  6
CONTINUOUS
 10
6.502022
 20
1.876600
  0
VERTEX
  8
0
  6
CONTINUOUS
 10
6.523799
 20
1.876600
  0
VERTEX
  8
0
  6
CONTINUOUS
 10
6.540571
 20
1.876600
  0
VERTEX
  8
0
  6
CONTINUOUS
 10
6.551233
 20
1.876600
  0
VERTEX
  8
0
  6
CONTINUOUS
 10
6.554680
 20
1.876600
  0
VERTEX
  8
0
  6
CONTINUOUS
 10
6.555022
 20
1.876600
  0
VERTEX
  8
0
  6
CONTINUOUS
 10
6.555658
 20
1.876600
  0
VERTEX
  8
0
  6
CONTINUOUS
 10
6.556000
 20
1.876600
  0
VERTEX
  8
0
  6
CONTINUOUS
 10
6.555590
 20
1.855260
  0
VERTEX
  8
0
  6
CONTINUOUS
 10
6.555805
 20
1.834573
  0
VERTEX
  8
0
  6
CONTINUOUS
 10
6.556623
 20
1.814523
  0
VERTEX
  8
0
  6
CONTINUOUS
 10
6.558022
 20
1.795094
  0
VERTEX
  8
0
  6
CONTINUOUS
 10
6.559981
 20
1.776270
  0
VERTEX
  8
0
  6
CONTINUOUS
 10
6.562479
 20
1.758036
  0
VERTEX
  8
0
  6
CONTINUOUS
 10
6.565495
 20
1.740375
  0
VERTEX
  8
0
  6
CONTINUOUS
 10
6.569006
 20
1.723272
  0
VERTEX
  8
0
  6
CONTINUOUS
 10
6.572992
 20
1.706712
  0
VERTEX
  8
0
  6
CONTINUOUS
 10
6.577431
 20
1.690677
  0
VERTEX
  8
0
  6
CONTINUOUS
 10
6.582301
 20
1.675152
  0
VERTEX
  8
0
  6
CONTINUOUS
 10
6.587583
 20
1.660122
  0
VERTEX
  8
0
  6
CONTINUOUS
 10
6.593253
 20
1.645570
  0
VERTEX
  8
0
  6
CONTINUOUS
 10
6.599290
 20
1.631481
  0
VERTEX
  8
0
  6
CONTINUOUS
 10
6.605674
 20
1.617839
  0
VERTEX
  8
0
  6
CONTINUOUS
 10
6.612382
 20
1.604628
  0
VERTEX
  8
0
  6
CONTINUOUS
 10
6.619394
 20
1.591832
  0
VERTEX
  8
0
  6
CONTINUOUS
 10
6.626688
 20
1.579436
  0
VERTEX
  8
0
  6
CONTINUOUS
 10
6.634242
 20
1.567423
  0
VERTEX
  8
0
  6
CONTINUOUS
 10
6.642035
 20
1.555777
  0
VERTEX
  8
0
  6
CONTINUOUS
 10
6.650046
 20
1.544484
  0
VERTEX
  8
0
  6
CONTINUOUS
 10
6.658254
 20
1.533526
  0
VERTEX
  8
0
  6
CONTINUOUS
 10
6.666636
 20
1.522888
  0
VERTEX
  8
0
  6
CONTINUOUS
 10
6.675172
 20
1.512555
  0
VERTEX
  8
0
  6
CONTINUOUS
 10
6.683840
 20
1.502510
  0
VERTEX
  8
0
  6
CONTINUOUS
 10
6.692619
 20
1.492738
  0
VERTEX
  8
0
  6
CONTINUOUS
 10
6.701487
 20
1.483222
  0
VERTEX
  8
0
  6
CONTINUOUS
 10
6.710423
 20
1.473948
  0
VERTEX
  8
0
  6
CONTINUOUS
 10
6.719406
 20
1.464898
  0
VERTEX
  8
0
  6
CONTINUOUS
 10
6.728414
 20
1.456058
  0
VERTEX
  8
0
  6
CONTINUOUS
 10
6.737425
 20
1.447411
  0
VERTEX
  8
0
  6
CONTINUOUS
 10
6.746419
 20
1.438941
  0
VERTEX
  8
0
  6
CONTINUOUS
 10
6.755374
 20
1.430633
  0
VERTEX
  8
0
  6
CONTINUOUS
 10
6.764268
 20
1.422471
  0
VERTEX
  8
0
  6
CONTINUOUS
 10
6.773081
 20
1.414439
  0
VERTEX
  8
0
  6
CONTINUOUS
 10
6.781790
 20
1.406521
  0
VERTEX
  8
0
  6
CONTINUOUS
 10
6.790375
 20
1.398702
  0
VERTEX
  8
0
  6
CONTINUOUS
 10
6.798813
 20
1.390965
  0
VERTEX
  8
0
  6
CONTINUOUS
 10
6.807084
 20
1.383294
  0
VERTEX
  8
0
  6
CONTINUOUS
 10
6.815166
 20
1.375674
  0
VERTEX
  8
0
  6
CONTINUOUS
 10
6.823038
 20
1.368090
  0
VERTEX
  8
0
  6
CONTINUOUS
 10
6.830678
 20
1.360524
  0
VERTEX
  8
0
  6
CONTINUOUS
 10
6.838066
 20
1.352961
  0
VERTEX
  8
0
  6
CONTINUOUS
 10
6.845178
 20
1.345386
  0
VERTEX
  8
0
  6
CONTINUOUS
 10
6.851995
 20
1.337783
  0
VERTEX
  8
0
  6
CONTINUOUS
 10
6.858495
 20
1.330135
  0
VERTEX
  8
0
  6
CONTINUOUS
 10
6.864656
 20
1.322427
  0
VERTEX
  8
0
  6
CONTINUOUS
 10
6.870457
 20
1.314643
  0
VERTEX
  8
0
  6
CONTINUOUS
 10
6.875876
 20
1.306767
  0
VERTEX
  8
0
  6
CONTINUOUS
 10
6.880893
 20
1.298784
  0
VERTEX
  8
0
  6
CONTINUOUS
 10
6.885485
 20
1.290677
  0
VERTEX
  8
0
  6
CONTINUOUS
 10
6.889632
 20
1.282431
  0
VERTEX
  8
0
  6
CONTINUOUS
 10
6.893311
 20
1.274029
  0
VERTEX
  8
0
  6
CONTINUOUS
 10
6.896502
 20
1.265457
  0
VERTEX
  8
0
  6
CONTINUOUS
 10
6.899183
 20
1.256697
  0
VERTEX
  8
0
  6
CONTINUOUS
 10
6.901333
 20
1.247735
  0
VERTEX
  8
0
  6
CONTINUOUS
 10
6.902931
 20
1.238554
  0
VERTEX
  8
0
  6
CONTINUOUS
 10
6.903954
 20
1.229139
  0
VERTEX
  8
0
  6
CONTINUOUS
 10
6.904382
 20
1.219474
  0
VERTEX
  8
0
  6
CONTINUOUS
 10
6.904193
 20
1.209542
  0
VERTEX
  8
0
  6
CONTINUOUS
 10
6.903366
 20
1.199329
  0
VERTEX
  8
0
  6
CONTINUOUS
 10
6.901879
 20
1.188818
  0
VERTEX
  8
0
  6
CONTINUOUS
 10
6.899711
 20
1.177993
  0
VERTEX
  8
0
  6
CONTINUOUS
 10
6.896840
 20
1.166838
  0
VERTEX
  8
0
  6
CONTINUOUS
 10
6.893246
 20
1.155339
  0
VERTEX
  8
0
  6
CONTINUOUS
 10
6.888906
 20
1.143478
  0
VERTEX
  8
0
  6
CONTINUOUS
 10
6.883800
 20
1.131240
  0
VERTEX
  8
0
  6
CONTINUOUS
 10
6.883800
 20
1.131240
  0
VERTEX
  8
0
  6
CONTINUOUS
 10
6.883458
 20
1.130556
  0
VERTEX
  8
0
  6
CONTINUOUS
 10
6.882822
 20
1.129284
  0
VERTEX
  8
0
  6
CONTINUOUS
 10
6.882480
 20
1.128600
  0
SEQEND
  8
0
  0
SOLID
  8
0
 62
    15
 10
5.028760
 20
1.352120
 11
5.667200
 21
1.718200
 12
5.067920
 22
1.315160
 13
5.706360
 23
1.681240
  0
POLYLINE
  8
0
  6
CONTINUOUS
 66
     1
 40
0.000000
 41
0.000000
  0
VERTEX
  8
0
  6
CONTINUOUS
 10
5.028760
 20
1.352120
  0
VERTEX
  8
0
  6
CONTINUOUS
 10
5.667200
 20
1.718200
  0
VERTEX
  8
0
  6
CONTINUOUS
 10
5.706360
 20
1.681240
  0
VERTEX
  8
0
  6
CONTINUOUS
 10
5.067920
 20
1.315160
  0
VERTEX
  8
0
  6
CONTINUOUS
 10
5.028760
 20
1.352120
  0
SEQEND
  8
0
  0
SOLID
  8
0
 62
    15
 10
4.723400
 20
1.523720
 11
5.361400
 21
1.889800
 12
4.746720
 22
1.530320
 13
5.385160
 23
1.896400
  0
POLYLINE
  8
0
  6
CONTINUOUS
 66
     1
 40
0.000000
 41
0.000000
  0
VERTEX
  8
0
  6
CONTINUOUS
 10
4.723400
 20
1.523720
  0
VERTEX
  8
0
  6
CONTINUOUS
 10
5.361400
 20
1.889800
  0
VERTEX
  8
0
  6
CONTINUOUS
 10
5.385160
 20
1.896400
  0
VERTEX
  8
0
  6
CONTINUOUS
 10
4.746720
 20
1.530320
  0
VERTEX
  8
0
  6
CONTINUOUS
 10
4.723400
 20
1.523720
  0
SEQEND
  8
0
  0
SOLID
  8
0
 62
    15
 10
4.746720
 20
1.530320
 11
5.385160
 21
1.896400
 12
4.768720
 22
1.533840
 13
5.407160
 23
1.899920
  0
POLYLINE
  8
0
  6
CONTINUOUS
 66
     1
 40
0.000000
 41
0.000000
  0
VERTEX
  8
0
  6
CONTINUOUS
 10
4.746720
 20
1.530320
  0
VERTEX
  8
0
  6
CONTINUOUS
 10
5.385160
 20
1.896400
  0
VERTEX
  8
0
  6
CONTINUOUS
 10
5.407160
 20
1.899920
  0
VERTEX
  8
0
  6
CONTINUOUS
 10
4.768720
 20
1.533840
  0
VERTEX
  8
0
  6
CONTINUOUS
 10
4.746720
 20
1.530320
  0
SEQEND
  8
0
  0
SOLID
  8
0
 62
    15
 10
4.768720
 20
1.533840
 11
5.407160
 21
1.899920
 12
4.789840
 22
1.534280
 13
5.428280
 23
1.900360
  0
POLYLINE
  8
0
  6
CONTINUOUS
 66
     1
 40
0.000000
 41
0.000000
  0
VERTEX
  8
0
  6
CONTINUOUS
 10
4.768720
 20
1.533840
  0
VERTEX
  8
0
  6
CONTINUOUS
 10
5.407160
 20
1.899920
  0
VERTEX
  8
0
  6
CONTINUOUS
 10
5.428280
 20
1.900360
  0
VERTEX
  8
0
  6
CONTINUOUS
 10
4.789840
 20
1.534280
  0
VERTEX
  8
0
  6
CONTINUOUS
 10
4.768720
 20
1.533840
  0
SEQEND
  8
0
  0
SOLID
  8
0
 62
    15
 10
4.789840
 20
1.534280
 11
5.428280
 21
1.900360
 12
4.828120
 22
1.527680
 13
5.466560
 23
1.893760
  0
POLYLINE
  8
0
  6
CONTINUOUS
 66
     1
 40
0.000000
 41
0.000000
  0
VERTEX
  8
0
  6
CONTINUOUS
 10
4.789840
 20
1.534280
  0
VERTEX
  8
0
  6
CONTINUOUS
 10
5.428280
 20
1.900360
  0
VERTEX
  8
0
  6
CONTINUOUS
 10
5.466560
 20
1.893760
  0
VERTEX
  8
0
  6
CONTINUOUS
 10
4.828120
 20
1.527680
  0
VERTEX
  8
0
  6
CONTINUOUS
 10
4.789840
 20
1.534280
  0
SEQEND
  8
0
  0
SOLID
  8
0
 62
    15
 10
4.828120
 20
1.527680
 11
5.466560
 21
1.893760
 12
4.863320
 22
1.512280
 13
5.501760
 23
1.878360
  0
POLYLINE
  8
0
  6
CONTINUOUS
 66
     1
 40
0.000000
 41
0.000000
  0
VERTEX
  8
0
  6
CONTINUOUS
 10
4.828120
 20
1.527680
  0
VERTEX
  8
0
  6
CONTINUOUS
 10
5.466560
 20
1.893760
  0
VERTEX
  8
0
  6
CONTINUOUS
 10
5.501760
 20
1.878360
  0
VERTEX
  8
0
  6
CONTINUOUS
 10
4.863320
 20
1.512280
  0
VERTEX
  8
0
  6
CONTINUOUS
 10
4.828120
 20
1.527680
  0
SEQEND
  8
0
  0
SOLID
  8
0
 62
    15
 10
4.863320
 20
1.512280
 11
5.501760
 21
1.878360
 12
4.896320
 22
1.488960
 13
5.534760
 23
1.855040
  0
POLYLINE
  8
0
  6
CONTINUOUS
 66
     1
 40
0.000000
 41
0.000000
  0
VERTEX
  8
0
  6
CONTINUOUS
 10
4.863320
 20
1.512280
  0
VERTEX
  8
0
  6
CONTINUOUS
 10
5.501760
 20
1.878360
  0
VERTEX
  8
0
  6
CONTINUOUS
 10
5.534760
 20
1.855040
  0
VERTEX
  8
0
  6
CONTINUOUS
 10
4.896320
 20
1.488960
  0
VERTEX
  8
0
  6
CONTINUOUS
 10
4.863320
 20
1.512280
  0
SEQEND
  8
0
  0
SOLID
  8
0
 62
    15
 10
4.896320
 20
1.488960
 11
5.534760
 21
1.855040
 12
4.928000
 22
1.459920
 13
5.566440
 23
1.826000
  0
POLYLINE
  8
0
  6
CONTINUOUS
 66
     1
 40
0.000000
 41
0.000000
  0
VERTEX
  8
0
  6
CONTINUOUS
 10
4.896320
 20
1.488960
  0
VERTEX
  8
0
  6
CONTINUOUS
 10
5.534760
 20
1.855040
  0
VERTEX
  8
0
  6
CONTINUOUS
 10
5.566440
 20
1.826000
  0
VERTEX
  8
0
  6
CONTINUOUS
 10
4.928000
 20
1.459920
  0
VERTEX
  8
0
  6
CONTINUOUS
 10
4.896320
 20
1.488960
  0
SEQEND
  8
0
  0
SOLID
  8
0
 62
    15
 10
4.928000
 20
1.459920
 11
5.566440
 21
1.826000
 12
4.960120
 22
1.426480
 13
5.598560
 23
1.792560
  0
POLYLINE
  8
0
  6
CONTINUOUS
 66
     1
 40
0.000000
 41
0.000000
  0
VERTEX
  8
0
  6
CONTINUOUS
 10
4.928000
 20
1.459920
  0
VERTEX
  8
0
  6
CONTINUOUS
 10
5.566440
 20
1.826000
  0
VERTEX
  8
0
  6
CONTINUOUS
 10
5.598560
 20
1.792560
  0
VERTEX
  8
0
  6
CONTINUOUS
 10
4.960120
 20
1.426480
  0
VERTEX
  8
0
  6
CONTINUOUS
 10
4.928000
 20
1.459920
  0
SEQEND
  8
0
  0
SOLID
  8
0
 62
    15
 10
4.960120
 20
1.426480
 11
5.598560
 21
1.792560
 12
4.993120
 22
1.389960
 13
5.631560
 23
1.756040
  0
POLYLINE
  8
0
  6
CONTINUOUS
 66
     1
 40
0.000000
 41
0.000000
  0
VERTEX
  8
0
  6
CONTINUOUS
 10
4.960120
 20
1.426480
  0
VERTEX
  8
0
  6
CONTINUOUS
 10
5.598560
 20
1.792560
  0
VERTEX
  8
0
  6
CONTINUOUS
 10
5.631560
 20
1.756040
  0
VERTEX
  8
0
  6
CONTINUOUS
 10
4.993120
 20
1.389960
  0
VERTEX
  8
0
  6
CONTINUOUS
 10
4.960120
 20
1.426480
  0
SEQEND
  8
0
  0
SOLID
  8
0
 62
    15
 10
4.993120
 20
1.389960
 11
5.631560
 21
1.756040
 12
5.028760
 22
1.352120
 13
5.667200
 23
1.718200
  0
POLYLINE
  8
0
  6
CONTINUOUS
 66
     1
 40
0.000000
 41
0.000000
  0
VERTEX
  8
0
  6
CONTINUOUS
 10
4.993120
 20
1.389960
  0
VERTEX
  8
0
  6
CONTINUOUS
 10
5.631560
 20
1.756040
  0
VERTEX
  8
0
  6
CONTINUOUS
 10
5.667200
 20
1.718200
  0
VERTEX
  8
0
  6
CONTINUOUS
 10
5.028760
 20
1.352120
  0
VERTEX
  8
0
  6
CONTINUOUS
 10
4.993120
 20
1.389960
  0
SEQEND
  8
0
  0
SOLID
  8
0
 62
    15
 10
4.697880
 20
1.514040
 11
5.336320
 21
1.880120
 12
4.723400
 22
1.523720
 13
5.361400
 23
1.889800
  0
POLYLINE
  8
0
  6
CONTINUOUS
 66
     1
 40
0.000000
 41
0.000000
  0
VERTEX
  8
0
  6
CONTINUOUS
 10
4.697880
 20
1.514040
  0
VERTEX
  8
0
  6
CONTINUOUS
 10
5.336320
 20
1.880120
  0
VERTEX
  8
0
  6
CONTINUOUS
 10
5.361400
 20
1.889800
  0
VERTEX
  8
0
  6
CONTINUOUS
 10
4.723400
 20
1.523720
  0
VERTEX
  8
0
  6
CONTINUOUS
 10
4.697880
 20
1.514040
  0
SEQEND
  8
0
  0
SOLID
  8
0
 62
    15
 10
5.067920
 20
1.315160
 11
5.706360
 21
1.681240
 12
5.111920
 22
1.279520
 13
5.750360
 23
1.645600
  0
POLYLINE
  8
0
  6
CONTINUOUS
 66
     1
 40
0.000000
 41
0.000000
  0
VERTEX
  8
0
  6
CONTINUOUS
 10
5.067920
 20
1.315160
  0
VERTEX
  8
0
  6
CONTINUOUS
 10
5.706360
 20
1.681240
  0
VERTEX
  8
0
  6
CONTINUOUS
 10
5.750360
 20
1.645600
  0
VERTEX
  8
0
  6
CONTINUOUS
 10
5.111920
 20
1.279520
  0
VERTEX
  8
0
  6
CONTINUOUS
 10
5.067920
 20
1.315160
  0
SEQEND
  8
0
  0
SOLID
  8
0
 62
    15
 10
5.111920
 20
1.279520
 11
5.750360
 21
1.645600
 12
5.161640
 22
1.247840
 13
5.800080
 23
1.613920
  0
POLYLINE
  8
0
  6
CONTINUOUS
 66
     1
 40
0.000000
 41
0.000000
  0
VERTEX
  8
0
  6
CONTINUOUS
 10
5.111920
 20
1.279520
  0
VERTEX
  8
0
  6
CONTINUOUS
 10
5.750360
 20
1.645600
  0
VERTEX
  8
0
  6
CONTINUOUS
 10
5.800080
 20
1.613920
  0
VERTEX
  8
0
  6
CONTINUOUS
 10
5.161640
 20
1.247840
  0
VERTEX
  8
0
  6
CONTINUOUS
 10
5.111920
 20
1.279520
  0
SEQEND
  8
0
  0
SOLID
  8
0
 62
    15
 10
5.161640
 20
1.247840
 11
5.800080
 21
1.613920
 12
5.218840
 22
1.220560
 13
5.856840
 23
1.586640
  0
POLYLINE
  8
0
  6
CONTINUOUS
 66
     1
 40
0.000000
 41
0.000000
  0
VERTEX
  8
0
  6
CONTINUOUS
 10
5.161640
 20
1.247840
  0
VERTEX
  8
0
  6
CONTINUOUS
 10
5.800080
 20
1.613920
  0
VERTEX
  8
0
  6
CONTINUOUS
 10
5.856840
 20
1.586640
  0
VERTEX
  8
0
  6
CONTINUOUS
 10
5.218840
 20
1.220560
  0
VERTEX
  8
0
  6
CONTINUOUS
 10
5.161640
 20
1.247840
  0
SEQEND
  8
0
  0
SOLID
  8
0
 62
    15
 10
5.218840
 20
1.220560
 11
5.856840
 21
1.586640
 12
5.283960
 22
1.200320
 13
5.921960
 23
1.566400
  0
POLYLINE
  8
0
  6
CONTINUOUS
 66
     1
 40
0.000000
 41
0.000000
  0
VERTEX
  8
0
  6
CONTINUOUS
 10
5.218840
 20
1.220560
  0
VERTEX
  8
0
  6
CONTINUOUS
 10
5.856840
 20
1.586640
  0
VERTEX
  8
0
  6
CONTINUOUS
 10
5.921960
 20
1.566400
  0
VERTEX
  8
0
  6
CONTINUOUS
 10
5.283960
 20
1.200320
  0
VERTEX
  8
0
  6
CONTINUOUS
 10
5.218840
 20
1.220560
  0
SEQEND
  8
0
  0
SOLID
  8
0
 62
    15
 10
5.283960
 20
1.200320
 11
5.921960
 21
1.566400
 12
5.319600
 22
1.193280
 13
5.958040
 23
1.559360
  0
POLYLINE
  8
0
  6
CONTINUOUS
 66
     1
 40
0.000000
 41
0.000000
  0
VERTEX
  8
0
  6
CONTINUOUS
 10
5.283960
 20
1.200320
  0
VERTEX
  8
0
  6
CONTINUOUS
 10
5.921960
 20
1.566400
  0
VERTEX
  8
0
  6
CONTINUOUS
 10
5.958040
 20
1.559360
  0
VERTEX
  8
0
  6
CONTINUOUS
 10
5.319600
 20
1.193280
  0
VERTEX
  8
0
  6
CONTINUOUS
 10
5.283960
 20
1.200320
  0
SEQEND
  8
0
  0
SOLID
  8
0
 62
    15
 10
5.319600
 20
1.193280
 11
5.958040
 21
1.559360
 12
5.358320
 22
1.188440
 13
5.996760
 23
1.554520
  0
POLYLINE
  8
0
  6
CONTINUOUS
 66
     1
 40
0.000000
 41
0.000000
  0
VERTEX
  8
0
  6
CONTINUOUS
 10
5.319600
 20
1.193280
  0
VERTEX
  8
0
  6
CONTINUOUS
 10
5.958040
 20
1.559360
  0
VERTEX
  8
0
  6
CONTINUOUS
 10
5.996760
 20
1.554520
  0
VERTEX
  8
0
  6
CONTINUOUS
 10
5.358320
 20
1.188440
  0
VERTEX
  8
0
  6
CONTINUOUS
 10
5.319600
 20
1.193280
  0
SEQEND
  8
0
  0
SOLID
  8
0
 62
    15
 10
5.358320
 20
1.188440
 11
5.996760
 21
1.554520
 12
5.399240
 22
1.185800
 13
6.037680
 23
1.551880
  0
POLYLINE
  8
0
  6
CONTINUOUS
 66
     1
 40
0.000000
 41
0.000000
  0
VERTEX
  8
0
  6
CONTINUOUS
 10
5.358320
 20
1.188440
  0
VERTEX
  8
0
  6
CONTINUOUS
 10
5.996760
 20
1.554520
  0
VERTEX
  8
0
  6
CONTINUOUS
 10
6.037680
 20
1.551880
  0
VERTEX
  8
0
  6
CONTINUOUS
 10
5.399240
 20
1.185800
  0
VERTEX
  8
0
  6
CONTINUOUS
 10
5.358320
 20
1.188440
  0
SEQEND
  8
0
  0
SOLID
  8
0
 62
    15
 10
5.399240
 20
1.185800
 11
6.037680
 21
1.551880
 12
5.443240
 22
1.185800
 13
6.081680
 23
1.551880
  0
POLYLINE
  8
0
  6
CONTINUOUS
 66
     1
 40
0.000000
 41
0.000000
  0
VERTEX
  8
0
  6
CONTINUOUS
 10
5.399240
 20
1.185800
  0
VERTEX
  8
0
  6
CONTINUOUS
 10
6.037680
 20
1.551880
  0
VERTEX
  8
0
  6
CONTINUOUS
 10
6.081680
 20
1.551880
  0
VERTEX
  8
0
  6
CONTINUOUS
 10
5.443240
 20
1.185800
  0
VERTEX
  8
0
  6
CONTINUOUS
 10
5.399240
 20
1.185800
  0
SEQEND
  8
0
  0
SOLID
  8
0
 62
    15
 10
5.443240
 20
1.185800
 11
6.081680
 21
1.551880
 12
5.443240
 22
0.877800
 13
6.081680
 23
1.243880
  0
POLYLINE
  8
0
  6
CONTINUOUS
 66
     1
 40
0.000000
 41
0.000000
  0
VERTEX
  8
0
  6
CONTINUOUS
 10
5.443240
 20
1.185800
  0
VERTEX
  8
0
  6
CONTINUOUS
 10
6.081680
 20
1.551880
  0
VERTEX
  8
0
  6
CONTINUOUS
 10
6.081680
 20
1.243880
  0
VERTEX
  8
0
  6
CONTINUOUS
 10
5.443240
 20
0.877800
  0
VERTEX
  8
0
  6
CONTINUOUS
 10
5.443240
 20
1.185800
  0
SEQEND
  8
0
  0
SOLID
  8
0
 62
    15
 10
4.695240
 20
1.512720
 11
5.333680
 21
1.878800
 12
4.697880
 22
1.514040
 13
5.336320
 23
1.880120
  0
POLYLINE
  8
0
  6
CONTINUOUS
 66
     1
 40
0.000000
 41
0.000000
  0
VERTEX
  8
0
  6
CONTINUOUS
 10
4.695240
 20
1.512720
  0
VERTEX
  8
0
  6
CONTINUOUS
 10
5.333680
 20
1.878800
  0
VERTEX
  8
0
  6
CONTINUOUS
 10
5.336320
 20
1.880120
  0
VERTEX
  8
0
  6
CONTINUOUS
 10
4.697880
 20
1.514040
  0
VERTEX
  8
0
  6
CONTINUOUS
 10
4.695240
 20
1.512720
  0
SEQEND
  8
0
  0
POLYLINE
  8
0
  6
CONTINUOUS
 66
     1
 40
0.000000
 41
0.000000
  0
VERTEX
  8
0
  6
CONTINUOUS
 10
4.697880
 20
1.514040
  0
VERTEX
  8
0
  6
CONTINUOUS
 10
4.723400
 20
1.523720
  0
VERTEX
  8
0
  6
CONTINUOUS
 10
4.746720
 20
1.530320
  0
VERTEX
  8
0
  6
CONTINUOUS
 10
4.768720
 20
1.533840
  0
VERTEX
  8
0
  6
CONTINUOUS
 10
4.789840
 20
1.534280
  0
VERTEX
  8
0
  6
CONTINUOUS
 10
4.828120
 20
1.527680
  0
VERTEX
  8
0
  6
CONTINUOUS
 10
4.863320
 20
1.512280
  0
VERTEX
  8
0
  6
CONTINUOUS
 10
4.896320
 20
1.488960
  0
VERTEX
  8
0
  6
CONTINUOUS
 10
4.928000
 20
1.459920
  0
VERTEX
  8
0
  6
CONTINUOUS
 10
4.960120
 20
1.426480
  0
VERTEX
  8
0
  6
CONTINUOUS
 10
4.993120
 20
1.389960
  0
VERTEX
  8
0
  6
CONTINUOUS
 10
5.028760
 20
1.352120
  0
VERTEX
  8
0
  6
CONTINUOUS
 10
5.067920
 20
1.315160
  0
VERTEX
  8
0
  6
CONTINUOUS
 10
5.111920
 20
1.279520
  0
VERTEX
  8
0
  6
CONTINUOUS
 10
5.161640
 20
1.247840
  0
VERTEX
  8
0
  6
CONTINUOUS
 10
5.218840
 20
1.220560
  0
VERTEX
  8
0
  6
CONTINUOUS
 10
5.283960
 20
1.200320
  0
VERTEX
  8
0
  6
CONTINUOUS
 10
5.319600
 20
1.193280
  0
VERTEX
  8
0
  6
CONTINUOUS
 10
5.358320
 20
1.188440
  0
VERTEX
  8
0
  6
CONTINUOUS
 10
5.399240
 20
1.185800
  0
VERTEX
  8
0
  6
CONTINUOUS
 10
5.443240
 20
1.185800
  0
VERTEX
  8
0
  6
CONTINUOUS
 10
5.443240
 20
0.877800
  0
VERTEX
  8
0
  6
CONTINUOUS
 10
4.695240
 20
0.877800
  0
VERTEX
  8
0
  6
CONTINUOUS
 10
4.695240
 20
1.512720
  0
VERTEX
  8
0
  6
CONTINUOUS
 10
4.697880
 20
1.514040
  0
SEQEND
  8
0
  0
TEXT
  8
0
 10
5.093000
 20
0.634480
 40
0.138207
  1
BA  259
 41
1.000000
  7
SN0
 71
     0
 72
     5
 11
5.683180
 21
0.634480
  0
TEXT
  8
0
 10
5.034040
 20
0.443080
 40
0.138207
  1
5/8" x3/4"
 41
1.000000
  7
SN0
 71
     0
 72
     5
 11
5.741185
 21
0.443080
  0
TEXT
  8
0
 10
7.274080
 20
1.802680
 40
0.138207
  1
base shoe
 41
1.000000
  7
SN0
 71
     0
 72
     5
 11
8.039457
 21
1.802680
  0
TEXT
  8
0
 10
7.518280
 20
1.611280
 40
0.138207
  1
259
 41
1.000000
  7
SN0
 71
     0
 72
     5
 11
7.795214
 21
1.611280
  0
ENDSEC
  0
EOF
