  0
SECTION
  2
HEADER
  9
$ACADVER
  1
AC1006
  9
$EXTMIN
 10
6.223360
 20
0.341440
  9
$EXTMAX
 10
8.120200
 20
2.652320
  9
$LTSCALE
 40
0.044000
  9
$PDMODE
 70
    35
  9
$PDSIZE
 40
0.035200
  0
ENDSEC
  0
SECTION
  2
TABLES
  0
TABLE
  2
LTYPE
 70
     9
  0
LTYPE
  2
CONTINUOUS
 70
    64
  3
Solid line
 72
    65
 73
     0
 40
0.000000
  0
LTYPE
  2
DASHED
 70
    64
  3
__ __ __ __ __ __ __ __ __ __ __ __ __ __ __
 72
    65
 73
     2
 40
0.000330
 49
0.000220
 49
-0.000110
  0
LTYPE
  2
HIDDEN
 70
    64
  3
 _ _ _ _ _ _ _ _ _ _ _ _ _ _ _ _ _ _ _ _ _ _
 72
    65
 73
     2
 40
0.000165
 49
0.000110
 49
-0.000055
  0
LTYPE
  2
CENTER
 70
    64
  3
____ _ ____ _ ____ _ ____ _ ____ _ ____ _ ____
 72
    65
 73
     4
 40
0.000880
 49
0.000550
 49
-0.000110
 49
0.000110
 49
-0.000110
  0
LTYPE
  2
PHANTOM
 70
    64
  3
_____ _ _ _____ _ _ _____ _ _ _____ _ _ ____
 72
    65
 73
     6
 40
0.001100
 49
0.000550
 49
-0.000110
 49
0.000110
 49
-0.000110
 49
0.000110
 49
-0.000110
  0
LTYPE
  2
DOT
 70
    64
  3
...............................................
 72
    65
 73
     2
 40
0.000110
 49
0.000000
 49
-0.000110
  0
LTYPE
  2
DASHDOT
 70
    64
  3
__ . __ . __ . __ . __ . __ . __ . __ . __ . __
 72
    65
 73
     4
 40
0.000440
 49
0.000220
 49
-0.000110
 49
0.000000
 49
-0.000110
  0
LTYPE
  2
BORDER
 70
    64
  3
__ __ . __ __ . __ __ . __ __ . __ __ . __ __
 72
    65
 73
     6
 40
0.000770
 49
0.000220
 49
-0.000110
 49
0.000220
 49
-0.000110
 49
0.000000
 49
-0.000110
  0
LTYPE
  2
DIVIDE
 70
    64
  3
__ . . __ . . __ . . __ . . __ . . __ . . __
 72
    65
 73
     6
 40
0.000550
 49
0.000220
 49
-0.000110
 49
0.000000
 49
-0.000110
 49
0.000000
 49
-0.000110
  0
LTYPE
  2
DOTDOT
 70
    64
  3
 . .  . .  . .  . .  . .  . . 
 72
    65
 73
     5
 40
0.000242
 49
-0.000110
 49
0.000000
 49
-0.000110
 49
0.000000
 49
-0.000110
  0
ENDTAB
  0
TABLE
  2
STYLE
 70
     2
  0
STYLE
 70
     0
  2
SN0
 40
0.000000
 41
0.000440
 50
0.000000
 71
     0
 42
0.000000
  3
ROMAND
  0
STYLE
 70
    68
  2
SV0
 40
0.000000
 41
0.000440
 50
0.000000
 71
     0
 42
0.000000
  3
ROMAND
  0
ENDTAB
  0
TABLE
  2
LAYER
 70
     3
  0
LAYER
  2
FOREGROUND
 70
    64
 62
     7
  6
CONTINUOUS
  0
LAYER
  2
BACKGROUND
 70
    65
 62
    -7
  6
CONTINUOUS
  0
LAYER
  2
0
 70
    64
 62
     7
  6
CONTINUOUS
  0
ENDTAB
  0
ENDSEC
  0
SECTION
  2
ENTITIES
  0
POLYLINE
  8
FOREGROUND
  6
CONTINUOUS
 66
     1
 40
0.000000
 41
0.000000
  0
VERTEX
  8
FOREGROUND
  6
CONTINUOUS
 10
0.000000
 20
2.993760
  0
VERTEX
  8
FOREGROUND
  6
CONTINUOUS
 10
8.499920
 20
2.993760
  0
VERTEX
  8
FOREGROUND
  6
CONTINUOUS
 10
8.499920
 20
-8.006240
  0
VERTEX
  8
FOREGROUND
  6
CONTINUOUS
 10
0.000000
 20
-8.006240
  0
VERTEX
  8
FOREGROUND
  6
CONTINUOUS
 10
0.000000
 20
2.993760
  0
SEQEND
  8
0
  0
POLYLINE
  8
FOREGROUND
  6
CONTINUOUS
 66
     1
 40
0.000000
 41
0.000000
  0
VERTEX
  8
FOREGROUND
  6
CONTINUOUS
 10
0.000000
 20
2.993760
  0
VERTEX
  8
FOREGROUND
  6
CONTINUOUS
 10
8.499920
 20
2.993760
  0
VERTEX
  8
FOREGROUND
  6
CONTINUOUS
 10
8.499920
 20
-8.006240
  0
VERTEX
  8
FOREGROUND
  6
CONTINUOUS
 10
0.000000
 20
-8.006240
  0
VERTEX
  8
FOREGROUND
  6
CONTINUOUS
 10
0.000000
 20
2.993760
  0
SEQEND
  8
0
  0
POLYLINE
  8
0
  6
CONTINUOUS
 66
     1
 40
0.014080
 41
0.014080
  0
VERTEX
  8
0
  6
CONTINUOUS
 10
6.849480
 20
2.122120
  0
VERTEX
  8
0
  6
CONTINUOUS
 10
6.861360
 20
2.130480
  0
VERTEX
  8
0
  6
CONTINUOUS
 10
6.872360
 20
2.139280
  0
VERTEX
  8
0
  6
CONTINUOUS
 10
6.882480
 20
2.148960
  0
VERTEX
  8
0
  6
CONTINUOUS
 10
6.891720
 20
2.158640
  0
VERTEX
  8
0
  6
CONTINUOUS
 10
6.900080
 20
2.169200
  0
VERTEX
  8
0
  6
CONTINUOUS
 10
6.907560
 20
2.179760
  0
VERTEX
  8
0
  6
CONTINUOUS
 10
6.914160
 20
2.191200
  0
VERTEX
  8
0
  6
CONTINUOUS
 10
6.919440
 20
2.203080
  0
VERTEX
  8
0
  6
CONTINUOUS
 10
6.923400
 20
2.214960
  0
VERTEX
  8
0
  6
CONTINUOUS
 10
6.926480
 20
2.227280
  0
VERTEX
  8
0
  6
CONTINUOUS
 10
6.928240
 20
2.240040
  0
VERTEX
  8
0
  6
CONTINUOUS
 10
6.928240
 20
2.253240
  0
VERTEX
  8
0
  6
CONTINUOUS
 10
6.927360
 20
2.266880
  0
VERTEX
  8
0
  6
CONTINUOUS
 10
6.924720
 20
2.280520
  0
VERTEX
  8
0
  6
CONTINUOUS
 10
6.920320
 20
2.294600
  0
VERTEX
  8
0
  6
CONTINUOUS
 10
6.914600
 20
2.308680
  0
VERTEX
  8
0
  6
CONTINUOUS
 10
6.907120
 20
2.323200
  0
VERTEX
  8
0
  6
CONTINUOUS
 10
6.898320
 20
2.337720
  0
VERTEX
  8
0
  6
CONTINUOUS
 10
6.887320
 20
2.352680
  0
VERTEX
  8
0
  6
CONTINUOUS
 10
6.874560
 20
2.367640
  0
VERTEX
  8
0
  6
CONTINUOUS
 10
6.860040
 20
2.382600
  0
VERTEX
  8
0
  6
CONTINUOUS
 10
6.843320
 20
2.398000
  0
VERTEX
  8
0
  6
CONTINUOUS
 10
6.824840
 20
2.413400
  0
VERTEX
  8
0
  6
CONTINUOUS
 10
6.804160
 20
2.428800
  0
VERTEX
  8
0
  6
CONTINUOUS
 10
6.781720
 20
2.444200
  0
VERTEX
  8
0
  6
CONTINUOUS
 10
6.756640
 20
2.460040
  0
VERTEX
  8
0
  6
CONTINUOUS
 10
6.729360
 20
2.475440
  0
VERTEX
  8
0
  6
CONTINUOUS
 10
6.699880
 20
2.490840
  0
VERTEX
  8
0
  6
CONTINUOUS
 10
6.668200
 20
2.506240
  0
VERTEX
  8
0
  6
CONTINUOUS
 10
6.633880
 20
2.521640
  0
VERTEX
  8
0
  6
CONTINUOUS
 10
6.596920
 20
2.537040
  0
VERTEX
  8
0
  6
CONTINUOUS
 10
6.557760
 20
2.552440
  0
VERTEX
  8
0
  6
CONTINUOUS
 10
6.557760
 20
2.553760
  0
VERTEX
  8
0
  6
CONTINUOUS
 10
6.557760
 20
2.644400
  0
VERTEX
  8
0
  6
CONTINUOUS
 10
6.230840
 20
2.644400
  0
VERTEX
  8
0
  6
CONTINUOUS
 10
6.230840
 20
2.013880
  0
VERTEX
  8
0
  6
CONTINUOUS
 10
6.849480
 20
2.013880
  0
VERTEX
  8
0
  6
CONTINUOUS
 10
6.849480
 20
2.122120
  0
SEQEND
  8
0
  0
SOLID
  8
0
 62
    15
 10
7.197960
 20
1.091640
 11
7.846080
 21
1.469600
 12
7.214240
 22
1.062600
 13
7.862360
 23
1.440560
  0
POLYLINE
  8
0
  6
CONTINUOUS
 66
     1
 40
0.000000
 41
0.000000
  0
VERTEX
  8
0
  6
CONTINUOUS
 10
7.197960
 20
1.091640
  0
VERTEX
  8
0
  6
CONTINUOUS
 10
7.846080
 20
1.469600
  0
VERTEX
  8
0
  6
CONTINUOUS
 10
7.862360
 20
1.440560
  0
VERTEX
  8
0
  6
CONTINUOUS
 10
7.214240
 20
1.062600
  0
VERTEX
  8
0
  6
CONTINUOUS
 10
7.197960
 20
1.091640
  0
SEQEND
  8
0
  0
SOLID
  8
0
 62
    15
 10
6.530480
 20
1.398320
 11
7.179040
 21
1.776280
 12
6.857400
 22
1.398320
 13
7.505520
 23
1.776280
  0
POLYLINE
  8
0
  6
CONTINUOUS
 66
     1
 40
0.000000
 41
0.000000
  0
VERTEX
  8
0
  6
CONTINUOUS
 10
6.530480
 20
1.398320
  0
VERTEX
  8
0
  6
CONTINUOUS
 10
7.179040
 20
1.776280
  0
VERTEX
  8
0
  6
CONTINUOUS
 10
7.505520
 20
1.776280
  0
VERTEX
  8
0
  6
CONTINUOUS
 10
6.857400
 20
1.398320
  0
VERTEX
  8
0
  6
CONTINUOUS
 10
6.530480
 20
1.398320
  0
SEQEND
  8
0
  0
SOLID
  8
0
 62
    15
 10
6.857400
 20
1.398320
 11
7.505520
 21
1.776280
 12
6.857400
 22
1.306360
 13
7.505520
 23
1.684320
  0
POLYLINE
  8
0
  6
CONTINUOUS
 66
     1
 40
0.000000
 41
0.000000
  0
VERTEX
  8
0
  6
CONTINUOUS
 10
6.857400
 20
1.398320
  0
VERTEX
  8
0
  6
CONTINUOUS
 10
7.505520
 20
1.776280
  0
VERTEX
  8
0
  6
CONTINUOUS
 10
7.505520
 20
1.684320
  0
VERTEX
  8
0
  6
CONTINUOUS
 10
6.857400
 20
1.306360
  0
VERTEX
  8
0
  6
CONTINUOUS
 10
6.857400
 20
1.398320
  0
SEQEND
  8
0
  0
SOLID
  8
0
 62
    15
 10
6.857400
 20
1.306360
 11
7.505520
 21
1.684320
 12
6.933520
 22
1.275560
 13
7.581640
 23
1.653520
  0
POLYLINE
  8
0
  6
CONTINUOUS
 66
     1
 40
0.000000
 41
0.000000
  0
VERTEX
  8
0
  6
CONTINUOUS
 10
6.857400
 20
1.306360
  0
VERTEX
  8
0
  6
CONTINUOUS
 10
7.505520
 20
1.684320
  0
VERTEX
  8
0
  6
CONTINUOUS
 10
7.581640
 20
1.653520
  0
VERTEX
  8
0
  6
CONTINUOUS
 10
6.933520
 20
1.275560
  0
VERTEX
  8
0
  6
CONTINUOUS
 10
6.857400
 20
1.306360
  0
SEQEND
  8
0
  0
SOLID
  8
0
 62
    15
 10
6.933520
 20
1.275560
 11
7.581640
 21
1.653520
 12
6.999520
 22
1.244760
 13
7.648080
 23
1.622720
  0
POLYLINE
  8
0
  6
CONTINUOUS
 66
     1
 40
0.000000
 41
0.000000
  0
VERTEX
  8
0
  6
CONTINUOUS
 10
6.933520
 20
1.275560
  0
VERTEX
  8
0
  6
CONTINUOUS
 10
7.581640
 20
1.653520
  0
VERTEX
  8
0
  6
CONTINUOUS
 10
7.648080
 20
1.622720
  0
VERTEX
  8
0
  6
CONTINUOUS
 10
6.999520
 20
1.244760
  0
VERTEX
  8
0
  6
CONTINUOUS
 10
6.933520
 20
1.275560
  0
SEQEND
  8
0
  0
SOLID
  8
0
 62
    15
 10
6.999520
 20
1.244760
 11
7.648080
 21
1.622720
 12
7.056280
 22
1.213520
 13
7.704400
 23
1.591480
  0
POLYLINE
  8
0
  6
CONTINUOUS
 66
     1
 40
0.000000
 41
0.000000
  0
VERTEX
  8
0
  6
CONTINUOUS
 10
6.999520
 20
1.244760
  0
VERTEX
  8
0
  6
CONTINUOUS
 10
7.648080
 20
1.622720
  0
VERTEX
  8
0
  6
CONTINUOUS
 10
7.704400
 20
1.591480
  0
VERTEX
  8
0
  6
CONTINUOUS
 10
7.056280
 20
1.213520
  0
VERTEX
  8
0
  6
CONTINUOUS
 10
6.999520
 20
1.244760
  0
SEQEND
  8
0
  0
SOLID
  8
0
 62
    15
 10
7.056280
 20
1.213520
 11
7.704400
 21
1.591480
 12
7.103800
 22
1.182720
 13
7.752360
 23
1.560680
  0
POLYLINE
  8
0
  6
CONTINUOUS
 66
     1
 40
0.000000
 41
0.000000
  0
VERTEX
  8
0
  6
CONTINUOUS
 10
7.056280
 20
1.213520
  0
VERTEX
  8
0
  6
CONTINUOUS
 10
7.704400
 20
1.591480
  0
VERTEX
  8
0
  6
CONTINUOUS
 10
7.752360
 20
1.560680
  0
VERTEX
  8
0
  6
CONTINUOUS
 10
7.103800
 20
1.182720
  0
VERTEX
  8
0
  6
CONTINUOUS
 10
7.056280
 20
1.213520
  0
SEQEND
  8
0
  0
SOLID
  8
0
 62
    15
 10
7.103800
 20
1.182720
 11
7.752360
 21
1.560680
 12
7.142960
 22
1.151920
 13
7.791520
 23
1.529880
  0
POLYLINE
  8
0
  6
CONTINUOUS
 66
     1
 40
0.000000
 41
0.000000
  0
VERTEX
  8
0
  6
CONTINUOUS
 10
7.103800
 20
1.182720
  0
VERTEX
  8
0
  6
CONTINUOUS
 10
7.752360
 20
1.560680
  0
VERTEX
  8
0
  6
CONTINUOUS
 10
7.791520
 20
1.529880
  0
VERTEX
  8
0
  6
CONTINUOUS
 10
7.142960
 20
1.151920
  0
VERTEX
  8
0
  6
CONTINUOUS
 10
7.103800
 20
1.182720
  0
SEQEND
  8
0
  0
SOLID
  8
0
 62
    15
 10
7.142960
 20
1.151920
 11
7.791520
 21
1.529880
 12
7.174200
 22
1.121560
 13
7.822320
 23
1.499520
  0
POLYLINE
  8
0
  6
CONTINUOUS
 66
     1
 40
0.000000
 41
0.000000
  0
VERTEX
  8
0
  6
CONTINUOUS
 10
7.142960
 20
1.151920
  0
VERTEX
  8
0
  6
CONTINUOUS
 10
7.791520
 20
1.529880
  0
VERTEX
  8
0
  6
CONTINUOUS
 10
7.822320
 20
1.499520
  0
VERTEX
  8
0
  6
CONTINUOUS
 10
7.174200
 20
1.121560
  0
VERTEX
  8
0
  6
CONTINUOUS
 10
7.142960
 20
1.151920
  0
SEQEND
  8
0
  0
SOLID
  8
0
 62
    15
 10
7.174200
 20
1.121560
 11
7.822320
 21
1.499520
 12
7.197960
 22
1.091640
 13
7.846080
 23
1.469600
  0
POLYLINE
  8
0
  6
CONTINUOUS
 66
     1
 40
0.000000
 41
0.000000
  0
VERTEX
  8
0
  6
CONTINUOUS
 10
7.174200
 20
1.121560
  0
VERTEX
  8
0
  6
CONTINUOUS
 10
7.822320
 20
1.499520
  0
VERTEX
  8
0
  6
CONTINUOUS
 10
7.846080
 20
1.469600
  0
VERTEX
  8
0
  6
CONTINUOUS
 10
7.197960
 20
1.091640
  0
VERTEX
  8
0
  6
CONTINUOUS
 10
7.174200
 20
1.121560
  0
SEQEND
  8
0
  0
SOLID
  8
0
 62
    15
 10
7.149120
 20
0.872960
 11
7.797680
 21
1.250920
 12
7.149120
 22
0.767800
 13
7.797680
 23
1.145760
  0
POLYLINE
  8
0
  6
CONTINUOUS
 66
     1
 40
0.000000
 41
0.000000
  0
VERTEX
  8
0
  6
CONTINUOUS
 10
7.149120
 20
0.872960
  0
VERTEX
  8
0
  6
CONTINUOUS
 10
7.797680
 20
1.250920
  0
VERTEX
  8
0
  6
CONTINUOUS
 10
7.797680
 20
1.145760
  0
VERTEX
  8
0
  6
CONTINUOUS
 10
7.149120
 20
0.767800
  0
VERTEX
  8
0
  6
CONTINUOUS
 10
7.149120
 20
0.872960
  0
SEQEND
  8
0
  0
SOLID
  8
0
 62
    15
 10
7.214240
 20
1.062600
 11
7.862360
 21
1.440560
 12
7.224360
 22
1.034440
 13
7.872480
 23
1.412400
  0
POLYLINE
  8
0
  6
CONTINUOUS
 66
     1
 40
0.000000
 41
0.000000
  0
VERTEX
  8
0
  6
CONTINUOUS
 10
7.214240
 20
1.062600
  0
VERTEX
  8
0
  6
CONTINUOUS
 10
7.862360
 20
1.440560
  0
VERTEX
  8
0
  6
CONTINUOUS
 10
7.872480
 20
1.412400
  0
VERTEX
  8
0
  6
CONTINUOUS
 10
7.224360
 20
1.034440
  0
VERTEX
  8
0
  6
CONTINUOUS
 10
7.214240
 20
1.062600
  0
SEQEND
  8
0
  0
SOLID
  8
0
 62
    15
 10
7.224360
 20
1.034440
 11
7.872480
 21
1.412400
 12
7.227880
 22
1.007160
 13
7.876440
 23
1.385120
  0
POLYLINE
  8
0
  6
CONTINUOUS
 66
     1
 40
0.000000
 41
0.000000
  0
VERTEX
  8
0
  6
CONTINUOUS
 10
7.224360
 20
1.034440
  0
VERTEX
  8
0
  6
CONTINUOUS
 10
7.872480
 20
1.412400
  0
VERTEX
  8
0
  6
CONTINUOUS
 10
7.876440
 20
1.385120
  0
VERTEX
  8
0
  6
CONTINUOUS
 10
7.227880
 20
1.007160
  0
VERTEX
  8
0
  6
CONTINUOUS
 10
7.224360
 20
1.034440
  0
SEQEND
  8
0
  0
SOLID
  8
0
 62
    15
 10
7.227880
 20
1.007160
 11
7.876440
 21
1.385120
 12
7.226120
 22
0.981200
 13
7.874240
 23
1.359160
  0
POLYLINE
  8
0
  6
CONTINUOUS
 66
     1
 40
0.000000
 41
0.000000
  0
VERTEX
  8
0
  6
CONTINUOUS
 10
7.227880
 20
1.007160
  0
VERTEX
  8
0
  6
CONTINUOUS
 10
7.876440
 20
1.385120
  0
VERTEX
  8
0
  6
CONTINUOUS
 10
7.874240
 20
1.359160
  0
VERTEX
  8
0
  6
CONTINUOUS
 10
7.226120
 20
0.981200
  0
VERTEX
  8
0
  6
CONTINUOUS
 10
7.227880
 20
1.007160
  0
SEQEND
  8
0
  0
SOLID
  8
0
 62
    15
 10
7.226120
 20
0.981200
 11
7.874240
 21
1.359160
 12
7.219080
 22
0.956560
 13
7.867640
 23
1.334520
  0
POLYLINE
  8
0
  6
CONTINUOUS
 66
     1
 40
0.000000
 41
0.000000
  0
VERTEX
  8
0
  6
CONTINUOUS
 10
7.226120
 20
0.981200
  0
VERTEX
  8
0
  6
CONTINUOUS
 10
7.874240
 20
1.359160
  0
VERTEX
  8
0
  6
CONTINUOUS
 10
7.867640
 20
1.334520
  0
VERTEX
  8
0
  6
CONTINUOUS
 10
7.219080
 20
0.956560
  0
VERTEX
  8
0
  6
CONTINUOUS
 10
7.226120
 20
0.981200
  0
SEQEND
  8
0
  0
SOLID
  8
0
 62
    15
 10
7.219080
 20
0.956560
 11
7.867640
 21
1.334520
 12
7.207640
 22
0.933680
 13
7.855760
 23
1.311640
  0
POLYLINE
  8
0
  6
CONTINUOUS
 66
     1
 40
0.000000
 41
0.000000
  0
VERTEX
  8
0
  6
CONTINUOUS
 10
7.219080
 20
0.956560
  0
VERTEX
  8
0
  6
CONTINUOUS
 10
7.867640
 20
1.334520
  0
VERTEX
  8
0
  6
CONTINUOUS
 10
7.855760
 20
1.311640
  0
VERTEX
  8
0
  6
CONTINUOUS
 10
7.207640
 20
0.933680
  0
VERTEX
  8
0
  6
CONTINUOUS
 10
7.219080
 20
0.956560
  0
SEQEND
  8
0
  0
SOLID
  8
0
 62
    15
 10
7.207640
 20
0.933680
 11
7.855760
 21
1.311640
 12
7.191800
 22
0.912560
 13
7.839920
 23
1.290520
  0
POLYLINE
  8
0
  6
CONTINUOUS
 66
     1
 40
0.000000
 41
0.000000
  0
VERTEX
  8
0
  6
CONTINUOUS
 10
7.207640
 20
0.933680
  0
VERTEX
  8
0
  6
CONTINUOUS
 10
7.855760
 20
1.311640
  0
VERTEX
  8
0
  6
CONTINUOUS
 10
7.839920
 20
1.290520
  0
VERTEX
  8
0
  6
CONTINUOUS
 10
7.191800
 20
0.912560
  0
VERTEX
  8
0
  6
CONTINUOUS
 10
7.207640
 20
0.933680
  0
SEQEND
  8
0
  0
SOLID
  8
0
 62
    15
 10
7.191800
 20
0.912560
 11
7.839920
 21
1.290520
 12
7.172000
 22
0.892760
 13
7.820560
 23
1.271160
  0
POLYLINE
  8
0
  6
CONTINUOUS
 66
     1
 40
0.000000
 41
0.000000
  0
VERTEX
  8
0
  6
CONTINUOUS
 10
7.191800
 20
0.912560
  0
VERTEX
  8
0
  6
CONTINUOUS
 10
7.839920
 20
1.290520
  0
VERTEX
  8
0
  6
CONTINUOUS
 10
7.820560
 20
1.271160
  0
VERTEX
  8
0
  6
CONTINUOUS
 10
7.172000
 20
0.892760
  0
VERTEX
  8
0
  6
CONTINUOUS
 10
7.191800
 20
0.912560
  0
SEQEND
  8
0
  0
SOLID
  8
0
 62
    15
 10
7.172000
 20
0.892760
 11
7.820560
 21
1.271160
 12
7.149120
 22
0.875600
 13
7.797680
 23
1.253560
  0
POLYLINE
  8
0
  6
CONTINUOUS
 66
     1
 40
0.000000
 41
0.000000
  0
VERTEX
  8
0
  6
CONTINUOUS
 10
7.172000
 20
0.892760
  0
VERTEX
  8
0
  6
CONTINUOUS
 10
7.820560
 20
1.271160
  0
VERTEX
  8
0
  6
CONTINUOUS
 10
7.797680
 20
1.253560
  0
VERTEX
  8
0
  6
CONTINUOUS
 10
7.149120
 20
0.875600
  0
VERTEX
  8
0
  6
CONTINUOUS
 10
7.172000
 20
0.892760
  0
SEQEND
  8
0
  0
SOLID
  8
0
 62
    15
 10
7.149120
 20
0.875600
 11
7.797680
 21
1.253560
 12
7.149120
 22
0.872960
 13
7.797680
 23
1.250920
  0
POLYLINE
  8
0
  6
CONTINUOUS
 66
     1
 40
0.000000
 41
0.000000
  0
VERTEX
  8
0
  6
CONTINUOUS
 10
7.149120
 20
0.875600
  0
VERTEX
  8
0
  6
CONTINUOUS
 10
7.797680
 20
1.253560
  0
VERTEX
  8
0
  6
CONTINUOUS
 10
7.797680
 20
1.250920
  0
VERTEX
  8
0
  6
CONTINUOUS
 10
7.149120
 20
0.872960
  0
VERTEX
  8
0
  6
CONTINUOUS
 10
7.149120
 20
0.875600
  0
SEQEND
  8
0
  0
POLYLINE
  8
0
  6
CONTINUOUS
 66
     1
 40
0.000000
 41
0.000000
  0
VERTEX
  8
0
  6
CONTINUOUS
 10
7.149120
 20
0.872960
  0
VERTEX
  8
0
  6
CONTINUOUS
 10
7.149120
 20
0.767800
  0
VERTEX
  8
0
  6
CONTINUOUS
 10
6.530480
 20
0.767800
  0
VERTEX
  8
0
  6
CONTINUOUS
 10
6.530480
 20
1.398320
  0
VERTEX
  8
0
  6
CONTINUOUS
 10
6.857400
 20
1.398320
  0
VERTEX
  8
0
  6
CONTINUOUS
 10
6.857400
 20
1.306360
  0
VERTEX
  8
0
  6
CONTINUOUS
 10
6.933520
 20
1.275560
  0
VERTEX
  8
0
  6
CONTINUOUS
 10
6.999520
 20
1.244760
  0
VERTEX
  8
0
  6
CONTINUOUS
 10
7.056280
 20
1.213520
  0
VERTEX
  8
0
  6
CONTINUOUS
 10
7.103800
 20
1.182720
  0
VERTEX
  8
0
  6
CONTINUOUS
 10
7.142960
 20
1.151920
  0
VERTEX
  8
0
  6
CONTINUOUS
 10
7.174200
 20
1.121560
  0
VERTEX
  8
0
  6
CONTINUOUS
 10
7.197960
 20
1.091640
  0
VERTEX
  8
0
  6
CONTINUOUS
 10
7.214240
 20
1.062600
  0
VERTEX
  8
0
  6
CONTINUOUS
 10
7.224360
 20
1.034440
  0
VERTEX
  8
0
  6
CONTINUOUS
 10
7.227880
 20
1.007160
  0
VERTEX
  8
0
  6
CONTINUOUS
 10
7.226120
 20
0.981200
  0
VERTEX
  8
0
  6
CONTINUOUS
 10
7.219080
 20
0.956560
  0
VERTEX
  8
0
  6
CONTINUOUS
 10
7.207640
 20
0.933680
  0
VERTEX
  8
0
  6
CONTINUOUS
 10
7.191800
 20
0.912560
  0
VERTEX
  8
0
  6
CONTINUOUS
 10
7.172000
 20
0.892760
  0
VERTEX
  8
0
  6
CONTINUOUS
 10
7.149120
 20
0.875600
  0
VERTEX
  8
0
  6
CONTINUOUS
 10
7.149120
 20
0.872960
  0
SEQEND
  8
0
  0
TEXT
  8
0
 10
6.906240
 20
0.576400
 40
0.138119
  1
BA  258
 41
1.000000
  7
SN0
 71
     0
 72
     5
 11
7.496092
 21
0.576400
  0
TEXT
  8
0
 10
6.732000
 20
0.385000
 40
0.138119
  1
5/8" x 11/16"
 41
1.000000
  7
SN0
 71
     0
 72
     5
 11
7.669293
 21
0.385000
  0
TEXT
  8
0
 10
7.354160
 20
2.445520
 40
0.138119
  1
base shoe
 41
1.000000
  7
SN0
 71
     0
 72
     5
 11
8.119292
 21
2.445520
  0
TEXT
  8
0
 10
7.598800
 20
2.254120
 40
0.138119
  1
258
 41
1.000000
  7
SN0
 71
     0
 72
     5
 11
7.875759
 21
2.254120
  0
ENDSEC
  0
EOF
