  0
SECTION
  2
HEADER
  9
$ACADVER
  1
AC1006
  9
$EXTMIN
 10
1.961960
 20
0.395120
  9
$EXTMAX
 10
7.939360
 20
5.063520
  9
$LTSCALE
 40
0.044000
  9
$PDMODE
 70
    35
  9
$PDSIZE
 40
0.035200
  0
ENDSEC
  0
SECTION
  2
TABLES
  0
TABLE
  2
LTYPE
 70
     9
  0
LTYPE
  2
CONTINUOUS
 70
    64
  3
Solid line
 72
    65
 73
     0
 40
0.000000
  0
LTYPE
  2
DASHED
 70
    64
  3
__ __ __ __ __ __ __ __ __ __ __ __ __ __ __
 72
    65
 73
     2
 40
0.000330
 49
0.000220
 49
-0.000110
  0
LTYPE
  2
HIDDEN
 70
    64
  3
 _ _ _ _ _ _ _ _ _ _ _ _ _ _ _ _ _ _ _ _ _ _
 72
    65
 73
     2
 40
0.000165
 49
0.000110
 49
-0.000055
  0
LTYPE
  2
CENTER
 70
    64
  3
____ _ ____ _ ____ _ ____ _ ____ _ ____ _ ____
 72
    65
 73
     4
 40
0.000880
 49
0.000550
 49
-0.000110
 49
0.000110
 49
-0.000110
  0
LTYPE
  2
PHANTOM
 70
    64
  3
_____ _ _ _____ _ _ _____ _ _ _____ _ _ ____
 72
    65
 73
     6
 40
0.001100
 49
0.000550
 49
-0.000110
 49
0.000110
 49
-0.000110
 49
0.000110
 49
-0.000110
  0
LTYPE
  2
DOT
 70
    64
  3
...............................................
 72
    65
 73
     2
 40
0.000110
 49
0.000000
 49
-0.000110
  0
LTYPE
  2
DASHDOT
 70
    64
  3
__ . __ . __ . __ . __ . __ . __ . __ . __ . __
 72
    65
 73
     4
 40
0.000440
 49
0.000220
 49
-0.000110
 49
0.000000
 49
-0.000110
  0
LTYPE
  2
BORDER
 70
    64
  3
__ __ . __ __ . __ __ . __ __ . __ __ . __ __
 72
    65
 73
     6
 40
0.000770
 49
0.000220
 49
-0.000110
 49
0.000220
 49
-0.000110
 49
0.000000
 49
-0.000110
  0
LTYPE
  2
DIVIDE
 70
    64
  3
__ . . __ . . __ . . __ . . __ . . __ . . __
 72
    65
 73
     6
 40
0.000550
 49
0.000220
 49
-0.000110
 49
0.000000
 49
-0.000110
 49
0.000000
 49
-0.000110
  0
LTYPE
  2
DOTDOT
 70
    64
  3
 . .  . .  . .  . .  . .  . . 
 72
    65
 73
     5
 40
0.000242
 49
-0.000110
 49
0.000000
 49
-0.000110
 49
0.000000
 49
-0.000110
  0
ENDTAB
  0
TABLE
  2
STYLE
 70
     2
  0
STYLE
 70
     0
  2
SN0
 40
0.000000
 41
0.000440
 50
0.000000
 71
     0
 42
0.000000
  3
ROMAND
  0
STYLE
 70
    68
  2
SV0
 40
0.000000
 41
0.000440
 50
0.000000
 71
     0
 42
0.000000
  3
ROMAND
  0
ENDTAB
  0
TABLE
  2
LAYER
 70
     3
  0
LAYER
  2
FOREGROUND
 70
    64
 62
     7
  6
CONTINUOUS
  0
LAYER
  2
BACKGROUND
 70
    65
 62
    -7
  6
CONTINUOUS
  0
LAYER
  2
0
 70
    64
 62
     7
  6
CONTINUOUS
  0
ENDTAB
  0
ENDSEC
  0
SECTION
  2
ENTITIES
  0
POLYLINE
  8
FOREGROUND
  6
CONTINUOUS
 66
     1
 40
0.000000
 41
0.000000
  0
VERTEX
  8
FOREGROUND
  6
CONTINUOUS
 10
0.000000
 20
5.458640
  0
VERTEX
  8
FOREGROUND
  6
CONTINUOUS
 10
8.499920
 20
5.458640
  0
VERTEX
  8
FOREGROUND
  6
CONTINUOUS
 10
8.499920
 20
-5.541360
  0
VERTEX
  8
FOREGROUND
  6
CONTINUOUS
 10
0.000000
 20
-5.541360
  0
VERTEX
  8
FOREGROUND
  6
CONTINUOUS
 10
0.000000
 20
5.458640
  0
SEQEND
  8
0
  0
POLYLINE
  8
FOREGROUND
  6
CONTINUOUS
 66
     1
 40
0.000000
 41
0.000000
  0
VERTEX
  8
FOREGROUND
  6
CONTINUOUS
 10
0.000000
 20
5.458640
  0
VERTEX
  8
FOREGROUND
  6
CONTINUOUS
 10
8.499920
 20
5.458640
  0
VERTEX
  8
FOREGROUND
  6
CONTINUOUS
 10
8.499920
 20
-5.541360
  0
VERTEX
  8
FOREGROUND
  6
CONTINUOUS
 10
0.000000
 20
-5.541360
  0
VERTEX
  8
FOREGROUND
  6
CONTINUOUS
 10
0.000000
 20
5.458640
  0
SEQEND
  8
0
  0
POLYLINE
  8
0
  6
CONTINUOUS
 66
     1
 40
0.014080
 41
0.014080
  0
VERTEX
  8
0
  6
CONTINUOUS
 10
4.487560
 20
4.301440
  0
VERTEX
  8
0
  6
CONTINUOUS
 10
3.995640
 20
4.301440
  0
VERTEX
  8
0
  6
CONTINUOUS
 10
3.995640
 20
4.050640
  0
VERTEX
  8
0
  6
CONTINUOUS
 10
4.486240
 20
4.050640
  0
VERTEX
  8
0
  6
CONTINUOUS
 10
4.483600
 20
4.050640
  0
VERTEX
  8
0
  6
CONTINUOUS
 10
4.491960
 20
4.050640
  0
VERTEX
  8
0
  6
CONTINUOUS
 10
4.491960
 20
3.870680
  0
VERTEX
  8
0
  6
CONTINUOUS
 10
4.381080
 20
3.870680
  0
VERTEX
  8
0
  6
CONTINUOUS
 10
4.378880
 20
3.825800
  0
VERTEX
  8
0
  6
CONTINUOUS
 10
4.372280
 20
3.782680
  0
VERTEX
  8
0
  6
CONTINUOUS
 10
4.361280
 20
3.741320
  0
VERTEX
  8
0
  6
CONTINUOUS
 10
4.346320
 20
3.701280
  0
VERTEX
  8
0
  6
CONTINUOUS
 10
4.327400
 20
3.663440
  0
VERTEX
  8
0
  6
CONTINUOUS
 10
4.305400
 20
3.627800
  0
VERTEX
  8
0
  6
CONTINUOUS
 10
4.279880
 20
3.594800
  0
VERTEX
  8
0
  6
CONTINUOUS
 10
4.251280
 20
3.564000
  0
VERTEX
  8
0
  6
CONTINUOUS
 10
4.220040
 20
3.536280
  0
VERTEX
  8
0
  6
CONTINUOUS
 10
4.185720
 20
3.511640
  0
VERTEX
  8
0
  6
CONTINUOUS
 10
4.149640
 20
3.490080
  0
VERTEX
  8
0
  6
CONTINUOUS
 10
4.110920
 20
3.472040
  0
VERTEX
  8
0
  6
CONTINUOUS
 10
4.070440
 20
3.457960
  0
VERTEX
  8
0
  6
CONTINUOUS
 10
4.028200
 20
3.447400
  0
VERTEX
  8
0
  6
CONTINUOUS
 10
3.984640
 20
3.440800
  0
VERTEX
  8
0
  6
CONTINUOUS
 10
3.939760
 20
3.438600
  0
VERTEX
  8
0
  6
CONTINUOUS
 10
3.937120
 20
3.437280
  0
VERTEX
  8
0
  6
CONTINUOUS
 10
3.937120
 20
3.300000
  0
VERTEX
  8
0
  6
CONTINUOUS
 10
2.270400
 20
3.300000
  0
VERTEX
  8
0
  6
CONTINUOUS
 10
2.269080
 20
3.301320
  0
VERTEX
  8
0
  6
CONTINUOUS
 10
2.269080
 20
5.054720
  0
VERTEX
  8
0
  6
CONTINUOUS
 10
2.270400
 20
5.053400
  0
VERTEX
  8
0
  6
CONTINUOUS
 10
3.937120
 20
5.053400
  0
VERTEX
  8
0
  6
CONTINUOUS
 10
3.938440
 20
5.049440
  0
VERTEX
  8
0
  6
CONTINUOUS
 10
3.938440
 20
4.914800
  0
VERTEX
  8
0
  6
CONTINUOUS
 10
3.941080
 20
4.913480
  0
VERTEX
  8
0
  6
CONTINUOUS
 10
3.985960
 20
4.911280
  0
VERTEX
  8
0
  6
CONTINUOUS
 10
4.029960
 20
4.904680
  0
VERTEX
  8
0
  6
CONTINUOUS
 10
4.072200
 20
4.894120
  0
VERTEX
  8
0
  6
CONTINUOUS
 10
4.112680
 20
4.880040
  0
VERTEX
  8
0
  6
CONTINUOUS
 10
4.150960
 20
4.862000
  0
VERTEX
  8
0
  6
CONTINUOUS
 10
4.187480
 20
4.840440
  0
VERTEX
  8
0
  6
CONTINUOUS
 10
4.221360
 20
4.815800
  0
VERTEX
  8
0
  6
CONTINUOUS
 10
4.253040
 20
4.787640
  0
VERTEX
  8
0
  6
CONTINUOUS
 10
4.281200
 20
4.757280
  0
VERTEX
  8
0
  6
CONTINUOUS
 10
4.306720
 20
4.724280
  0
VERTEX
  8
0
  6
CONTINUOUS
 10
4.329160
 20
4.688640
  0
VERTEX
  8
0
  6
CONTINUOUS
 10
4.347640
 20
4.650800
  0
VERTEX
  8
0
  6
CONTINUOUS
 10
4.362600
 20
4.610760
  0
VERTEX
  8
0
  6
CONTINUOUS
 10
4.373600
 20
4.569400
  0
VERTEX
  8
0
  6
CONTINUOUS
 10
4.380200
 20
4.525840
  0
VERTEX
  8
0
  6
CONTINUOUS
 10
4.382400
 20
4.481400
  0
VERTEX
  8
0
  6
CONTINUOUS
 10
4.493280
 20
4.481400
  0
VERTEX
  8
0
  6
CONTINUOUS
 10
4.493280
 20
4.466880
  0
VERTEX
  8
0
  6
CONTINUOUS
 10
4.493280
 20
4.473480
  0
VERTEX
  8
0
  6
CONTINUOUS
 10
4.493280
 20
4.301440
  0
VERTEX
  8
0
  6
CONTINUOUS
 10
4.475680
 20
4.301440
  0
VERTEX
  8
0
  6
CONTINUOUS
 10
4.487560
 20
4.301440
  0
SEQEND
  8
0
  0
POLYLINE
  8
0
  6
CONTINUOUS
 66
     1
 40
0.014080
 41
0.014080
  0
VERTEX
  8
0
  6
CONTINUOUS
 10
5.041080
 20
4.051960
  0
VERTEX
  8
0
  6
CONTINUOUS
 10
4.549160
 20
4.051960
  0
VERTEX
  8
0
  6
CONTINUOUS
 10
4.549160
 20
4.302760
  0
VERTEX
  8
0
  6
CONTINUOUS
 10
5.039760
 20
4.302760
  0
VERTEX
  8
0
  6
CONTINUOUS
 10
5.037120
 20
4.302760
  0
VERTEX
  8
0
  6
CONTINUOUS
 10
5.045040
 20
4.302760
  0
VERTEX
  8
0
  6
CONTINUOUS
 10
5.045040
 20
4.482720
  0
VERTEX
  8
0
  6
CONTINUOUS
 10
4.934600
 20
4.482720
  0
VERTEX
  8
0
  6
CONTINUOUS
 10
4.932400
 20
4.527160
  0
VERTEX
  8
0
  6
CONTINUOUS
 10
4.925800
 20
4.570720
  0
VERTEX
  8
0
  6
CONTINUOUS
 10
4.914800
 20
4.612080
  0
VERTEX
  8
0
  6
CONTINUOUS
 10
4.899840
 20
4.652120
  0
VERTEX
  8
0
  6
CONTINUOUS
 10
4.880920
 20
4.689960
  0
VERTEX
  8
0
  6
CONTINUOUS
 10
4.858920
 20
4.725600
  0
VERTEX
  8
0
  6
CONTINUOUS
 10
4.833400
 20
4.758600
  0
VERTEX
  8
0
  6
CONTINUOUS
 10
4.804800
 20
4.788960
  0
VERTEX
  8
0
  6
CONTINUOUS
 10
4.773560
 20
4.817120
  0
VERTEX
  8
0
  6
CONTINUOUS
 10
4.739240
 20
4.841760
  0
VERTEX
  8
0
  6
CONTINUOUS
 10
4.703160
 20
4.863320
  0
VERTEX
  8
0
  6
CONTINUOUS
 10
4.664440
 20
4.881360
  0
VERTEX
  8
0
  6
CONTINUOUS
 10
4.623960
 20
4.895440
  0
VERTEX
  8
0
  6
CONTINUOUS
 10
4.581720
 20
4.906000
  0
VERTEX
  8
0
  6
CONTINUOUS
 10
4.538160
 20
4.912600
  0
VERTEX
  8
0
  6
CONTINUOUS
 10
4.493280
 20
4.914800
  0
VERTEX
  8
0
  6
CONTINUOUS
 10
4.490640
 20
4.916120
  0
VERTEX
  8
0
  6
CONTINUOUS
 10
4.490640
 20
5.056040
  0
VERTEX
  8
0
  6
CONTINUOUS
 10
6.173200
 20
5.056040
  0
VERTEX
  8
0
  6
CONTINUOUS
 10
6.173200
 20
3.300000
  0
VERTEX
  8
0
  6
CONTINUOUS
 10
4.490640
 20
3.300000
  0
VERTEX
  8
0
  6
CONTINUOUS
 10
4.491960
 20
3.303960
  0
VERTEX
  8
0
  6
CONTINUOUS
 10
4.491960
 20
3.438600
  0
VERTEX
  8
0
  6
CONTINUOUS
 10
4.494600
 20
3.439920
  0
VERTEX
  8
0
  6
CONTINUOUS
 10
4.539480
 20
3.442120
  0
VERTEX
  8
0
  6
CONTINUOUS
 10
4.583040
 20
3.448720
  0
VERTEX
  8
0
  6
CONTINUOUS
 10
4.625280
 20
3.459280
  0
VERTEX
  8
0
  6
CONTINUOUS
 10
4.665760
 20
3.473360
  0
VERTEX
  8
0
  6
CONTINUOUS
 10
4.704480
 20
3.491400
  0
VERTEX
  8
0
  6
CONTINUOUS
 10
4.758160
 20
3.524840
  0
VERTEX
  8
0
  6
CONTINUOUS
 10
4.790720
 20
3.551240
  0
VERTEX
  8
0
  6
CONTINUOUS
 10
4.820640
 20
3.580280
  0
VERTEX
  8
0
  6
CONTINUOUS
 10
4.847920
 20
3.612400
  0
VERTEX
  8
0
  6
CONTINUOUS
 10
4.871680
 20
3.646720
  0
VERTEX
  8
0
  6
CONTINUOUS
 10
4.892360
 20
3.683240
  0
VERTEX
  8
0
  6
CONTINUOUS
 10
4.909080
 20
3.722400
  0
VERTEX
  8
0
  6
CONTINUOUS
 10
4.921840
 20
3.762880
  0
VERTEX
  8
0
  6
CONTINUOUS
 10
4.927120
 20
3.784000
  0
VERTEX
  8
0
  6
CONTINUOUS
 10
4.933720
 20
3.827120
  0
VERTEX
  8
0
  6
CONTINUOUS
 10
4.935920
 20
3.872000
  0
VERTEX
  8
0
  6
CONTINUOUS
 10
5.047680
 20
3.872000
  0
VERTEX
  8
0
  6
CONTINUOUS
 10
5.047680
 20
4.051960
  0
VERTEX
  8
0
  6
CONTINUOUS
 10
5.029200
 20
4.051960
  0
VERTEX
  8
0
  6
CONTINUOUS
 10
5.041080
 20
4.051960
  0
SEQEND
  8
0
  0
SOLID
  8
0
 62
    15
 10
3.631760
 20
2.458280
 11
4.259640
 21
2.831400
 12
3.631760
 22
2.323640
 13
4.259640
 23
2.696760
  0
POLYLINE
  8
0
  6
CONTINUOUS
 66
     1
 40
0.000000
 41
0.000000
  0
VERTEX
  8
0
  6
CONTINUOUS
 10
3.631760
 20
2.458280
  0
VERTEX
  8
0
  6
CONTINUOUS
 10
4.259640
 20
2.831400
  0
VERTEX
  8
0
  6
CONTINUOUS
 10
4.259640
 20
2.696760
  0
VERTEX
  8
0
  6
CONTINUOUS
 10
3.631760
 20
2.323640
  0
VERTEX
  8
0
  6
CONTINUOUS
 10
3.631760
 20
2.458280
  0
SEQEND
  8
0
  0
SOLID
  8
0
 62
    15
 10
3.689400
 20
1.459480
 11
4.316840
 21
1.832600
 12
4.185280
 22
1.459480
 13
4.813160
 23
1.832600
  0
POLYLINE
  8
0
  6
CONTINUOUS
 66
     1
 40
0.000000
 41
0.000000
  0
VERTEX
  8
0
  6
CONTINUOUS
 10
3.689400
 20
1.459480
  0
VERTEX
  8
0
  6
CONTINUOUS
 10
4.316840
 20
1.832600
  0
VERTEX
  8
0
  6
CONTINUOUS
 10
4.813160
 20
1.832600
  0
VERTEX
  8
0
  6
CONTINUOUS
 10
4.185280
 20
1.459480
  0
VERTEX
  8
0
  6
CONTINUOUS
 10
3.689400
 20
1.459480
  0
SEQEND
  8
0
  0
SOLID
  8
0
 62
    15
 10
4.074400
 20
1.279520
 11
4.702280
 21
1.652640
 12
4.065600
 22
1.191520
 13
4.693480
 23
1.565080
  0
POLYLINE
  8
0
  6
CONTINUOUS
 66
     1
 40
0.000000
 41
0.000000
  0
VERTEX
  8
0
  6
CONTINUOUS
 10
4.074400
 20
1.279520
  0
VERTEX
  8
0
  6
CONTINUOUS
 10
4.702280
 20
1.652640
  0
VERTEX
  8
0
  6
CONTINUOUS
 10
4.693480
 20
1.565080
  0
VERTEX
  8
0
  6
CONTINUOUS
 10
4.065600
 20
1.191520
  0
VERTEX
  8
0
  6
CONTINUOUS
 10
4.074400
 20
1.279520
  0
SEQEND
  8
0
  0
SOLID
  8
0
 62
    15
 10
4.185280
 20
1.459480
 11
4.813160
 21
1.832600
 12
4.185280
 22
1.279520
 13
4.813160
 23
1.652640
  0
POLYLINE
  8
0
  6
CONTINUOUS
 66
     1
 40
0.000000
 41
0.000000
  0
VERTEX
  8
0
  6
CONTINUOUS
 10
4.185280
 20
1.459480
  0
VERTEX
  8
0
  6
CONTINUOUS
 10
4.813160
 20
1.832600
  0
VERTEX
  8
0
  6
CONTINUOUS
 10
4.813160
 20
1.652640
  0
VERTEX
  8
0
  6
CONTINUOUS
 10
4.185280
 20
1.279520
  0
VERTEX
  8
0
  6
CONTINUOUS
 10
4.185280
 20
1.459480
  0
SEQEND
  8
0
  0
SOLID
  8
0
 62
    15
 10
4.065600
 20
1.191520
 11
4.693480
 21
1.565080
 12
4.039640
 22
1.110120
 13
4.667520
 23
1.483680
  0
POLYLINE
  8
0
  6
CONTINUOUS
 66
     1
 40
0.000000
 41
0.000000
  0
VERTEX
  8
0
  6
CONTINUOUS
 10
4.065600
 20
1.191520
  0
VERTEX
  8
0
  6
CONTINUOUS
 10
4.693480
 20
1.565080
  0
VERTEX
  8
0
  6
CONTINUOUS
 10
4.667520
 20
1.483680
  0
VERTEX
  8
0
  6
CONTINUOUS
 10
4.039640
 20
1.110120
  0
VERTEX
  8
0
  6
CONTINUOUS
 10
4.065600
 20
1.191520
  0
SEQEND
  8
0
  0
SOLID
  8
0
 62
    15
 10
3.630440
 20
0.846120
 11
4.258320
 21
1.219240
 12
3.630440
 22
0.708840
 13
4.258320
 23
1.081960
  0
POLYLINE
  8
0
  6
CONTINUOUS
 66
     1
 40
0.000000
 41
0.000000
  0
VERTEX
  8
0
  6
CONTINUOUS
 10
3.630440
 20
0.846120
  0
VERTEX
  8
0
  6
CONTINUOUS
 10
4.258320
 20
1.219240
  0
VERTEX
  8
0
  6
CONTINUOUS
 10
4.258320
 20
1.081960
  0
VERTEX
  8
0
  6
CONTINUOUS
 10
3.630440
 20
0.708840
  0
VERTEX
  8
0
  6
CONTINUOUS
 10
3.630440
 20
0.846120
  0
SEQEND
  8
0
  0
SOLID
  8
0
 62
    15
 10
3.998720
 20
1.036640
 11
4.626600
 21
1.410200
 12
3.945040
 22
0.972840
 13
4.572480
 23
1.346400
  0
POLYLINE
  8
0
  6
CONTINUOUS
 66
     1
 40
0.000000
 41
0.000000
  0
VERTEX
  8
0
  6
CONTINUOUS
 10
3.998720
 20
1.036640
  0
VERTEX
  8
0
  6
CONTINUOUS
 10
4.626600
 20
1.410200
  0
VERTEX
  8
0
  6
CONTINUOUS
 10
4.572480
 20
1.346400
  0
VERTEX
  8
0
  6
CONTINUOUS
 10
3.945040
 20
0.972840
  0
VERTEX
  8
0
  6
CONTINUOUS
 10
3.998720
 20
1.036640
  0
SEQEND
  8
0
  0
SOLID
  8
0
 62
    15
 10
3.945040
 20
0.972840
 11
4.572480
 21
1.346400
 12
3.879480
 22
0.920480
 13
4.507360
 23
1.294040
  0
POLYLINE
  8
0
  6
CONTINUOUS
 66
     1
 40
0.000000
 41
0.000000
  0
VERTEX
  8
0
  6
CONTINUOUS
 10
3.945040
 20
0.972840
  0
VERTEX
  8
0
  6
CONTINUOUS
 10
4.572480
 20
1.346400
  0
VERTEX
  8
0
  6
CONTINUOUS
 10
4.507360
 20
1.294040
  0
VERTEX
  8
0
  6
CONTINUOUS
 10
3.879480
 20
0.920480
  0
VERTEX
  8
0
  6
CONTINUOUS
 10
3.945040
 20
0.972840
  0
SEQEND
  8
0
  0
SOLID
  8
0
 62
    15
 10
4.039640
 20
1.110120
 11
4.667520
 21
1.483680
 12
3.998720
 22
1.036640
 13
4.626600
 23
1.410200
  0
POLYLINE
  8
0
  6
CONTINUOUS
 66
     1
 40
0.000000
 41
0.000000
  0
VERTEX
  8
0
  6
CONTINUOUS
 10
4.039640
 20
1.110120
  0
VERTEX
  8
0
  6
CONTINUOUS
 10
4.667520
 20
1.483680
  0
VERTEX
  8
0
  6
CONTINUOUS
 10
4.626600
 20
1.410200
  0
VERTEX
  8
0
  6
CONTINUOUS
 10
3.998720
 20
1.036640
  0
VERTEX
  8
0
  6
CONTINUOUS
 10
4.039640
 20
1.110120
  0
SEQEND
  8
0
  0
SOLID
  8
0
 62
     7
 10
1.962840
 20
2.463560
 11
2.590280
 21
2.836680
 12
1.964160
 22
2.462240
 13
2.591600
 23
2.835360
  0
POLYLINE
  8
0
  6
CONTINUOUS
 66
     1
 40
0.000000
 41
0.000000
  0
VERTEX
  8
0
  6
CONTINUOUS
 10
1.962840
 20
2.463560
  0
VERTEX
  8
0
  6
CONTINUOUS
 10
2.590280
 20
2.836680
  0
VERTEX
  8
0
  6
CONTINUOUS
 10
2.591600
 20
2.835360
  0
VERTEX
  8
0
  6
CONTINUOUS
 10
1.964160
 20
2.462240
  0
VERTEX
  8
0
  6
CONTINUOUS
 10
1.962840
 20
2.463560
  0
SEQEND
  8
0
  0
SOLID
  8
0
 62
    15
 10
1.964160
 20
2.462240
 11
2.591600
 21
2.835360
 12
3.630440
 22
2.462240
 13
4.258320
 23
2.835360
  0
POLYLINE
  8
0
  6
CONTINUOUS
 66
     1
 40
0.000000
 41
0.000000
  0
VERTEX
  8
0
  6
CONTINUOUS
 10
1.964160
 20
2.462240
  0
VERTEX
  8
0
  6
CONTINUOUS
 10
2.591600
 20
2.835360
  0
VERTEX
  8
0
  6
CONTINUOUS
 10
4.258320
 20
2.835360
  0
VERTEX
  8
0
  6
CONTINUOUS
 10
3.630440
 20
2.462240
  0
VERTEX
  8
0
  6
CONTINUOUS
 10
1.964160
 20
2.462240
  0
SEQEND
  8
0
  0
SOLID
  8
0
 62
    15
 10
3.630440
 20
2.462240
 11
4.258320
 21
2.835360
 12
3.631760
 22
2.458280
 13
4.259640
 23
2.831400
  0
POLYLINE
  8
0
  6
CONTINUOUS
 66
     1
 40
0.000000
 41
0.000000
  0
VERTEX
  8
0
  6
CONTINUOUS
 10
3.630440
 20
2.462240
  0
VERTEX
  8
0
  6
CONTINUOUS
 10
4.258320
 20
2.835360
  0
VERTEX
  8
0
  6
CONTINUOUS
 10
4.259640
 20
2.831400
  0
VERTEX
  8
0
  6
CONTINUOUS
 10
3.631760
 20
2.458280
  0
VERTEX
  8
0
  6
CONTINUOUS
 10
3.630440
 20
2.462240
  0
SEQEND
  8
0
  0
SOLID
  8
0
 62
    15
 10
3.689400
 20
1.710280
 11
4.316840
 21
2.083400
 12
3.689400
 22
1.459480
 13
4.316840
 23
1.832600
  0
POLYLINE
  8
0
  6
CONTINUOUS
 66
     1
 40
0.000000
 41
0.000000
  0
VERTEX
  8
0
  6
CONTINUOUS
 10
3.689400
 20
1.710280
  0
VERTEX
  8
0
  6
CONTINUOUS
 10
4.316840
 20
2.083400
  0
VERTEX
  8
0
  6
CONTINUOUS
 10
4.316840
 20
1.832600
  0
VERTEX
  8
0
  6
CONTINUOUS
 10
3.689400
 20
1.459480
  0
VERTEX
  8
0
  6
CONTINUOUS
 10
3.689400
 20
1.710280
  0
SEQEND
  8
0
  0
SOLID
  8
0
 62
    15
 10
3.631760
 20
2.323640
 11
4.259640
 21
2.696760
 12
3.634840
 22
2.322320
 13
4.262280
 23
2.695440
  0
POLYLINE
  8
0
  6
CONTINUOUS
 66
     1
 40
0.000000
 41
0.000000
  0
VERTEX
  8
0
  6
CONTINUOUS
 10
3.631760
 20
2.323640
  0
VERTEX
  8
0
  6
CONTINUOUS
 10
4.259640
 20
2.696760
  0
VERTEX
  8
0
  6
CONTINUOUS
 10
4.262280
 20
2.695440
  0
VERTEX
  8
0
  6
CONTINUOUS
 10
3.634840
 20
2.322320
  0
VERTEX
  8
0
  6
CONTINUOUS
 10
3.631760
 20
2.323640
  0
SEQEND
  8
0
  0
SOLID
  8
0
 62
    15
 10
3.634840
 20
2.322320
 11
4.262280
 21
2.695440
 12
3.723280
 22
2.313520
 13
4.351160
 23
2.686640
  0
POLYLINE
  8
0
  6
CONTINUOUS
 66
     1
 40
0.000000
 41
0.000000
  0
VERTEX
  8
0
  6
CONTINUOUS
 10
3.634840
 20
2.322320
  0
VERTEX
  8
0
  6
CONTINUOUS
 10
4.262280
 20
2.695440
  0
VERTEX
  8
0
  6
CONTINUOUS
 10
4.351160
 20
2.686640
  0
VERTEX
  8
0
  6
CONTINUOUS
 10
3.723280
 20
2.313520
  0
VERTEX
  8
0
  6
CONTINUOUS
 10
3.634840
 20
2.322320
  0
SEQEND
  8
0
  0
SOLID
  8
0
 62
    15
 10
3.723280
 20
2.313520
 11
4.351160
 21
2.686640
 12
3.806000
 22
2.288880
 13
4.433440
 23
2.662000
  0
POLYLINE
  8
0
  6
CONTINUOUS
 66
     1
 40
0.000000
 41
0.000000
  0
VERTEX
  8
0
  6
CONTINUOUS
 10
3.723280
 20
2.313520
  0
VERTEX
  8
0
  6
CONTINUOUS
 10
4.351160
 20
2.686640
  0
VERTEX
  8
0
  6
CONTINUOUS
 10
4.433440
 20
2.662000
  0
VERTEX
  8
0
  6
CONTINUOUS
 10
3.806000
 20
2.288880
  0
VERTEX
  8
0
  6
CONTINUOUS
 10
3.723280
 20
2.313520
  0
SEQEND
  8
0
  0
SOLID
  8
0
 62
    15
 10
3.806000
 20
2.288880
 11
4.433440
 21
2.662000
 12
3.880800
 22
2.249280
 13
4.508680
 23
2.622400
  0
POLYLINE
  8
0
  6
CONTINUOUS
 66
     1
 40
0.000000
 41
0.000000
  0
VERTEX
  8
0
  6
CONTINUOUS
 10
3.806000
 20
2.288880
  0
VERTEX
  8
0
  6
CONTINUOUS
 10
4.433440
 20
2.662000
  0
VERTEX
  8
0
  6
CONTINUOUS
 10
4.508680
 20
2.622400
  0
VERTEX
  8
0
  6
CONTINUOUS
 10
3.880800
 20
2.249280
  0
VERTEX
  8
0
  6
CONTINUOUS
 10
3.806000
 20
2.288880
  0
SEQEND
  8
0
  0
SOLID
  8
0
 62
    15
 10
3.880800
 20
2.249280
 11
4.508680
 21
2.622400
 12
3.946360
 22
2.196920
 13
4.573800
 23
2.570040
  0
POLYLINE
  8
0
  6
CONTINUOUS
 66
     1
 40
0.000000
 41
0.000000
  0
VERTEX
  8
0
  6
CONTINUOUS
 10
3.880800
 20
2.249280
  0
VERTEX
  8
0
  6
CONTINUOUS
 10
4.508680
 20
2.622400
  0
VERTEX
  8
0
  6
CONTINUOUS
 10
4.573800
 20
2.570040
  0
VERTEX
  8
0
  6
CONTINUOUS
 10
3.946360
 20
2.196920
  0
VERTEX
  8
0
  6
CONTINUOUS
 10
3.880800
 20
2.249280
  0
SEQEND
  8
0
  0
SOLID
  8
0
 62
     7
 10
3.946360
 20
2.196920
 11
4.573800
 21
2.570040
 12
4.000480
 22
2.133120
 13
4.627920
 23
2.506240
  0
POLYLINE
  8
0
  6
CONTINUOUS
 66
     1
 40
0.000000
 41
0.000000
  0
VERTEX
  8
0
  6
CONTINUOUS
 10
3.946360
 20
2.196920
  0
VERTEX
  8
0
  6
CONTINUOUS
 10
4.573800
 20
2.570040
  0
VERTEX
  8
0
  6
CONTINUOUS
 10
4.627920
 20
2.506240
  0
VERTEX
  8
0
  6
CONTINUOUS
 10
4.000480
 20
2.133120
  0
VERTEX
  8
0
  6
CONTINUOUS
 10
3.946360
 20
2.196920
  0
SEQEND
  8
0
  0
SOLID
  8
0
 62
    15
 10
4.000480
 20
2.133120
 11
4.627920
 21
2.506240
 12
4.040960
 22
2.059640
 13
4.668840
 23
2.432760
  0
POLYLINE
  8
0
  6
CONTINUOUS
 66
     1
 40
0.000000
 41
0.000000
  0
VERTEX
  8
0
  6
CONTINUOUS
 10
4.000480
 20
2.133120
  0
VERTEX
  8
0
  6
CONTINUOUS
 10
4.627920
 20
2.506240
  0
VERTEX
  8
0
  6
CONTINUOUS
 10
4.668840
 20
2.432760
  0
VERTEX
  8
0
  6
CONTINUOUS
 10
4.040960
 20
2.059640
  0
VERTEX
  8
0
  6
CONTINUOUS
 10
4.000480
 20
2.133120
  0
SEQEND
  8
0
  0
SOLID
  8
0
 62
    15
 10
4.040960
 20
2.059640
 11
4.668840
 21
2.432760
 12
4.066920
 22
1.978240
 13
4.694800
 23
2.351360
  0
POLYLINE
  8
0
  6
CONTINUOUS
 66
     1
 40
0.000000
 41
0.000000
  0
VERTEX
  8
0
  6
CONTINUOUS
 10
4.040960
 20
2.059640
  0
VERTEX
  8
0
  6
CONTINUOUS
 10
4.668840
 20
2.432760
  0
VERTEX
  8
0
  6
CONTINUOUS
 10
4.694800
 20
2.351360
  0
VERTEX
  8
0
  6
CONTINUOUS
 10
4.066920
 20
1.978240
  0
VERTEX
  8
0
  6
CONTINUOUS
 10
4.040960
 20
2.059640
  0
SEQEND
  8
0
  0
SOLID
  8
0
 62
    15
 10
4.066920
 20
1.978240
 11
4.694800
 21
2.351360
 12
4.076160
 22
1.890240
 13
4.703600
 23
2.263360
  0
POLYLINE
  8
0
  6
CONTINUOUS
 66
     1
 40
0.000000
 41
0.000000
  0
VERTEX
  8
0
  6
CONTINUOUS
 10
4.066920
 20
1.978240
  0
VERTEX
  8
0
  6
CONTINUOUS
 10
4.694800
 20
2.351360
  0
VERTEX
  8
0
  6
CONTINUOUS
 10
4.703600
 20
2.263360
  0
VERTEX
  8
0
  6
CONTINUOUS
 10
4.076160
 20
1.890240
  0
VERTEX
  8
0
  6
CONTINUOUS
 10
4.066920
 20
1.978240
  0
SEQEND
  8
0
  0
SOLID
  8
0
 62
    15
 10
4.076160
 20
1.890240
 11
4.703600
 21
2.263360
 12
4.186600
 22
1.890240
 13
4.814480
 23
2.263360
  0
POLYLINE
  8
0
  6
CONTINUOUS
 66
     1
 40
0.000000
 41
0.000000
  0
VERTEX
  8
0
  6
CONTINUOUS
 10
4.076160
 20
1.890240
  0
VERTEX
  8
0
  6
CONTINUOUS
 10
4.703600
 20
2.263360
  0
VERTEX
  8
0
  6
CONTINUOUS
 10
4.814480
 20
2.263360
  0
VERTEX
  8
0
  6
CONTINUOUS
 10
4.186600
 20
1.890240
  0
VERTEX
  8
0
  6
CONTINUOUS
 10
4.076160
 20
1.890240
  0
SEQEND
  8
0
  0
SOLID
  8
0
 62
    15
 10
4.169440
 20
1.710280
 11
4.796880
 21
2.083400
 12
4.181320
 22
1.710280
 13
4.808760
 23
2.083400
  0
POLYLINE
  8
0
  6
CONTINUOUS
 66
     1
 40
0.000000
 41
0.000000
  0
VERTEX
  8
0
  6
CONTINUOUS
 10
4.169440
 20
1.710280
  0
VERTEX
  8
0
  6
CONTINUOUS
 10
4.796880
 20
2.083400
  0
VERTEX
  8
0
  6
CONTINUOUS
 10
4.808760
 20
2.083400
  0
VERTEX
  8
0
  6
CONTINUOUS
 10
4.181320
 20
1.710280
  0
VERTEX
  8
0
  6
CONTINUOUS
 10
4.169440
 20
1.710280
  0
SEQEND
  8
0
  0
SOLID
  8
0
 62
    15
 10
4.186600
 20
1.890240
 11
4.814480
 21
2.263360
 12
4.186600
 22
1.710280
 13
4.814480
 23
2.083400
  0
POLYLINE
  8
0
  6
CONTINUOUS
 66
     1
 40
0.000000
 41
0.000000
  0
VERTEX
  8
0
  6
CONTINUOUS
 10
4.186600
 20
1.890240
  0
VERTEX
  8
0
  6
CONTINUOUS
 10
4.814480
 20
2.263360
  0
VERTEX
  8
0
  6
CONTINUOUS
 10
4.814480
 20
2.083400
  0
VERTEX
  8
0
  6
CONTINUOUS
 10
4.186600
 20
1.710280
  0
VERTEX
  8
0
  6
CONTINUOUS
 10
4.186600
 20
1.890240
  0
SEQEND
  8
0
  0
POLYLINE
  8
0
  6
CONTINUOUS
 66
     1
 40
0.000000
 41
0.000000
  0
VERTEX
  8
0
  6
CONTINUOUS
 10
4.181320
 20
1.710280
  0
VERTEX
  8
0
  6
CONTINUOUS
 10
3.689400
 20
1.710280
  0
VERTEX
  8
0
  6
CONTINUOUS
 10
3.689400
 20
1.459480
  0
VERTEX
  8
0
  6
CONTINUOUS
 10
4.185280
 20
1.459480
  0
VERTEX
  8
0
  6
CONTINUOUS
 10
4.185280
 20
1.279520
  0
VERTEX
  8
0
  6
CONTINUOUS
 10
4.074400
 20
1.279520
  0
VERTEX
  8
0
  6
CONTINUOUS
 10
4.065600
 20
1.191520
  0
VERTEX
  8
0
  6
CONTINUOUS
 10
4.039640
 20
1.110120
  0
VERTEX
  8
0
  6
CONTINUOUS
 10
3.998720
 20
1.036640
  0
VERTEX
  8
0
  6
CONTINUOUS
 10
3.945040
 20
0.972840
  0
VERTEX
  8
0
  6
CONTINUOUS
 10
3.879480
 20
0.920480
  0
VERTEX
  8
0
  6
CONTINUOUS
 10
3.804680
 20
0.881320
  0
VERTEX
  8
0
  6
CONTINUOUS
 10
3.721960
 20
0.856240
  0
VERTEX
  8
0
  6
CONTINUOUS
 10
3.633520
 20
0.847440
  0
VERTEX
  8
0
  6
CONTINUOUS
 10
3.630440
 20
0.846120
  0
VERTEX
  8
0
  6
CONTINUOUS
 10
3.630440
 20
0.708840
  0
VERTEX
  8
0
  6
CONTINUOUS
 10
1.964160
 20
0.708840
  0
VERTEX
  8
0
  6
CONTINUOUS
 10
1.962840
 20
0.710160
  0
VERTEX
  8
0
  6
CONTINUOUS
 10
1.962840
 20
2.463560
  0
VERTEX
  8
0
  6
CONTINUOUS
 10
1.964160
 20
2.462240
  0
VERTEX
  8
0
  6
CONTINUOUS
 10
3.630440
 20
2.462240
  0
VERTEX
  8
0
  6
CONTINUOUS
 10
3.631760
 20
2.458280
  0
VERTEX
  8
0
  6
CONTINUOUS
 10
3.631760
 20
2.323640
  0
VERTEX
  8
0
  6
CONTINUOUS
 10
3.634840
 20
2.322320
  0
VERTEX
  8
0
  6
CONTINUOUS
 10
3.723280
 20
2.313520
  0
VERTEX
  8
0
  6
CONTINUOUS
 10
3.806000
 20
2.288880
  0
VERTEX
  8
0
  6
CONTINUOUS
 10
3.880800
 20
2.249280
  0
VERTEX
  8
0
  6
CONTINUOUS
 10
3.946360
 20
2.196920
  0
VERTEX
  8
0
  6
CONTINUOUS
 10
4.000480
 20
2.133120
  0
VERTEX
  8
0
  6
CONTINUOUS
 10
4.040960
 20
2.059640
  0
VERTEX
  8
0
  6
CONTINUOUS
 10
4.066920
 20
1.978240
  0
VERTEX
  8
0
  6
CONTINUOUS
 10
4.076160
 20
1.890240
  0
VERTEX
  8
0
  6
CONTINUOUS
 10
4.186600
 20
1.890240
  0
VERTEX
  8
0
  6
CONTINUOUS
 10
4.186600
 20
1.710280
  0
VERTEX
  8
0
  6
CONTINUOUS
 10
4.169440
 20
1.710280
  0
VERTEX
  8
0
  6
CONTINUOUS
 10
4.181320
 20
1.710280
  0
SEQEND
  8
0
  0
SOLID
  8
0
 62
    15
 10
4.803920
 20
0.848760
 11
5.428720
 21
1.209560
 12
4.892360
 22
0.857560
 13
5.517160
 23
1.218360
  0
POLYLINE
  8
0
  6
CONTINUOUS
 66
     1
 40
0.000000
 41
0.000000
  0
VERTEX
  8
0
  6
CONTINUOUS
 10
4.803920
 20
0.848760
  0
VERTEX
  8
0
  6
CONTINUOUS
 10
5.428720
 20
1.209560
  0
VERTEX
  8
0
  6
CONTINUOUS
 10
5.517160
 20
1.218360
  0
VERTEX
  8
0
  6
CONTINUOUS
 10
4.892360
 20
0.857560
  0
VERTEX
  8
0
  6
CONTINUOUS
 10
4.803920
 20
0.848760
  0
SEQEND
  8
0
  0
SOLID
  8
0
 62
    15
 10
4.799520
 20
2.464880
 11
5.424760
 21
2.825680
 12
6.482520
 22
2.464880
 13
7.107320
 23
2.825680
  0
POLYLINE
  8
0
  6
CONTINUOUS
 66
     1
 40
0.000000
 41
0.000000
  0
VERTEX
  8
0
  6
CONTINUOUS
 10
4.799520
 20
2.464880
  0
VERTEX
  8
0
  6
CONTINUOUS
 10
5.424760
 20
2.825680
  0
VERTEX
  8
0
  6
CONTINUOUS
 10
7.107320
 20
2.825680
  0
VERTEX
  8
0
  6
CONTINUOUS
 10
6.482520
 20
2.464880
  0
VERTEX
  8
0
  6
CONTINUOUS
 10
4.799520
 20
2.464880
  0
SEQEND
  8
0
  0
SOLID
  8
0
 62
    15
 10
6.482520
 20
2.464880
 11
7.107320
 21
2.825680
 12
6.482520
 22
0.708840
 13
7.107320
 23
1.069640
  0
POLYLINE
  8
0
  6
CONTINUOUS
 66
     1
 40
0.000000
 41
0.000000
  0
VERTEX
  8
0
  6
CONTINUOUS
 10
6.482520
 20
2.464880
  0
VERTEX
  8
0
  6
CONTINUOUS
 10
7.107320
 20
2.825680
  0
VERTEX
  8
0
  6
CONTINUOUS
 10
7.107320
 20
1.069640
  0
VERTEX
  8
0
  6
CONTINUOUS
 10
6.482520
 20
0.708840
  0
VERTEX
  8
0
  6
CONTINUOUS
 10
6.482520
 20
2.464880
  0
SEQEND
  8
0
  0
SOLID
  8
0
 62
    15
 10
4.800840
 20
0.847440
 11
5.426080
 21
1.208240
 12
4.803920
 22
0.848760
 13
5.428720
 23
1.209560
  0
POLYLINE
  8
0
  6
CONTINUOUS
 66
     1
 40
0.000000
 41
0.000000
  0
VERTEX
  8
0
  6
CONTINUOUS
 10
4.800840
 20
0.847440
  0
VERTEX
  8
0
  6
CONTINUOUS
 10
5.426080
 20
1.208240
  0
VERTEX
  8
0
  6
CONTINUOUS
 10
5.428720
 20
1.209560
  0
VERTEX
  8
0
  6
CONTINUOUS
 10
4.803920
 20
0.848760
  0
VERTEX
  8
0
  6
CONTINUOUS
 10
4.800840
 20
0.847440
  0
SEQEND
  8
0
  0
SOLID
  8
0
 62
    15
 10
4.858480
 20
1.711600
 11
5.483280
 21
2.072400
 12
5.354360
 22
1.711600
 13
5.979160
 23
2.072400
  0
POLYLINE
  8
0
  6
CONTINUOUS
 66
     1
 40
0.000000
 41
0.000000
  0
VERTEX
  8
0
  6
CONTINUOUS
 10
4.858480
 20
1.711600
  0
VERTEX
  8
0
  6
CONTINUOUS
 10
5.483280
 20
2.072400
  0
VERTEX
  8
0
  6
CONTINUOUS
 10
5.979160
 20
2.072400
  0
VERTEX
  8
0
  6
CONTINUOUS
 10
5.354360
 20
1.711600
  0
VERTEX
  8
0
  6
CONTINUOUS
 10
4.858480
 20
1.711600
  0
SEQEND
  8
0
  0
SOLID
  8
0
 62
    15
 10
4.892360
 20
0.857560
 11
5.517160
 21
1.218360
 12
4.975080
 22
0.882640
 13
5.599880
 23
1.243000
  0
POLYLINE
  8
0
  6
CONTINUOUS
 66
     1
 40
0.000000
 41
0.000000
  0
VERTEX
  8
0
  6
CONTINUOUS
 10
4.892360
 20
0.857560
  0
VERTEX
  8
0
  6
CONTINUOUS
 10
5.517160
 20
1.218360
  0
VERTEX
  8
0
  6
CONTINUOUS
 10
5.599880
 20
1.243000
  0
VERTEX
  8
0
  6
CONTINUOUS
 10
4.975080
 20
0.882640
  0
VERTEX
  8
0
  6
CONTINUOUS
 10
4.892360
 20
0.857560
  0
SEQEND
  8
0
  0
SOLID
  8
0
 62
    15
 10
4.975080
 20
0.882640
 11
5.599880
 21
1.243000
 12
5.049880
 22
0.921800
 13
5.674680
 23
1.282600
  0
POLYLINE
  8
0
  6
CONTINUOUS
 66
     1
 40
0.000000
 41
0.000000
  0
VERTEX
  8
0
  6
CONTINUOUS
 10
4.975080
 20
0.882640
  0
VERTEX
  8
0
  6
CONTINUOUS
 10
5.599880
 20
1.243000
  0
VERTEX
  8
0
  6
CONTINUOUS
 10
5.674680
 20
1.282600
  0
VERTEX
  8
0
  6
CONTINUOUS
 10
5.049880
 20
0.921800
  0
VERTEX
  8
0
  6
CONTINUOUS
 10
4.975080
 20
0.882640
  0
SEQEND
  8
0
  0
SOLID
  8
0
 62
    15
 10
5.244800
 20
1.280840
 11
5.870040
 21
1.641640
 12
5.357000
 22
1.280840
 13
5.981800
 23
1.641640
  0
POLYLINE
  8
0
  6
CONTINUOUS
 66
     1
 40
0.000000
 41
0.000000
  0
VERTEX
  8
0
  6
CONTINUOUS
 10
5.244800
 20
1.280840
  0
VERTEX
  8
0
  6
CONTINUOUS
 10
5.870040
 20
1.641640
  0
VERTEX
  8
0
  6
CONTINUOUS
 10
5.981800
 20
1.641640
  0
VERTEX
  8
0
  6
CONTINUOUS
 10
5.357000
 20
1.280840
  0
VERTEX
  8
0
  6
CONTINUOUS
 10
5.244800
 20
1.280840
  0
SEQEND
  8
0
  0
SOLID
  8
0
 62
    15
 10
5.338520
 20
1.460800
 11
5.963320
 21
1.821600
 12
5.350400
 22
1.460800
 13
5.975200
 23
1.821600
  0
POLYLINE
  8
0
  6
CONTINUOUS
 66
     1
 40
0.000000
 41
0.000000
  0
VERTEX
  8
0
  6
CONTINUOUS
 10
5.338520
 20
1.460800
  0
VERTEX
  8
0
  6
CONTINUOUS
 10
5.963320
 20
1.821600
  0
VERTEX
  8
0
  6
CONTINUOUS
 10
5.975200
 20
1.821600
  0
VERTEX
  8
0
  6
CONTINUOUS
 10
5.350400
 20
1.460800
  0
VERTEX
  8
0
  6
CONTINUOUS
 10
5.338520
 20
1.460800
  0
SEQEND
  8
0
  0
POLYLINE
  8
0
  6
CONTINUOUS
 66
     1
 40
0.000000
 41
0.000000
  0
VERTEX
  8
0
  6
CONTINUOUS
 10
5.350400
 20
1.460800
  0
VERTEX
  8
0
  6
CONTINUOUS
 10
4.858480
 20
1.460800
  0
VERTEX
  8
0
  6
CONTINUOUS
 10
4.858480
 20
1.711600
  0
VERTEX
  8
0
  6
CONTINUOUS
 10
5.354360
 20
1.711600
  0
VERTEX
  8
0
  6
CONTINUOUS
 10
5.354360
 20
1.891560
  0
VERTEX
  8
0
  6
CONTINUOUS
 10
5.243480
 20
1.891560
  0
VERTEX
  8
0
  6
CONTINUOUS
 10
5.234680
 20
1.979560
  0
VERTEX
  8
0
  6
CONTINUOUS
 10
5.208720
 20
2.060960
  0
VERTEX
  8
0
  6
CONTINUOUS
 10
5.167800
 20
2.134440
  0
VERTEX
  8
0
  6
CONTINUOUS
 10
5.114120
 20
2.198240
  0
VERTEX
  8
0
  6
CONTINUOUS
 10
5.048560
 20
2.250600
  0
VERTEX
  8
0
  6
CONTINUOUS
 10
4.973760
 20
2.290200
  0
VERTEX
  8
0
  6
CONTINUOUS
 10
4.891040
 20
2.314840
  0
VERTEX
  8
0
  6
CONTINUOUS
 10
4.802160
 20
2.323640
  0
VERTEX
  8
0
  6
CONTINUOUS
 10
4.799520
 20
2.324960
  0
VERTEX
  8
0
  6
CONTINUOUS
 10
4.799520
 20
2.464880
  0
VERTEX
  8
0
  6
CONTINUOUS
 10
6.482520
 20
2.464880
  0
VERTEX
  8
0
  6
CONTINUOUS
 10
6.482520
 20
0.708840
  0
VERTEX
  8
0
  6
CONTINUOUS
 10
4.799520
 20
0.708840
  0
VERTEX
  8
0
  6
CONTINUOUS
 10
4.800840
 20
0.712800
  0
VERTEX
  8
0
  6
CONTINUOUS
 10
4.800840
 20
0.847440
  0
VERTEX
  8
0
  6
CONTINUOUS
 10
4.803920
 20
0.848760
  0
VERTEX
  8
0
  6
CONTINUOUS
 10
4.892360
 20
0.857560
  0
VERTEX
  8
0
  6
CONTINUOUS
 10
4.975080
 20
0.882640
  0
VERTEX
  8
0
  6
CONTINUOUS
 10
5.049880
 20
0.921800
  0
VERTEX
  8
0
  6
CONTINUOUS
 10
5.115440
 20
0.974600
  0
VERTEX
  8
0
  6
CONTINUOUS
 10
5.169120
 20
1.037960
  0
VERTEX
  8
0
  6
CONTINUOUS
 10
5.210040
 20
1.111440
  0
VERTEX
  8
0
  6
CONTINUOUS
 10
5.236000
 20
1.192840
  0
VERTEX
  8
0
  6
CONTINUOUS
 10
5.244800
 20
1.280840
  0
VERTEX
  8
0
  6
CONTINUOUS
 10
5.357000
 20
1.280840
  0
VERTEX
  8
0
  6
CONTINUOUS
 10
5.357000
 20
1.460800
  0
VERTEX
  8
0
  6
CONTINUOUS
 10
5.338520
 20
1.460800
  0
VERTEX
  8
0
  6
CONTINUOUS
 10
5.350400
 20
1.460800
  0
SEQEND
  8
0
  0
TEXT
  8
0
 10
2.034120
 20
0.795520
 40
0.138083
  1
B
 41
1.000000
  7
SN0
 71
     0
 72
     5
 11
2.145300
 21
0.795520
  0
TEXT
  8
0
 10
6.288040
 20
0.806960
 40
0.138083
  1
A
 41
1.000000
  7
SN0
 71
     0
 72
     5
 11
6.399220
 21
0.806960
  0
TEXT
  8
0
 10
3.944160
 20
0.437360
 40
0.138083
  1
BA  257A & B 1-3/4"
 41
1.000000
  7
SN0
 71
     0
 72
     5
 11
5.442993
 21
0.437360
  0
TEXT
  8
0
 10
7.246800
 20
4.884880
 40
0.138083
  1
styles/rail
 41
1.000000
  7
SN0
 71
     0
 72
     5
 11
7.938385
 21
4.884880
  0
TEXT
  8
0
 10
7.373960
 20
4.693040
 40
0.138083
  1
1-3/4"
 41
1.000000
  7
SN0
 71
     0
 72
     5
 11
7.811207
 21
4.693040
  0
ENDSEC
  0
EOF
