  0
SECTION
  2
HEADER
  9
$ACADVER
  1
AC1006
  9
$EXTMIN
 10
3.005200
 20
4.282080
  9
$EXTMAX
 10
5.494280
 20
7.531040
  9
$LTSCALE
 40
0.044000
  9
$PDMODE
 70
    35
  9
$PDSIZE
 40
0.035200
  0
ENDSEC
  0
SECTION
  2
TABLES
  0
TABLE
  2
LTYPE
 70
     9
  0
LTYPE
  2
CONTINUOUS
 70
    64
  3
Solid line
 72
    65
 73
     0
 40
0.000000
  0
LTYPE
  2
DASHED
 70
    64
  3
__ __ __ __ __ __ __ __ __ __ __ __ __ __ __
 72
    65
 73
     2
 40
0.000330
 49
0.000220
 49
-0.000110
  0
LTYPE
  2
HIDDEN
 70
    64
  3
 _ _ _ _ _ _ _ _ _ _ _ _ _ _ _ _ _ _ _ _ _ _
 72
    65
 73
     2
 40
0.000165
 49
0.000110
 49
-0.000055
  0
LTYPE
  2
CENTER
 70
    64
  3
____ _ ____ _ ____ _ ____ _ ____ _ ____ _ ____
 72
    65
 73
     4
 40
0.000880
 49
0.000550
 49
-0.000110
 49
0.000110
 49
-0.000110
  0
LTYPE
  2
PHANTOM
 70
    64
  3
_____ _ _ _____ _ _ _____ _ _ _____ _ _ ____
 72
    65
 73
     6
 40
0.001100
 49
0.000550
 49
-0.000110
 49
0.000110
 49
-0.000110
 49
0.000110
 49
-0.000110
  0
LTYPE
  2
DOT
 70
    64
  3
...............................................
 72
    65
 73
     2
 40
0.000110
 49
0.000000
 49
-0.000110
  0
LTYPE
  2
DASHDOT
 70
    64
  3
__ . __ . __ . __ . __ . __ . __ . __ . __ . __
 72
    65
 73
     4
 40
0.000440
 49
0.000220
 49
-0.000110
 49
0.000000
 49
-0.000110
  0
LTYPE
  2
BORDER
 70
    64
  3
__ __ . __ __ . __ __ . __ __ . __ __ . __ __
 72
    65
 73
     6
 40
0.000770
 49
0.000220
 49
-0.000110
 49
0.000220
 49
-0.000110
 49
0.000000
 49
-0.000110
  0
LTYPE
  2
DIVIDE
 70
    64
  3
__ . . __ . . __ . . __ . . __ . . __ . . __
 72
    65
 73
     6
 40
0.000550
 49
0.000220
 49
-0.000110
 49
0.000000
 49
-0.000110
 49
0.000000
 49
-0.000110
  0
LTYPE
  2
DOTDOT
 70
    64
  3
 . .  . .  . .  . .  . .  . . 
 72
    65
 73
     5
 40
0.000242
 49
-0.000110
 49
0.000000
 49
-0.000110
 49
0.000000
 49
-0.000110
  0
ENDTAB
  0
TABLE
  2
STYLE
 70
     2
  0
STYLE
 70
     0
  2
SN0
 40
0.000000
 41
0.000440
 50
0.000000
 71
     0
 42
0.000000
  3
ROMAND
  0
STYLE
 70
    68
  2
SV0
 40
0.000000
 41
0.000440
 50
0.000000
 71
     0
 42
0.000000
  3
ROMAND
  0
ENDTAB
  0
TABLE
  2
LAYER
 70
     3
  0
LAYER
  2
FOREGROUND
 70
    64
 62
     7
  6
CONTINUOUS
  0
LAYER
  2
BACKGROUND
 70
    65
 62
    -7
  6
CONTINUOUS
  0
LAYER
  2
0
 70
    64
 62
     7
  6
CONTINUOUS
  0
ENDTAB
  0
ENDSEC
  0
SECTION
  2
ENTITIES
  0
POLYLINE
  8
FOREGROUND
  6
CONTINUOUS
 66
     1
 40
0.000000
 41
0.000000
  0
VERTEX
  8
FOREGROUND
  6
CONTINUOUS
 10
0.000000
 20
11.813120
  0
VERTEX
  8
FOREGROUND
  6
CONTINUOUS
 10
8.499920
 20
11.813120
  0
VERTEX
  8
FOREGROUND
  6
CONTINUOUS
 10
8.499920
 20
0.813120
  0
VERTEX
  8
FOREGROUND
  6
CONTINUOUS
 10
0.000000
 20
0.813120
  0
VERTEX
  8
FOREGROUND
  6
CONTINUOUS
 10
0.000000
 20
11.813120
  0
SEQEND
  8
0
  0
POLYLINE
  8
FOREGROUND
  6
CONTINUOUS
 66
     1
 40
0.000000
 41
0.000000
  0
VERTEX
  8
FOREGROUND
  6
CONTINUOUS
 10
0.000000
 20
11.813120
  0
VERTEX
  8
FOREGROUND
  6
CONTINUOUS
 10
8.499920
 20
11.813120
  0
VERTEX
  8
FOREGROUND
  6
CONTINUOUS
 10
8.499920
 20
0.813120
  0
VERTEX
  8
FOREGROUND
  6
CONTINUOUS
 10
0.000000
 20
0.813120
  0
VERTEX
  8
FOREGROUND
  6
CONTINUOUS
 10
0.000000
 20
11.813120
  0
SEQEND
  8
0
  0
SOLID
  8
0
 62
    15
 10
3.269200
 20
5.146240
 11
3.269200
 21
5.884560
 12
3.274480
 22
5.173520
 13
3.274920
 23
5.911840
  0
POLYLINE
  8
0
  6
CONTINUOUS
 66
     1
 40
0.000000
 41
0.000000
  0
VERTEX
  8
0
  6
CONTINUOUS
 10
3.269200
 20
5.146240
  0
VERTEX
  8
0
  6
CONTINUOUS
 10
3.269200
 20
5.884560
  0
VERTEX
  8
0
  6
CONTINUOUS
 10
3.274920
 20
5.911840
  0
VERTEX
  8
0
  6
CONTINUOUS
 10
3.274480
 20
5.173520
  0
VERTEX
  8
0
  6
CONTINUOUS
 10
3.269200
 20
5.146240
  0
SEQEND
  8
0
  0
SOLID
  8
0
 62
    15
 10
5.441480
 20
5.278680
 11
5.441480
 21
6.017440
 12
5.450280
 22
5.255800
 13
5.450720
 23
5.994120
  0
POLYLINE
  8
0
  6
CONTINUOUS
 66
     1
 40
0.000000
 41
0.000000
  0
VERTEX
  8
0
  6
CONTINUOUS
 10
5.441480
 20
5.278680
  0
VERTEX
  8
0
  6
CONTINUOUS
 10
5.441480
 20
6.017440
  0
VERTEX
  8
0
  6
CONTINUOUS
 10
5.450720
 20
5.994120
  0
VERTEX
  8
0
  6
CONTINUOUS
 10
5.450280
 20
5.255800
  0
VERTEX
  8
0
  6
CONTINUOUS
 10
5.441480
 20
5.278680
  0
SEQEND
  8
0
  0
SOLID
  8
0
 62
    15
 10
5.455560
 20
5.227200
 11
5.455560
 21
5.965960
 12
5.456880
 22
5.196840
 13
5.457320
 23
5.935160
  0
POLYLINE
  8
0
  6
CONTINUOUS
 66
     1
 40
0.000000
 41
0.000000
  0
VERTEX
  8
0
  6
CONTINUOUS
 10
5.455560
 20
5.227200
  0
VERTEX
  8
0
  6
CONTINUOUS
 10
5.455560
 20
5.965960
  0
VERTEX
  8
0
  6
CONTINUOUS
 10
5.457320
 20
5.935160
  0
VERTEX
  8
0
  6
CONTINUOUS
 10
5.456880
 20
5.196840
  0
VERTEX
  8
0
  6
CONTINUOUS
 10
5.455560
 20
5.227200
  0
SEQEND
  8
0
  0
SOLID
  8
0
 62
    15
 10
5.450280
 20
5.255800
 11
5.450720
 21
5.994120
 12
5.455560
 22
5.227200
 13
5.455560
 23
5.965960
  0
POLYLINE
  8
0
  6
CONTINUOUS
 66
     1
 40
0.000000
 41
0.000000
  0
VERTEX
  8
0
  6
CONTINUOUS
 10
5.450280
 20
5.255800
  0
VERTEX
  8
0
  6
CONTINUOUS
 10
5.450720
 20
5.994120
  0
VERTEX
  8
0
  6
CONTINUOUS
 10
5.455560
 20
5.965960
  0
VERTEX
  8
0
  6
CONTINUOUS
 10
5.455560
 20
5.227200
  0
VERTEX
  8
0
  6
CONTINUOUS
 10
5.450280
 20
5.255800
  0
SEQEND
  8
0
  0
SOLID
  8
0
 62
    15
 10
5.184520
 20
5.064840
 11
5.184960
 21
5.803160
 12
5.184520
 22
4.741000
 13
5.184960
 23
5.479320
  0
POLYLINE
  8
0
  6
CONTINUOUS
 66
     1
 40
0.000000
 41
0.000000
  0
VERTEX
  8
0
  6
CONTINUOUS
 10
5.184520
 20
5.064840
  0
VERTEX
  8
0
  6
CONTINUOUS
 10
5.184960
 20
5.803160
  0
VERTEX
  8
0
  6
CONTINUOUS
 10
5.184960
 20
5.479320
  0
VERTEX
  8
0
  6
CONTINUOUS
 10
5.184520
 20
4.741000
  0
VERTEX
  8
0
  6
CONTINUOUS
 10
5.184520
 20
5.064840
  0
SEQEND
  8
0
  0
SOLID
  8
0
 62
    15
 10
3.006080
 20
5.071440
 11
3.006520
 21
5.809760
 12
3.243240
 22
5.112800
 13
3.243680
 23
5.851120
  0
POLYLINE
  8
0
  6
CONTINUOUS
 66
     1
 40
0.000000
 41
0.000000
  0
VERTEX
  8
0
  6
CONTINUOUS
 10
3.006080
 20
5.071440
  0
VERTEX
  8
0
  6
CONTINUOUS
 10
3.006520
 20
5.809760
  0
VERTEX
  8
0
  6
CONTINUOUS
 10
3.243680
 20
5.851120
  0
VERTEX
  8
0
  6
CONTINUOUS
 10
3.243240
 20
5.112800
  0
VERTEX
  8
0
  6
CONTINUOUS
 10
3.006080
 20
5.071440
  0
SEQEND
  8
0
  0
SOLID
  8
0
 62
    15
 10
3.243240
 20
5.112800
 11
3.243680
 21
5.851120
 12
3.247200
 22
5.112800
 13
3.247640
 23
5.851120
  0
POLYLINE
  8
0
  6
CONTINUOUS
 66
     1
 40
0.000000
 41
0.000000
  0
VERTEX
  8
0
  6
CONTINUOUS
 10
3.243240
 20
5.112800
  0
VERTEX
  8
0
  6
CONTINUOUS
 10
3.243680
 20
5.851120
  0
VERTEX
  8
0
  6
CONTINUOUS
 10
3.247640
 20
5.851120
  0
VERTEX
  8
0
  6
CONTINUOUS
 10
3.247200
 20
5.112800
  0
VERTEX
  8
0
  6
CONTINUOUS
 10
3.243240
 20
5.112800
  0
SEQEND
  8
0
  0
SOLID
  8
0
 62
    15
 10
3.247200
 20
5.112800
 11
3.247640
 21
5.851120
 12
3.259960
 22
5.124680
 13
3.260400
 23
5.863440
  0
POLYLINE
  8
0
  6
CONTINUOUS
 66
     1
 40
0.000000
 41
0.000000
  0
VERTEX
  8
0
  6
CONTINUOUS
 10
3.247200
 20
5.112800
  0
VERTEX
  8
0
  6
CONTINUOUS
 10
3.247640
 20
5.851120
  0
VERTEX
  8
0
  6
CONTINUOUS
 10
3.260400
 20
5.863440
  0
VERTEX
  8
0
  6
CONTINUOUS
 10
3.259960
 20
5.124680
  0
VERTEX
  8
0
  6
CONTINUOUS
 10
3.247200
 20
5.112800
  0
SEQEND
  8
0
  0
SOLID
  8
0
 62
    15
 10
3.259960
 20
5.124680
 11
3.260400
 21
5.863440
 12
3.269200
 22
5.146240
 13
3.269200
 23
5.884560
  0
POLYLINE
  8
0
  6
CONTINUOUS
 66
     1
 40
0.000000
 41
0.000000
  0
VERTEX
  8
0
  6
CONTINUOUS
 10
3.259960
 20
5.124680
  0
VERTEX
  8
0
  6
CONTINUOUS
 10
3.260400
 20
5.863440
  0
VERTEX
  8
0
  6
CONTINUOUS
 10
3.269200
 20
5.884560
  0
VERTEX
  8
0
  6
CONTINUOUS
 10
3.269200
 20
5.146240
  0
VERTEX
  8
0
  6
CONTINUOUS
 10
3.259960
 20
5.124680
  0
SEQEND
  8
0
  0
SOLID
  8
0
 62
    15
 10
5.428720
 20
5.294080
 11
5.429160
 21
6.032400
 12
5.441480
 22
5.278680
 13
5.441480
 23
6.017440
  0
POLYLINE
  8
0
  6
CONTINUOUS
 66
     1
 40
0.000000
 41
0.000000
  0
VERTEX
  8
0
  6
CONTINUOUS
 10
5.428720
 20
5.294080
  0
VERTEX
  8
0
  6
CONTINUOUS
 10
5.429160
 20
6.032400
  0
VERTEX
  8
0
  6
CONTINUOUS
 10
5.441480
 20
6.017440
  0
VERTEX
  8
0
  6
CONTINUOUS
 10
5.441480
 20
5.278680
  0
VERTEX
  8
0
  6
CONTINUOUS
 10
5.428720
 20
5.294080
  0
SEQEND
  8
0
  0
SOLID
  8
0
 62
    15
 10
3.274480
 20
5.173520
 11
3.274920
 21
5.911840
 12
3.276240
 22
5.204320
 13
3.276680
 23
5.942640
  0
POLYLINE
  8
0
  6
CONTINUOUS
 66
     1
 40
0.000000
 41
0.000000
  0
VERTEX
  8
0
  6
CONTINUOUS
 10
3.274480
 20
5.173520
  0
VERTEX
  8
0
  6
CONTINUOUS
 10
3.274920
 20
5.911840
  0
VERTEX
  8
0
  6
CONTINUOUS
 10
3.276680
 20
5.942640
  0
VERTEX
  8
0
  6
CONTINUOUS
 10
3.276240
 20
5.204320
  0
VERTEX
  8
0
  6
CONTINUOUS
 10
3.274480
 20
5.173520
  0
SEQEND
  8
0
  0
SOLID
  8
0
 62
    15
 10
3.006080
 20
5.410240
 11
3.006520
 21
6.148560
 12
3.272720
 22
5.624960
 13
3.273160
 23
6.363280
  0
POLYLINE
  8
0
  6
CONTINUOUS
 66
     1
 40
0.000000
 41
0.000000
  0
VERTEX
  8
0
  6
CONTINUOUS
 10
3.006080
 20
5.410240
  0
VERTEX
  8
0
  6
CONTINUOUS
 10
3.006520
 20
6.148560
  0
VERTEX
  8
0
  6
CONTINUOUS
 10
3.273160
 20
6.363280
  0
VERTEX
  8
0
  6
CONTINUOUS
 10
3.272720
 20
5.624960
  0
VERTEX
  8
0
  6
CONTINUOUS
 10
3.006080
 20
5.410240
  0
SEQEND
  8
0
  0
SOLID
  8
0
 62
    15
 10
3.272720
 20
5.624960
 11
3.273160
 21
6.363280
 12
4.894120
 22
5.624960
 13
4.894120
 23
6.363280
  0
POLYLINE
  8
0
  6
CONTINUOUS
 66
     1
 40
0.000000
 41
0.000000
  0
VERTEX
  8
0
  6
CONTINUOUS
 10
3.272720
 20
5.624960
  0
VERTEX
  8
0
  6
CONTINUOUS
 10
3.273160
 20
6.363280
  0
VERTEX
  8
0
  6
CONTINUOUS
 10
4.894120
 20
6.363280
  0
VERTEX
  8
0
  6
CONTINUOUS
 10
4.894120
 20
5.624960
  0
VERTEX
  8
0
  6
CONTINUOUS
 10
3.272720
 20
5.624960
  0
SEQEND
  8
0
  0
SOLID
  8
0
 62
    15
 10
4.894120
 20
5.624960
 11
4.894120
 21
6.363280
 12
5.184520
 22
5.402320
 13
5.184960
 23
6.140640
  0
POLYLINE
  8
0
  6
CONTINUOUS
 66
     1
 40
0.000000
 41
0.000000
  0
VERTEX
  8
0
  6
CONTINUOUS
 10
4.894120
 20
5.624960
  0
VERTEX
  8
0
  6
CONTINUOUS
 10
4.894120
 20
6.363280
  0
VERTEX
  8
0
  6
CONTINUOUS
 10
5.184960
 20
6.140640
  0
VERTEX
  8
0
  6
CONTINUOUS
 10
5.184520
 20
5.402320
  0
VERTEX
  8
0
  6
CONTINUOUS
 10
4.894120
 20
5.624960
  0
SEQEND
  8
0
  0
SOLID
  8
0
 62
    15
 10
5.184520
 20
5.338080
 11
5.184960
 21
6.076400
 12
5.422120
 22
5.296720
 13
5.422120
 23
6.035480
  0
POLYLINE
  8
0
  6
CONTINUOUS
 66
     1
 40
0.000000
 41
0.000000
  0
VERTEX
  8
0
  6
CONTINUOUS
 10
5.184520
 20
5.338080
  0
VERTEX
  8
0
  6
CONTINUOUS
 10
5.184960
 20
6.076400
  0
VERTEX
  8
0
  6
CONTINUOUS
 10
5.422120
 20
6.035480
  0
VERTEX
  8
0
  6
CONTINUOUS
 10
5.422120
 20
5.296720
  0
VERTEX
  8
0
  6
CONTINUOUS
 10
5.184520
 20
5.338080
  0
SEQEND
  8
0
  0
SOLID
  8
0
 62
    15
 10
5.184520
 20
5.403640
 11
5.184960
 21
6.141960
 12
5.184520
 22
5.338080
 13
5.184960
 23
6.076400
  0
POLYLINE
  8
0
  6
CONTINUOUS
 66
     1
 40
0.000000
 41
0.000000
  0
VERTEX
  8
0
  6
CONTINUOUS
 10
5.184520
 20
5.403640
  0
VERTEX
  8
0
  6
CONTINUOUS
 10
5.184960
 20
6.141960
  0
VERTEX
  8
0
  6
CONTINUOUS
 10
5.184960
 20
6.076400
  0
VERTEX
  8
0
  6
CONTINUOUS
 10
5.184520
 20
5.338080
  0
VERTEX
  8
0
  6
CONTINUOUS
 10
5.184520
 20
5.403640
  0
SEQEND
  8
0
  0
SOLID
  8
0
 62
    15
 10
5.184520
 20
5.402320
 11
5.184960
 21
6.140640
 12
5.184520
 22
5.403640
 13
5.184960
 23
6.141960
  0
POLYLINE
  8
0
  6
CONTINUOUS
 66
     1
 40
0.000000
 41
0.000000
  0
VERTEX
  8
0
  6
CONTINUOUS
 10
5.184520
 20
5.402320
  0
VERTEX
  8
0
  6
CONTINUOUS
 10
5.184960
 20
6.140640
  0
VERTEX
  8
0
  6
CONTINUOUS
 10
5.184960
 20
6.141960
  0
VERTEX
  8
0
  6
CONTINUOUS
 10
5.184520
 20
5.403640
  0
VERTEX
  8
0
  6
CONTINUOUS
 10
5.184520
 20
5.402320
  0
SEQEND
  8
0
  0
SOLID
  8
0
 62
    15
 10
5.422120
 20
5.296720
 11
5.422120
 21
6.035480
 12
5.428720
 22
5.294080
 13
5.429160
 23
6.032400
  0
POLYLINE
  8
0
  6
CONTINUOUS
 66
     1
 40
0.000000
 41
0.000000
  0
VERTEX
  8
0
  6
CONTINUOUS
 10
5.422120
 20
5.296720
  0
VERTEX
  8
0
  6
CONTINUOUS
 10
5.422120
 20
6.035480
  0
VERTEX
  8
0
  6
CONTINUOUS
 10
5.429160
 20
6.032400
  0
VERTEX
  8
0
  6
CONTINUOUS
 10
5.428720
 20
5.294080
  0
VERTEX
  8
0
  6
CONTINUOUS
 10
5.422120
 20
5.296720
  0
SEQEND
  8
0
  0
POLYLINE
  8
0
  6
CONTINUOUS
 66
     1
 40
0.000000
 41
0.000000
  0
VERTEX
  8
0
  6
CONTINUOUS
 10
5.428720
 20
5.294080
  0
VERTEX
  8
0
  6
CONTINUOUS
 10
5.441480
 20
5.278680
  0
VERTEX
  8
0
  6
CONTINUOUS
 10
5.450280
 20
5.255800
  0
VERTEX
  8
0
  6
CONTINUOUS
 10
5.455560
 20
5.227200
  0
VERTEX
  8
0
  6
CONTINUOUS
 10
5.456880
 20
5.196840
  0
VERTEX
  8
0
  6
CONTINUOUS
 10
5.455120
 20
5.166920
  0
VERTEX
  8
0
  6
CONTINUOUS
 10
5.449400
 20
5.140080
  0
VERTEX
  8
0
  6
CONTINUOUS
 10
5.440160
 20
5.119400
  0
VERTEX
  8
0
  6
CONTINUOUS
 10
5.427400
 20
5.107520
  0
VERTEX
  8
0
  6
CONTINUOUS
 10
5.422120
 20
5.106200
  0
VERTEX
  8
0
  6
CONTINUOUS
 10
5.184520
 20
5.064840
  0
VERTEX
  8
0
  6
CONTINUOUS
 10
5.184520
 20
4.741000
  0
VERTEX
  8
0
  6
CONTINUOUS
 10
3.006080
 20
4.741000
  0
VERTEX
  8
0
  6
CONTINUOUS
 10
3.006080
 20
5.071440
  0
VERTEX
  8
0
  6
CONTINUOUS
 10
3.243240
 20
5.112800
  0
VERTEX
  8
0
  6
CONTINUOUS
 10
3.247200
 20
5.112800
  0
VERTEX
  8
0
  6
CONTINUOUS
 10
3.259960
 20
5.124680
  0
VERTEX
  8
0
  6
CONTINUOUS
 10
3.269200
 20
5.146240
  0
VERTEX
  8
0
  6
CONTINUOUS
 10
3.274480
 20
5.173520
  0
VERTEX
  8
0
  6
CONTINUOUS
 10
3.276240
 20
5.204320
  0
VERTEX
  8
0
  6
CONTINUOUS
 10
3.274480
 20
5.235560
  0
VERTEX
  8
0
  6
CONTINUOUS
 10
3.269200
 20
5.264160
  0
VERTEX
  8
0
  6
CONTINUOUS
 10
3.259960
 20
5.287920
  0
VERTEX
  8
0
  6
CONTINUOUS
 10
3.247200
 20
5.303320
  0
VERTEX
  8
0
  6
CONTINUOUS
 10
3.243240
 20
5.303320
  0
VERTEX
  8
0
  6
CONTINUOUS
 10
3.006080
 20
5.344680
  0
VERTEX
  8
0
  6
CONTINUOUS
 10
3.006080
 20
5.410240
  0
VERTEX
  8
0
  6
CONTINUOUS
 10
3.272720
 20
5.624960
  0
VERTEX
  8
0
  6
CONTINUOUS
 10
4.894120
 20
5.624960
  0
VERTEX
  8
0
  6
CONTINUOUS
 10
5.184520
 20
5.402320
  0
VERTEX
  8
0
  6
CONTINUOUS
 10
5.184520
 20
5.403640
  0
VERTEX
  8
0
  6
CONTINUOUS
 10
5.184520
 20
5.338080
  0
VERTEX
  8
0
  6
CONTINUOUS
 10
5.422120
 20
5.296720
  0
VERTEX
  8
0
  6
CONTINUOUS
 10
5.428720
 20
5.294080
  0
SEQEND
  8
0
  0
TEXT
  8
0
 10
3.935800
 20
4.516600
 40
0.138194
  1
BA  253
 41
1.000000
  7
SN0
 71
     0
 72
     5
 11
4.526461
 21
4.516600
  0
TEXT
  8
0
 10
3.733840
 20
4.325200
 40
0.138194
  1
7/8" x 2-7/16"
 41
1.000000
  7
SN0
 71
     0
 72
     5
 11
4.727372
 21
4.325200
  0
POLYLINE
  8
0
  6
CONTINUOUS
 66
     1
 40
0.014080
 41
0.014080
  0
VERTEX
  8
0
  6
CONTINUOUS
 10
5.452040
 20
7.195320
  0
VERTEX
  8
0
  6
CONTINUOUS
 10
5.214880
 20
7.236680
  0
VERTEX
  8
0
  6
CONTINUOUS
 10
5.214880
 20
7.301800
  0
VERTEX
  8
0
  6
CONTINUOUS
 10
5.214880
 20
7.300480
  0
VERTEX
  8
0
  6
CONTINUOUS
 10
4.924040
 20
7.523120
  0
VERTEX
  8
0
  6
CONTINUOUS
 10
3.302640
 20
7.523120
  0
VERTEX
  8
0
  6
CONTINUOUS
 10
3.036000
 20
7.308400
  0
VERTEX
  8
0
  6
CONTINUOUS
 10
3.036000
 20
7.243280
  0
VERTEX
  8
0
  6
CONTINUOUS
 10
3.277560
 20
7.201920
  0
VERTEX
  8
0
  6
CONTINUOUS
 10
3.290320
 20
7.186520
  0
VERTEX
  8
0
  6
CONTINUOUS
 10
3.299560
 20
7.162760
  0
VERTEX
  8
0
  6
CONTINUOUS
 10
3.304840
 20
7.133720
  0
VERTEX
  8
0
  6
CONTINUOUS
 10
3.306600
 20
7.102480
  0
VERTEX
  8
0
  6
CONTINUOUS
 10
3.304840
 20
7.071680
  0
VERTEX
  8
0
  6
CONTINUOUS
 10
3.299560
 20
7.044400
  0
VERTEX
  8
0
  6
CONTINUOUS
 10
3.290320
 20
7.023280
  0
VERTEX
  8
0
  6
CONTINUOUS
 10
3.281080
 20
7.013160
  0
VERTEX
  8
0
  6
CONTINUOUS
 10
3.277560
 20
7.011400
  0
VERTEX
  8
0
  6
CONTINUOUS
 10
3.273600
 20
7.011400
  0
VERTEX
  8
0
  6
CONTINUOUS
 10
3.036000
 20
6.970040
  0
VERTEX
  8
0
  6
CONTINUOUS
 10
3.036000
 20
6.639160
  0
VERTEX
  8
0
  6
CONTINUOUS
 10
5.214880
 20
6.639160
  0
VERTEX
  8
0
  6
CONTINUOUS
 10
5.214880
 20
6.963440
  0
VERTEX
  8
0
  6
CONTINUOUS
 10
5.452040
 20
7.004360
  0
VERTEX
  8
0
  6
CONTINUOUS
 10
5.464360
 20
7.010520
  0
VERTEX
  8
0
  6
CONTINUOUS
 10
5.474920
 20
7.027240
  0
VERTEX
  8
0
  6
CONTINUOUS
 10
5.482400
 20
7.051440
  0
VERTEX
  8
0
  6
CONTINUOUS
 10
5.486360
 20
7.080040
  0
VERTEX
  8
0
  6
CONTINUOUS
 10
5.486800
 20
7.110840
  0
VERTEX
  8
0
  6
CONTINUOUS
 10
5.483280
 20
7.140320
  0
VERTEX
  8
0
  6
CONTINUOUS
 10
5.476240
 20
7.166280
  0
VERTEX
  8
0
  6
CONTINUOUS
 10
5.471400
 20
7.177280
  0
VERTEX
  8
0
  6
CONTINUOUS
 10
5.458640
 20
7.192680
  0
VERTEX
  8
0
  6
CONTINUOUS
 10
5.452040
 20
7.195320
  0
SEQEND
  8
0
  0
TEXT
  8
0
 10
3.903240
 20
6.951560
 40
0.138194
  1
BA  253
 41
1.000000
  7
SN0
 71
     0
 72
     5
 11
4.493901
 21
6.951560
  0
TEXT
  8
0
 10
3.701280
 20
6.760160
 40
0.138194
  1
7/8" x 2-7/16"
 41
1.000000
  7
SN0
 71
     0
 72
     5
 11
4.694812
 21
6.760160
  0
ENDSEC
  0
EOF
