  0
SECTION
  2
HEADER
  9
$ACADVER
  1
AC1006
  9
$EXTMIN
 10
5.270320
 20
0.495880
  9
$EXTMAX
 10
8.030880
 20
3.648040
  9
$LTSCALE
 40
0.044000
  9
$PDMODE
 70
    35
  9
$PDSIZE
 40
0.035200
  0
ENDSEC
  0
SECTION
  2
TABLES
  0
TABLE
  2
LTYPE
 70
     9
  0
LTYPE
  2
CONTINUOUS
 70
    64
  3
Solid line
 72
    65
 73
     0
 40
0.000000
  0
LTYPE
  2
DASHED
 70
    64
  3
__ __ __ __ __ __ __ __ __ __ __ __ __ __ __
 72
    65
 73
     2
 40
0.000330
 49
0.000220
 49
-0.000110
  0
LTYPE
  2
HIDDEN
 70
    64
  3
 _ _ _ _ _ _ _ _ _ _ _ _ _ _ _ _ _ _ _ _ _ _
 72
    65
 73
     2
 40
0.000165
 49
0.000110
 49
-0.000055
  0
LTYPE
  2
CENTER
 70
    64
  3
____ _ ____ _ ____ _ ____ _ ____ _ ____ _ ____
 72
    65
 73
     4
 40
0.000880
 49
0.000550
 49
-0.000110
 49
0.000110
 49
-0.000110
  0
LTYPE
  2
PHANTOM
 70
    64
  3
_____ _ _ _____ _ _ _____ _ _ _____ _ _ ____
 72
    65
 73
     6
 40
0.001100
 49
0.000550
 49
-0.000110
 49
0.000110
 49
-0.000110
 49
0.000110
 49
-0.000110
  0
LTYPE
  2
DOT
 70
    64
  3
...............................................
 72
    65
 73
     2
 40
0.000110
 49
0.000000
 49
-0.000110
  0
LTYPE
  2
DASHDOT
 70
    64
  3
__ . __ . __ . __ . __ . __ . __ . __ . __ . __
 72
    65
 73
     4
 40
0.000440
 49
0.000220
 49
-0.000110
 49
0.000000
 49
-0.000110
  0
LTYPE
  2
BORDER
 70
    64
  3
__ __ . __ __ . __ __ . __ __ . __ __ . __ __
 72
    65
 73
     6
 40
0.000770
 49
0.000220
 49
-0.000110
 49
0.000220
 49
-0.000110
 49
0.000000
 49
-0.000110
  0
LTYPE
  2
DIVIDE
 70
    64
  3
__ . . __ . . __ . . __ . . __ . . __ . . __
 72
    65
 73
     6
 40
0.000550
 49
0.000220
 49
-0.000110
 49
0.000000
 49
-0.000110
 49
0.000000
 49
-0.000110
  0
LTYPE
  2
DOTDOT
 70
    64
  3
 . .  . .  . .  . .  . .  . . 
 72
    65
 73
     5
 40
0.000242
 49
-0.000110
 49
0.000000
 49
-0.000110
 49
0.000000
 49
-0.000110
  0
ENDTAB
  0
TABLE
  2
STYLE
 70
     2
  0
STYLE
 70
     0
  2
SN0
 40
0.000000
 41
0.000440
 50
0.000000
 71
     0
 42
0.000000
  3
ROMAND
  0
STYLE
 70
    68
  2
SV0
 40
0.000000
 41
0.000440
 50
0.000000
 71
     0
 42
0.000000
  3
ROMAND
  0
ENDTAB
  0
TABLE
  2
LAYER
 70
     3
  0
LAYER
  2
FOREGROUND
 70
    64
 62
     7
  6
CONTINUOUS
  0
LAYER
  2
BACKGROUND
 70
    65
 62
    -7
  6
CONTINUOUS
  0
LAYER
  2
0
 70
    64
 62
     7
  6
CONTINUOUS
  0
ENDTAB
  0
ENDSEC
  0
SECTION
  2
ENTITIES
  0
POLYLINE
  8
FOREGROUND
  6
CONTINUOUS
 66
     1
 40
0.000000
 41
0.000000
  0
VERTEX
  8
FOREGROUND
  6
CONTINUOUS
 10
0.000000
 20
4.143920
  0
VERTEX
  8
FOREGROUND
  6
CONTINUOUS
 10
8.499920
 20
4.143920
  0
VERTEX
  8
FOREGROUND
  6
CONTINUOUS
 10
8.499920
 20
-6.856080
  0
VERTEX
  8
FOREGROUND
  6
CONTINUOUS
 10
0.000000
 20
-6.856080
  0
VERTEX
  8
FOREGROUND
  6
CONTINUOUS
 10
0.000000
 20
4.143920
  0
SEQEND
  8
0
  0
POLYLINE
  8
FOREGROUND
  6
CONTINUOUS
 66
     1
 40
0.000000
 41
0.000000
  0
VERTEX
  8
FOREGROUND
  6
CONTINUOUS
 10
0.000000
 20
4.143920
  0
VERTEX
  8
FOREGROUND
  6
CONTINUOUS
 10
8.499920
 20
4.143920
  0
VERTEX
  8
FOREGROUND
  6
CONTINUOUS
 10
8.499920
 20
-6.856080
  0
VERTEX
  8
FOREGROUND
  6
CONTINUOUS
 10
0.000000
 20
-6.856080
  0
VERTEX
  8
FOREGROUND
  6
CONTINUOUS
 10
0.000000
 20
4.143920
  0
SEQEND
  8
0
  0
POLYLINE
  8
0
  6
CONTINUOUS
 66
     1
 40
0.014080
 41
0.014080
  0
VERTEX
  8
0
  6
CONTINUOUS
 10
6.248880
 20
2.379960
  0
VERTEX
  8
0
  6
CONTINUOUS
 10
5.278240
 20
2.379960
  0
VERTEX
  8
0
  6
CONTINUOUS
 10
5.278240
 20
3.594800
  0
VERTEX
  8
0
  6
CONTINUOUS
 10
5.335440
 20
3.594800
  0
VERTEX
  8
0
  6
CONTINUOUS
 10
5.332800
 20
3.594800
  0
VERTEX
  8
0
  6
CONTINUOUS
 10
6.562160
 20
3.594800
  0
VERTEX
  8
0
  6
CONTINUOUS
 10
6.615400
 20
3.590840
  0
VERTEX
  8
0
  6
CONTINUOUS
 10
6.662920
 20
3.582480
  0
VERTEX
  8
0
  6
CONTINUOUS
 10
6.705600
 20
3.570160
  0
VERTEX
  8
0
  6
CONTINUOUS
 10
6.743880
 20
3.554760
  0
VERTEX
  8
0
  6
CONTINUOUS
 10
6.787000
 20
3.529240
  0
VERTEX
  8
0
  6
CONTINUOUS
 10
6.805480
 20
3.514720
  0
VERTEX
  8
0
  6
CONTINUOUS
 10
6.822640
 20
3.498880
  0
VERTEX
  8
0
  6
CONTINUOUS
 10
6.837160
 20
3.482600
  0
VERTEX
  8
0
  6
CONTINUOUS
 10
6.861800
 20
3.446960
  0
VERTEX
  8
0
  6
CONTINUOUS
 10
6.878960
 20
3.409120
  0
VERTEX
  8
0
  6
CONTINUOUS
 10
6.885560
 20
3.389760
  0
VERTEX
  8
0
  6
CONTINUOUS
 10
6.893040
 20
3.349720
  0
VERTEX
  8
0
  6
CONTINUOUS
 10
6.895240
 20
3.309680
  0
VERTEX
  8
0
  6
CONTINUOUS
 10
6.892160
 20
3.270520
  0
VERTEX
  8
0
  6
CONTINUOUS
 10
6.883800
 20
3.233120
  0
VERTEX
  8
0
  6
CONTINUOUS
 10
6.870600
 20
3.197920
  0
VERTEX
  8
0
  6
CONTINUOUS
 10
6.853440
 20
3.166240
  0
VERTEX
  8
0
  6
CONTINUOUS
 10
6.843760
 20
3.151720
  0
VERTEX
  8
0
  6
CONTINUOUS
 10
6.820880
 20
3.126640
  0
VERTEX
  8
0
  6
CONTINUOUS
 10
6.766760
 20
3.082640
  0
VERTEX
  8
0
  6
CONTINUOUS
 10
6.700320
 20
3.032480
  0
VERTEX
  8
0
  6
CONTINUOUS
 10
6.687120
 20
3.020600
  0
VERTEX
  8
0
  6
CONTINUOUS
 10
6.665560
 20
2.992880
  0
VERTEX
  8
0
  6
CONTINUOUS
 10
6.652800
 20
2.967360
  0
VERTEX
  8
0
  6
CONTINUOUS
 10
6.643120
 20
2.935680
  0
VERTEX
  8
0
  6
CONTINUOUS
 10
6.636520
 20
2.896080
  0
VERTEX
  8
0
  6
CONTINUOUS
 10
6.633440
 20
2.846360
  0
VERTEX
  8
0
  6
CONTINUOUS
 10
6.632560
 20
2.804120
  0
VERTEX
  8
0
  6
CONTINUOUS
 10
6.620240
 20
2.803680
  0
VERTEX
  8
0
  6
CONTINUOUS
 10
6.600440
 20
2.799280
  0
VERTEX
  8
0
  6
CONTINUOUS
 10
6.586360
 20
2.791800
  0
VERTEX
  8
0
  6
CONTINUOUS
 10
6.577120
 20
2.781240
  0
VERTEX
  8
0
  6
CONTINUOUS
 10
6.571840
 20
2.768480
  0
VERTEX
  8
0
  6
CONTINUOUS
 10
6.569200
 20
2.746920
  0
VERTEX
  8
0
  6
CONTINUOUS
 10
6.572720
 20
2.700280
  0
VERTEX
  8
0
  6
CONTINUOUS
 10
6.572280
 20
2.686200
  0
VERTEX
  8
0
  6
CONTINUOUS
 10
6.567880
 20
2.663320
  0
VERTEX
  8
0
  6
CONTINUOUS
 10
6.559960
 20
2.647040
  0
VERTEX
  8
0
  6
CONTINUOUS
 10
6.550280
 20
2.636040
  0
VERTEX
  8
0
  6
CONTINUOUS
 10
6.534880
 20
2.627240
  0
VERTEX
  8
0
  6
CONTINUOUS
 10
6.495280
 20
2.618880
  0
VERTEX
  8
0
  6
CONTINUOUS
 10
6.452160
 20
2.603040
  0
VERTEX
  8
0
  6
CONTINUOUS
 10
6.417840
 20
2.583240
  0
VERTEX
  8
0
  6
CONTINUOUS
 10
6.383080
 20
2.554200
  0
VERTEX
  8
0
  6
CONTINUOUS
 10
6.358440
 20
2.525600
  0
VERTEX
  8
0
  6
CONTINUOUS
 10
6.336440
 20
2.490400
  0
VERTEX
  8
0
  6
CONTINUOUS
 10
6.318840
 20
2.447280
  0
VERTEX
  8
0
  6
CONTINUOUS
 10
6.310920
 20
2.423520
  0
VERTEX
  8
0
  6
CONTINUOUS
 10
6.300360
 20
2.404600
  0
VERTEX
  8
0
  6
CONTINUOUS
 10
6.284520
 20
2.388760
  0
VERTEX
  8
0
  6
CONTINUOUS
 10
6.267800
 20
2.380840
  0
VERTEX
  8
0
  6
CONTINUOUS
 10
6.252840
 20
2.378640
  0
VERTEX
  8
0
  6
CONTINUOUS
 10
6.248880
 20
2.379960
  0
SEQEND
  8
0
  0
SOLID
  8
0
 62
    15
 10
6.725400
 20
1.159840
 11
7.373520
 21
1.534720
 12
6.706480
 22
1.129040
 13
7.354600
 23
1.503480
  0
POLYLINE
  8
0
  6
CONTINUOUS
 66
     1
 40
0.000000
 41
0.000000
  0
VERTEX
  8
0
  6
CONTINUOUS
 10
6.725400
 20
1.159840
  0
VERTEX
  8
0
  6
CONTINUOUS
 10
7.373520
 20
1.534720
  0
VERTEX
  8
0
  6
CONTINUOUS
 10
7.354600
 20
1.503480
  0
VERTEX
  8
0
  6
CONTINUOUS
 10
6.706480
 20
1.129040
  0
VERTEX
  8
0
  6
CONTINUOUS
 10
6.725400
 20
1.159840
  0
SEQEND
  8
0
  0
SOLID
  8
0
 62
    15
 10
6.611880
 20
1.746800
 11
7.260000
 21
2.121680
 12
6.681400
 22
1.740640
 13
7.329520
 23
2.115520
  0
POLYLINE
  8
0
  6
CONTINUOUS
 66
     1
 40
0.000000
 41
0.000000
  0
VERTEX
  8
0
  6
CONTINUOUS
 10
6.611880
 20
1.746800
  0
VERTEX
  8
0
  6
CONTINUOUS
 10
7.260000
 20
2.121680
  0
VERTEX
  8
0
  6
CONTINUOUS
 10
7.329520
 20
2.115520
  0
VERTEX
  8
0
  6
CONTINUOUS
 10
6.681400
 20
1.740640
  0
VERTEX
  8
0
  6
CONTINUOUS
 10
6.611880
 20
1.746800
  0
SEQEND
  8
0
  0
SOLID
  8
0
 62
    15
 10
6.681400
 20
1.740640
 11
7.329520
 21
2.115520
 12
6.741680
 22
1.727000
 13
7.389800
 23
2.101880
  0
POLYLINE
  8
0
  6
CONTINUOUS
 66
     1
 40
0.000000
 41
0.000000
  0
VERTEX
  8
0
  6
CONTINUOUS
 10
6.681400
 20
1.740640
  0
VERTEX
  8
0
  6
CONTINUOUS
 10
7.329520
 20
2.115520
  0
VERTEX
  8
0
  6
CONTINUOUS
 10
7.389800
 20
2.101880
  0
VERTEX
  8
0
  6
CONTINUOUS
 10
6.741680
 20
1.727000
  0
VERTEX
  8
0
  6
CONTINUOUS
 10
6.681400
 20
1.740640
  0
SEQEND
  8
0
  0
SOLID
  8
0
 62
    15
 10
6.741680
 20
1.727000
 11
7.389800
 21
2.101880
 12
6.793600
 22
1.706760
 13
7.441280
 23
2.081640
  0
POLYLINE
  8
0
  6
CONTINUOUS
 66
     1
 40
0.000000
 41
0.000000
  0
VERTEX
  8
0
  6
CONTINUOUS
 10
6.741680
 20
1.727000
  0
VERTEX
  8
0
  6
CONTINUOUS
 10
7.389800
 20
2.101880
  0
VERTEX
  8
0
  6
CONTINUOUS
 10
7.441280
 20
2.081640
  0
VERTEX
  8
0
  6
CONTINUOUS
 10
6.793600
 20
1.706760
  0
VERTEX
  8
0
  6
CONTINUOUS
 10
6.741680
 20
1.727000
  0
SEQEND
  8
0
  0
SOLID
  8
0
 62
     7
 10
6.793600
 20
1.706760
 11
7.441280
 21
2.081640
 12
6.836720
 22
1.681240
 13
7.484840
 23
2.056120
  0
POLYLINE
  8
0
  6
CONTINUOUS
 66
     1
 40
0.000000
 41
0.000000
  0
VERTEX
  8
0
  6
CONTINUOUS
 10
6.793600
 20
1.706760
  0
VERTEX
  8
0
  6
CONTINUOUS
 10
7.441280
 20
2.081640
  0
VERTEX
  8
0
  6
CONTINUOUS
 10
7.484840
 20
2.056120
  0
VERTEX
  8
0
  6
CONTINUOUS
 10
6.836720
 20
1.681240
  0
VERTEX
  8
0
  6
CONTINUOUS
 10
6.793600
 20
1.706760
  0
SEQEND
  8
0
  0
SOLID
  8
0
 62
     7
 10
6.836720
 20
1.681240
 11
7.484840
 21
2.056120
 12
6.871920
 22
1.650880
 13
7.520040
 23
2.025760
  0
POLYLINE
  8
0
  6
CONTINUOUS
 66
     1
 40
0.000000
 41
0.000000
  0
VERTEX
  8
0
  6
CONTINUOUS
 10
6.836720
 20
1.681240
  0
VERTEX
  8
0
  6
CONTINUOUS
 10
7.484840
 20
2.056120
  0
VERTEX
  8
0
  6
CONTINUOUS
 10
7.520040
 20
2.025760
  0
VERTEX
  8
0
  6
CONTINUOUS
 10
6.871920
 20
1.650880
  0
VERTEX
  8
0
  6
CONTINUOUS
 10
6.836720
 20
1.681240
  0
SEQEND
  8
0
  0
SOLID
  8
0
 62
     7
 10
6.871920
 20
1.650880
 11
7.520040
 21
2.025760
 12
6.900080
 22
1.617000
 13
7.548200
 23
1.991880
  0
POLYLINE
  8
0
  6
CONTINUOUS
 66
     1
 40
0.000000
 41
0.000000
  0
VERTEX
  8
0
  6
CONTINUOUS
 10
6.871920
 20
1.650880
  0
VERTEX
  8
0
  6
CONTINUOUS
 10
7.520040
 20
2.025760
  0
VERTEX
  8
0
  6
CONTINUOUS
 10
7.548200
 20
1.991880
  0
VERTEX
  8
0
  6
CONTINUOUS
 10
6.900080
 20
1.617000
  0
VERTEX
  8
0
  6
CONTINUOUS
 10
6.871920
 20
1.650880
  0
SEQEND
  8
0
  0
SOLID
  8
0
 62
     7
 10
6.900080
 20
1.617000
 11
7.548200
 21
1.991880
 12
6.920760
 22
1.580480
 13
7.568880
 23
1.955360
  0
POLYLINE
  8
0
  6
CONTINUOUS
 66
     1
 40
0.000000
 41
0.000000
  0
VERTEX
  8
0
  6
CONTINUOUS
 10
6.900080
 20
1.617000
  0
VERTEX
  8
0
  6
CONTINUOUS
 10
7.548200
 20
1.991880
  0
VERTEX
  8
0
  6
CONTINUOUS
 10
7.568880
 20
1.955360
  0
VERTEX
  8
0
  6
CONTINUOUS
 10
6.920760
 20
1.580480
  0
VERTEX
  8
0
  6
CONTINUOUS
 10
6.900080
 20
1.617000
  0
SEQEND
  8
0
  0
SOLID
  8
0
 62
     7
 10
6.920760
 20
1.580480
 11
7.568880
 21
1.955360
 12
6.935280
 22
1.541760
 13
7.582960
 23
1.916640
  0
POLYLINE
  8
0
  6
CONTINUOUS
 66
     1
 40
0.000000
 41
0.000000
  0
VERTEX
  8
0
  6
CONTINUOUS
 10
6.920760
 20
1.580480
  0
VERTEX
  8
0
  6
CONTINUOUS
 10
7.568880
 20
1.955360
  0
VERTEX
  8
0
  6
CONTINUOUS
 10
7.582960
 20
1.916640
  0
VERTEX
  8
0
  6
CONTINUOUS
 10
6.935280
 20
1.541760
  0
VERTEX
  8
0
  6
CONTINUOUS
 10
6.920760
 20
1.580480
  0
SEQEND
  8
0
  0
SOLID
  8
0
 62
    15
 10
6.935280
 20
1.541760
 11
7.582960
 21
1.916640
 12
6.945400
 22
1.462120
 13
7.593080
 23
1.837000
  0
POLYLINE
  8
0
  6
CONTINUOUS
 66
     1
 40
0.000000
 41
0.000000
  0
VERTEX
  8
0
  6
CONTINUOUS
 10
6.935280
 20
1.541760
  0
VERTEX
  8
0
  6
CONTINUOUS
 10
7.582960
 20
1.916640
  0
VERTEX
  8
0
  6
CONTINUOUS
 10
7.593080
 20
1.837000
  0
VERTEX
  8
0
  6
CONTINUOUS
 10
6.945400
 20
1.462120
  0
VERTEX
  8
0
  6
CONTINUOUS
 10
6.935280
 20
1.541760
  0
SEQEND
  8
0
  0
SOLID
  8
0
 62
    15
 10
6.945400
 20
1.462120
 11
7.593080
 21
1.837000
 12
6.933520
 22
1.385120
 13
7.581640
 23
1.760000
  0
POLYLINE
  8
0
  6
CONTINUOUS
 66
     1
 40
0.000000
 41
0.000000
  0
VERTEX
  8
0
  6
CONTINUOUS
 10
6.945400
 20
1.462120
  0
VERTEX
  8
0
  6
CONTINUOUS
 10
7.593080
 20
1.837000
  0
VERTEX
  8
0
  6
CONTINUOUS
 10
7.581640
 20
1.760000
  0
VERTEX
  8
0
  6
CONTINUOUS
 10
6.933520
 20
1.385120
  0
VERTEX
  8
0
  6
CONTINUOUS
 10
6.945400
 20
1.462120
  0
SEQEND
  8
0
  0
SOLID
  8
0
 62
    15
 10
6.933520
 20
1.385120
 11
7.581640
 21
1.760000
 12
6.903600
 22
1.318240
 13
7.551720
 23
1.693120
  0
POLYLINE
  8
0
  6
CONTINUOUS
 66
     1
 40
0.000000
 41
0.000000
  0
VERTEX
  8
0
  6
CONTINUOUS
 10
6.933520
 20
1.385120
  0
VERTEX
  8
0
  6
CONTINUOUS
 10
7.581640
 20
1.760000
  0
VERTEX
  8
0
  6
CONTINUOUS
 10
7.551720
 20
1.693120
  0
VERTEX
  8
0
  6
CONTINUOUS
 10
6.903600
 20
1.318240
  0
VERTEX
  8
0
  6
CONTINUOUS
 10
6.933520
 20
1.385120
  0
SEQEND
  8
0
  0
SOLID
  8
0
 62
    15
 10
6.903600
 20
1.318240
 11
7.551720
 21
1.693120
 12
6.882480
 22
1.290520
 13
7.530600
 23
1.665400
  0
POLYLINE
  8
0
  6
CONTINUOUS
 66
     1
 40
0.000000
 41
0.000000
  0
VERTEX
  8
0
  6
CONTINUOUS
 10
6.903600
 20
1.318240
  0
VERTEX
  8
0
  6
CONTINUOUS
 10
7.551720
 20
1.693120
  0
VERTEX
  8
0
  6
CONTINUOUS
 10
7.530600
 20
1.665400
  0
VERTEX
  8
0
  6
CONTINUOUS
 10
6.882480
 20
1.290520
  0
VERTEX
  8
0
  6
CONTINUOUS
 10
6.903600
 20
1.318240
  0
SEQEND
  8
0
  0
SOLID
  8
0
 62
    15
 10
6.882480
 20
1.290520
 11
7.530600
 21
1.665400
 12
6.858280
 22
1.268520
 13
7.506400
 23
1.642960
  0
POLYLINE
  8
0
  6
CONTINUOUS
 66
     1
 40
0.000000
 41
0.000000
  0
VERTEX
  8
0
  6
CONTINUOUS
 10
6.882480
 20
1.290520
  0
VERTEX
  8
0
  6
CONTINUOUS
 10
7.530600
 20
1.665400
  0
VERTEX
  8
0
  6
CONTINUOUS
 10
7.506400
 20
1.642960
  0
VERTEX
  8
0
  6
CONTINUOUS
 10
6.858280
 20
1.268520
  0
VERTEX
  8
0
  6
CONTINUOUS
 10
6.882480
 20
1.290520
  0
SEQEND
  8
0
  0
SOLID
  8
0
 62
    15
 10
6.858280
 20
1.268520
 11
7.506400
 21
1.642960
 12
6.816480
 22
1.234640
 13
7.464600
 23
1.609520
  0
POLYLINE
  8
0
  6
CONTINUOUS
 66
     1
 40
0.000000
 41
0.000000
  0
VERTEX
  8
0
  6
CONTINUOUS
 10
6.858280
 20
1.268520
  0
VERTEX
  8
0
  6
CONTINUOUS
 10
7.506400
 20
1.642960
  0
VERTEX
  8
0
  6
CONTINUOUS
 10
7.464600
 20
1.609520
  0
VERTEX
  8
0
  6
CONTINUOUS
 10
6.816480
 20
1.234640
  0
VERTEX
  8
0
  6
CONTINUOUS
 10
6.858280
 20
1.268520
  0
SEQEND
  8
0
  0
SOLID
  8
0
 62
    15
 10
6.816480
 20
1.234640
 11
7.464600
 21
1.609520
 12
6.797560
 22
1.221000
 13
7.445680
 23
1.595880
  0
POLYLINE
  8
0
  6
CONTINUOUS
 66
     1
 40
0.000000
 41
0.000000
  0
VERTEX
  8
0
  6
CONTINUOUS
 10
6.816480
 20
1.234640
  0
VERTEX
  8
0
  6
CONTINUOUS
 10
7.464600
 20
1.609520
  0
VERTEX
  8
0
  6
CONTINUOUS
 10
7.445680
 20
1.595880
  0
VERTEX
  8
0
  6
CONTINUOUS
 10
6.797560
 20
1.221000
  0
VERTEX
  8
0
  6
CONTINUOUS
 10
6.816480
 20
1.234640
  0
SEQEND
  8
0
  0
SOLID
  8
0
 62
    15
 10
6.797560
 20
1.221000
 11
7.445680
 21
1.595880
 12
6.780400
 22
1.208240
 13
7.428520
 23
1.583120
  0
POLYLINE
  8
0
  6
CONTINUOUS
 66
     1
 40
0.000000
 41
0.000000
  0
VERTEX
  8
0
  6
CONTINUOUS
 10
6.797560
 20
1.221000
  0
VERTEX
  8
0
  6
CONTINUOUS
 10
7.445680
 20
1.595880
  0
VERTEX
  8
0
  6
CONTINUOUS
 10
7.428520
 20
1.583120
  0
VERTEX
  8
0
  6
CONTINUOUS
 10
6.780400
 20
1.208240
  0
VERTEX
  8
0
  6
CONTINUOUS
 10
6.797560
 20
1.221000
  0
SEQEND
  8
0
  0
SOLID
  8
0
 62
    15
 10
6.780400
 20
1.208240
 11
7.428520
 21
1.583120
 12
6.750040
 22
1.184920
 13
7.398160
 23
1.559800
  0
POLYLINE
  8
0
  6
CONTINUOUS
 66
     1
 40
0.000000
 41
0.000000
  0
VERTEX
  8
0
  6
CONTINUOUS
 10
6.780400
 20
1.208240
  0
VERTEX
  8
0
  6
CONTINUOUS
 10
7.428520
 20
1.583120
  0
VERTEX
  8
0
  6
CONTINUOUS
 10
7.398160
 20
1.559800
  0
VERTEX
  8
0
  6
CONTINUOUS
 10
6.750040
 20
1.184920
  0
VERTEX
  8
0
  6
CONTINUOUS
 10
6.780400
 20
1.208240
  0
SEQEND
  8
0
  0
SOLID
  8
0
 62
    15
 10
6.750040
 20
1.184920
 11
7.398160
 21
1.559800
 12
6.725400
 22
1.159840
 13
7.373520
 23
1.534720
  0
POLYLINE
  8
0
  6
CONTINUOUS
 66
     1
 40
0.000000
 41
0.000000
  0
VERTEX
  8
0
  6
CONTINUOUS
 10
6.750040
 20
1.184920
  0
VERTEX
  8
0
  6
CONTINUOUS
 10
7.398160
 20
1.559800
  0
VERTEX
  8
0
  6
CONTINUOUS
 10
7.373520
 20
1.534720
  0
VERTEX
  8
0
  6
CONTINUOUS
 10
6.725400
 20
1.159840
  0
VERTEX
  8
0
  6
CONTINUOUS
 10
6.750040
 20
1.184920
  0
SEQEND
  8
0
  0
SOLID
  8
0
 62
    15
 10
5.327960
 20
1.746800
 11
5.975640
 21
2.121680
 12
6.611880
 22
1.746800
 13
7.260000
 23
2.121680
  0
POLYLINE
  8
0
  6
CONTINUOUS
 66
     1
 40
0.000000
 41
0.000000
  0
VERTEX
  8
0
  6
CONTINUOUS
 10
5.327960
 20
1.746800
  0
VERTEX
  8
0
  6
CONTINUOUS
 10
5.975640
 20
2.121680
  0
VERTEX
  8
0
  6
CONTINUOUS
 10
7.260000
 20
2.121680
  0
VERTEX
  8
0
  6
CONTINUOUS
 10
6.611880
 20
1.746800
  0
VERTEX
  8
0
  6
CONTINUOUS
 10
5.327960
 20
1.746800
  0
SEQEND
  8
0
  0
SOLID
  8
0
 62
    15
 10
6.706480
 20
1.129040
 11
7.354600
 21
1.503480
 12
6.693280
 22
1.088120
 13
7.340960
 23
1.463000
  0
POLYLINE
  8
0
  6
CONTINUOUS
 66
     1
 40
0.000000
 41
0.000000
  0
VERTEX
  8
0
  6
CONTINUOUS
 10
6.706480
 20
1.129040
  0
VERTEX
  8
0
  6
CONTINUOUS
 10
7.354600
 20
1.503480
  0
VERTEX
  8
0
  6
CONTINUOUS
 10
7.340960
 20
1.463000
  0
VERTEX
  8
0
  6
CONTINUOUS
 10
6.693280
 20
1.088120
  0
VERTEX
  8
0
  6
CONTINUOUS
 10
6.706480
 20
1.129040
  0
SEQEND
  8
0
  0
SOLID
  8
0
 62
    15
 10
6.693280
 20
1.088120
 11
7.340960
 21
1.463000
 12
6.684920
 22
1.032680
 13
7.333040
 23
1.407560
  0
POLYLINE
  8
0
  6
CONTINUOUS
 66
     1
 40
0.000000
 41
0.000000
  0
VERTEX
  8
0
  6
CONTINUOUS
 10
6.693280
 20
1.088120
  0
VERTEX
  8
0
  6
CONTINUOUS
 10
7.340960
 20
1.463000
  0
VERTEX
  8
0
  6
CONTINUOUS
 10
7.333040
 20
1.407560
  0
VERTEX
  8
0
  6
CONTINUOUS
 10
6.684920
 20
1.032680
  0
VERTEX
  8
0
  6
CONTINUOUS
 10
6.693280
 20
1.088120
  0
SEQEND
  8
0
  0
SOLID
  8
0
 62
    15
 10
6.642680
 20
0.948200
 11
7.290360
 21
1.323080
 12
6.623760
 22
0.927520
 13
7.271880
 23
1.301960
  0
POLYLINE
  8
0
  6
CONTINUOUS
 66
     1
 40
0.000000
 41
0.000000
  0
VERTEX
  8
0
  6
CONTINUOUS
 10
6.642680
 20
0.948200
  0
VERTEX
  8
0
  6
CONTINUOUS
 10
7.290360
 20
1.323080
  0
VERTEX
  8
0
  6
CONTINUOUS
 10
7.271880
 20
1.301960
  0
VERTEX
  8
0
  6
CONTINUOUS
 10
6.623760
 20
0.927520
  0
VERTEX
  8
0
  6
CONTINUOUS
 10
6.642680
 20
0.948200
  0
SEQEND
  8
0
  0
SOLID
  8
0
 62
    15
 10
6.623760
 20
0.927520
 11
7.271880
 21
1.301960
 12
6.618920
 22
0.898920
 13
7.267040
 23
1.273800
  0
POLYLINE
  8
0
  6
CONTINUOUS
 66
     1
 40
0.000000
 41
0.000000
  0
VERTEX
  8
0
  6
CONTINUOUS
 10
6.623760
 20
0.927520
  0
VERTEX
  8
0
  6
CONTINUOUS
 10
7.271880
 20
1.301960
  0
VERTEX
  8
0
  6
CONTINUOUS
 10
7.267040
 20
1.273800
  0
VERTEX
  8
0
  6
CONTINUOUS
 10
6.618920
 20
0.898920
  0
VERTEX
  8
0
  6
CONTINUOUS
 10
6.623760
 20
0.927520
  0
SEQEND
  8
0
  0
SOLID
  8
0
 62
    15
 10
6.684920
 20
1.032680
 11
7.333040
 21
1.407560
 12
6.682280
 22
0.959200
 13
7.330400
 23
1.333640
  0
POLYLINE
  8
0
  6
CONTINUOUS
 66
     1
 40
0.000000
 41
0.000000
  0
VERTEX
  8
0
  6
CONTINUOUS
 10
6.684920
 20
1.032680
  0
VERTEX
  8
0
  6
CONTINUOUS
 10
7.333040
 20
1.407560
  0
VERTEX
  8
0
  6
CONTINUOUS
 10
7.330400
 20
1.333640
  0
VERTEX
  8
0
  6
CONTINUOUS
 10
6.682280
 20
0.959200
  0
VERTEX
  8
0
  6
CONTINUOUS
 10
6.684920
 20
1.032680
  0
SEQEND
  8
0
  0
SOLID
  8
0
 62
    15
 10
6.682280
 20
0.959200
 11
7.330400
 21
1.333640
 12
6.682280
 22
0.956120
 13
7.330400
 23
1.331000
  0
POLYLINE
  8
0
  6
CONTINUOUS
 66
     1
 40
0.000000
 41
0.000000
  0
VERTEX
  8
0
  6
CONTINUOUS
 10
6.682280
 20
0.959200
  0
VERTEX
  8
0
  6
CONTINUOUS
 10
7.330400
 20
1.333640
  0
VERTEX
  8
0
  6
CONTINUOUS
 10
7.330400
 20
1.331000
  0
VERTEX
  8
0
  6
CONTINUOUS
 10
6.682280
 20
0.956120
  0
VERTEX
  8
0
  6
CONTINUOUS
 10
6.682280
 20
0.959200
  0
SEQEND
  8
0
  0
SOLID
  8
0
 62
    15
 10
6.618920
 20
0.898920
 11
7.267040
 21
1.273800
 12
6.619800
 22
0.883520
 13
7.267920
 23
1.258400
  0
POLYLINE
  8
0
  6
CONTINUOUS
 66
     1
 40
0.000000
 41
0.000000
  0
VERTEX
  8
0
  6
CONTINUOUS
 10
6.618920
 20
0.898920
  0
VERTEX
  8
0
  6
CONTINUOUS
 10
7.267040
 20
1.273800
  0
VERTEX
  8
0
  6
CONTINUOUS
 10
7.267920
 20
1.258400
  0
VERTEX
  8
0
  6
CONTINUOUS
 10
6.619800
 20
0.883520
  0
VERTEX
  8
0
  6
CONTINUOUS
 10
6.618920
 20
0.898920
  0
SEQEND
  8
0
  0
SOLID
  8
0
 62
    15
 10
6.619800
 20
0.883520
 11
7.267920
 21
1.258400
 12
6.621120
 22
0.868120
 13
7.269240
 23
1.243000
  0
POLYLINE
  8
0
  6
CONTINUOUS
 66
     1
 40
0.000000
 41
0.000000
  0
VERTEX
  8
0
  6
CONTINUOUS
 10
6.619800
 20
0.883520
  0
VERTEX
  8
0
  6
CONTINUOUS
 10
7.267920
 20
1.258400
  0
VERTEX
  8
0
  6
CONTINUOUS
 10
7.269240
 20
1.243000
  0
VERTEX
  8
0
  6
CONTINUOUS
 10
6.621120
 20
0.868120
  0
VERTEX
  8
0
  6
CONTINUOUS
 10
6.619800
 20
0.883520
  0
SEQEND
  8
0
  0
SOLID
  8
0
 62
    15
 10
6.621120
 20
0.868120
 11
7.269240
 21
1.243000
 12
6.622000
 22
0.838200
 13
7.270120
 23
1.213080
  0
POLYLINE
  8
0
  6
CONTINUOUS
 66
     1
 40
0.000000
 41
0.000000
  0
VERTEX
  8
0
  6
CONTINUOUS
 10
6.621120
 20
0.868120
  0
VERTEX
  8
0
  6
CONTINUOUS
 10
7.269240
 20
1.243000
  0
VERTEX
  8
0
  6
CONTINUOUS
 10
7.270120
 20
1.213080
  0
VERTEX
  8
0
  6
CONTINUOUS
 10
6.622000
 20
0.838200
  0
VERTEX
  8
0
  6
CONTINUOUS
 10
6.621120
 20
0.868120
  0
SEQEND
  8
0
  0
SOLID
  8
0
 62
    15
 10
6.485160
 20
0.746240
 11
7.133280
 21
1.121120
 12
6.450400
 22
0.722040
 13
7.098080
 23
1.096920
  0
POLYLINE
  8
0
  6
CONTINUOUS
 66
     1
 40
0.000000
 41
0.000000
  0
VERTEX
  8
0
  6
CONTINUOUS
 10
6.485160
 20
0.746240
  0
VERTEX
  8
0
  6
CONTINUOUS
 10
7.133280
 20
1.121120
  0
VERTEX
  8
0
  6
CONTINUOUS
 10
7.098080
 20
1.096920
  0
VERTEX
  8
0
  6
CONTINUOUS
 10
6.450400
 20
0.722040
  0
VERTEX
  8
0
  6
CONTINUOUS
 10
6.485160
 20
0.746240
  0
SEQEND
  8
0
  0
SOLID
  8
0
 62
    15
 10
6.450400
 20
0.722040
 11
7.098080
 21
1.096920
 12
6.416520
 22
0.688160
 13
7.064200
 23
1.063040
  0
POLYLINE
  8
0
  6
CONTINUOUS
 66
     1
 40
0.000000
 41
0.000000
  0
VERTEX
  8
0
  6
CONTINUOUS
 10
6.450400
 20
0.722040
  0
VERTEX
  8
0
  6
CONTINUOUS
 10
7.098080
 20
1.096920
  0
VERTEX
  8
0
  6
CONTINUOUS
 10
7.064200
 20
1.063040
  0
VERTEX
  8
0
  6
CONTINUOUS
 10
6.416520
 20
0.688160
  0
VERTEX
  8
0
  6
CONTINUOUS
 10
6.450400
 20
0.722040
  0
SEQEND
  8
0
  0
SOLID
  8
0
 62
    15
 10
6.416520
 20
0.688160
 11
7.064200
 21
1.063040
 12
6.386600
 22
0.642400
 13
7.034280
 23
1.017280
  0
POLYLINE
  8
0
  6
CONTINUOUS
 66
     1
 40
0.000000
 41
0.000000
  0
VERTEX
  8
0
  6
CONTINUOUS
 10
6.416520
 20
0.688160
  0
VERTEX
  8
0
  6
CONTINUOUS
 10
7.064200
 20
1.063040
  0
VERTEX
  8
0
  6
CONTINUOUS
 10
7.034280
 20
1.017280
  0
VERTEX
  8
0
  6
CONTINUOUS
 10
6.386600
 20
0.642400
  0
VERTEX
  8
0
  6
CONTINUOUS
 10
6.416520
 20
0.688160
  0
SEQEND
  8
0
  0
SOLID
  8
0
 62
    15
 10
6.622000
 20
0.838200
 11
7.270120
 21
1.213080
 12
6.617600
 22
0.815760
 13
7.265720
 23
1.190640
  0
POLYLINE
  8
0
  6
CONTINUOUS
 66
     1
 40
0.000000
 41
0.000000
  0
VERTEX
  8
0
  6
CONTINUOUS
 10
6.622000
 20
0.838200
  0
VERTEX
  8
0
  6
CONTINUOUS
 10
7.270120
 20
1.213080
  0
VERTEX
  8
0
  6
CONTINUOUS
 10
7.265720
 20
1.190640
  0
VERTEX
  8
0
  6
CONTINUOUS
 10
6.617600
 20
0.815760
  0
VERTEX
  8
0
  6
CONTINUOUS
 10
6.622000
 20
0.838200
  0
SEQEND
  8
0
  0
SOLID
  8
0
 62
    15
 10
6.617600
 20
0.815760
 11
7.265720
 21
1.190640
 12
6.609680
 22
0.799480
 13
7.257800
 23
1.174360
  0
POLYLINE
  8
0
  6
CONTINUOUS
 66
     1
 40
0.000000
 41
0.000000
  0
VERTEX
  8
0
  6
CONTINUOUS
 10
6.617600
 20
0.815760
  0
VERTEX
  8
0
  6
CONTINUOUS
 10
7.265720
 20
1.190640
  0
VERTEX
  8
0
  6
CONTINUOUS
 10
7.257800
 20
1.174360
  0
VERTEX
  8
0
  6
CONTINUOUS
 10
6.609680
 20
0.799480
  0
VERTEX
  8
0
  6
CONTINUOUS
 10
6.617600
 20
0.815760
  0
SEQEND
  8
0
  0
SOLID
  8
0
 62
    15
 10
6.609680
 20
0.799480
 11
7.257800
 21
1.174360
 12
6.600000
 22
0.788480
 13
7.247680
 23
1.163360
  0
POLYLINE
  8
0
  6
CONTINUOUS
 66
     1
 40
0.000000
 41
0.000000
  0
VERTEX
  8
0
  6
CONTINUOUS
 10
6.609680
 20
0.799480
  0
VERTEX
  8
0
  6
CONTINUOUS
 10
7.257800
 20
1.174360
  0
VERTEX
  8
0
  6
CONTINUOUS
 10
7.247680
 20
1.163360
  0
VERTEX
  8
0
  6
CONTINUOUS
 10
6.600000
 20
0.788480
  0
VERTEX
  8
0
  6
CONTINUOUS
 10
6.609680
 20
0.799480
  0
SEQEND
  8
0
  0
SOLID
  8
0
 62
    15
 10
6.386600
 20
0.642400
 11
7.034280
 21
1.017280
 12
6.363720
 22
0.583000
 13
7.011840
 23
0.957880
  0
POLYLINE
  8
0
  6
CONTINUOUS
 66
     1
 40
0.000000
 41
0.000000
  0
VERTEX
  8
0
  6
CONTINUOUS
 10
6.386600
 20
0.642400
  0
VERTEX
  8
0
  6
CONTINUOUS
 10
7.034280
 20
1.017280
  0
VERTEX
  8
0
  6
CONTINUOUS
 10
7.011840
 20
0.957880
  0
VERTEX
  8
0
  6
CONTINUOUS
 10
6.363720
 20
0.583000
  0
VERTEX
  8
0
  6
CONTINUOUS
 10
6.386600
 20
0.642400
  0
SEQEND
  8
0
  0
SOLID
  8
0
 62
    15
 10
6.363720
 20
0.583000
 11
7.011840
 21
0.957880
 12
6.350080
 22
0.557040
 13
6.998200
 23
0.931920
  0
POLYLINE
  8
0
  6
CONTINUOUS
 66
     1
 40
0.000000
 41
0.000000
  0
VERTEX
  8
0
  6
CONTINUOUS
 10
6.363720
 20
0.583000
  0
VERTEX
  8
0
  6
CONTINUOUS
 10
7.011840
 20
0.957880
  0
VERTEX
  8
0
  6
CONTINUOUS
 10
6.998200
 20
0.931920
  0
VERTEX
  8
0
  6
CONTINUOUS
 10
6.350080
 20
0.557040
  0
VERTEX
  8
0
  6
CONTINUOUS
 10
6.363720
 20
0.583000
  0
SEQEND
  8
0
  0
SOLID
  8
0
 62
    15
 10
6.350080
 20
0.557040
 11
6.998200
 21
0.931920
 12
6.334240
 22
0.541200
 13
6.981920
 23
0.915640
  0
POLYLINE
  8
0
  6
CONTINUOUS
 66
     1
 40
0.000000
 41
0.000000
  0
VERTEX
  8
0
  6
CONTINUOUS
 10
6.350080
 20
0.557040
  0
VERTEX
  8
0
  6
CONTINUOUS
 10
6.998200
 20
0.931920
  0
VERTEX
  8
0
  6
CONTINUOUS
 10
6.981920
 20
0.915640
  0
VERTEX
  8
0
  6
CONTINUOUS
 10
6.334240
 20
0.541200
  0
VERTEX
  8
0
  6
CONTINUOUS
 10
6.350080
 20
0.557040
  0
SEQEND
  8
0
  0
POLYLINE
  8
0
  6
CONTINUOUS
 66
     1
 40
0.000000
 41
0.000000
  0
VERTEX
  8
0
  6
CONTINUOUS
 10
6.298600
 20
0.532400
  0
VERTEX
  8
0
  6
CONTINUOUS
 10
5.327960
 20
0.532400
  0
VERTEX
  8
0
  6
CONTINUOUS
 10
5.327960
 20
1.746800
  0
VERTEX
  8
0
  6
CONTINUOUS
 10
6.611880
 20
1.746800
  0
VERTEX
  8
0
  6
CONTINUOUS
 10
6.681400
 20
1.740640
  0
VERTEX
  8
0
  6
CONTINUOUS
 10
6.741680
 20
1.727000
  0
VERTEX
  8
0
  6
CONTINUOUS
 10
6.793600
 20
1.706760
  0
VERTEX
  8
0
  6
CONTINUOUS
 10
6.836720
 20
1.681240
  0
VERTEX
  8
0
  6
CONTINUOUS
 10
6.871920
 20
1.650880
  0
VERTEX
  8
0
  6
CONTINUOUS
 10
6.900080
 20
1.617000
  0
VERTEX
  8
0
  6
CONTINUOUS
 10
6.920760
 20
1.580480
  0
VERTEX
  8
0
  6
CONTINUOUS
 10
6.935280
 20
1.541760
  0
VERTEX
  8
0
  6
CONTINUOUS
 10
6.945400
 20
1.462120
  0
VERTEX
  8
0
  6
CONTINUOUS
 10
6.933520
 20
1.385120
  0
VERTEX
  8
0
  6
CONTINUOUS
 10
6.903600
 20
1.318240
  0
VERTEX
  8
0
  6
CONTINUOUS
 10
6.882480
 20
1.290520
  0
VERTEX
  8
0
  6
CONTINUOUS
 10
6.858280
 20
1.268520
  0
VERTEX
  8
0
  6
CONTINUOUS
 10
6.797560
 20
1.221000
  0
VERTEX
  8
0
  6
CONTINUOUS
 10
6.750040
 20
1.184920
  0
VERTEX
  8
0
  6
CONTINUOUS
 10
6.725400
 20
1.159840
  0
VERTEX
  8
0
  6
CONTINUOUS
 10
6.706480
 20
1.129040
  0
VERTEX
  8
0
  6
CONTINUOUS
 10
6.693280
 20
1.088120
  0
VERTEX
  8
0
  6
CONTINUOUS
 10
6.684920
 20
1.032680
  0
VERTEX
  8
0
  6
CONTINUOUS
 10
6.682280
 20
0.956120
  0
VERTEX
  8
0
  6
CONTINUOUS
 10
6.659400
 20
0.954360
  0
VERTEX
  8
0
  6
CONTINUOUS
 10
6.642680
 20
0.948200
  0
VERTEX
  8
0
  6
CONTINUOUS
 10
6.623760
 20
0.927520
  0
VERTEX
  8
0
  6
CONTINUOUS
 10
6.618920
 20
0.898920
  0
VERTEX
  8
0
  6
CONTINUOUS
 10
6.622000
 20
0.838200
  0
VERTEX
  8
0
  6
CONTINUOUS
 10
6.617600
 20
0.815760
  0
VERTEX
  8
0
  6
CONTINUOUS
 10
6.609680
 20
0.799480
  0
VERTEX
  8
0
  6
CONTINUOUS
 10
6.600000
 20
0.788480
  0
VERTEX
  8
0
  6
CONTINUOUS
 10
6.579760
 20
0.777920
  0
VERTEX
  8
0
  6
CONTINUOUS
 10
6.545000
 20
0.770880
  0
VERTEX
  8
0
  6
CONTINUOUS
 10
6.517720
 20
0.762080
  0
VERTEX
  8
0
  6
CONTINUOUS
 10
6.485160
 20
0.746240
  0
VERTEX
  8
0
  6
CONTINUOUS
 10
6.450400
 20
0.722040
  0
VERTEX
  8
0
  6
CONTINUOUS
 10
6.416520
 20
0.688160
  0
VERTEX
  8
0
  6
CONTINUOUS
 10
6.386600
 20
0.642400
  0
VERTEX
  8
0
  6
CONTINUOUS
 10
6.363720
 20
0.583000
  0
VERTEX
  8
0
  6
CONTINUOUS
 10
6.350080
 20
0.557040
  0
VERTEX
  8
0
  6
CONTINUOUS
 10
6.334240
 20
0.541200
  0
VERTEX
  8
0
  6
CONTINUOUS
 10
6.317520
 20
0.533280
  0
VERTEX
  8
0
  6
CONTINUOUS
 10
6.302560
 20
0.531080
  0
VERTEX
  8
0
  6
CONTINUOUS
 10
6.298600
 20
0.532400
  0
SEQEND
  8
0
  0
TEXT
  8
0
 10
7.088840
 20
0.731280
 40
0.138122
  1
BA  251
 41
1.000000
  7
SN0
 71
     0
 72
     5
 11
7.678767
 21
0.731280
  0
TEXT
  8
0
 10
6.859160
 20
0.539440
 40
0.138122
  1
1-1/4" x 1-5/8"
 41
1.000000
  7
SN0
 71
     0
 72
     5
 11
7.906938
 21
0.539440
  0
TEXT
  8
0
 10
7.365600
 20
3.497120
 40
0.138122
  1
stool cap
 41
1.000000
  7
SN0
 71
     0
 72
     5
 11
8.028972
 21
3.497120
  0
TEXT
  8
0
 10
7.559200
 20
3.305280
 40
0.138122
  1
251
 41
1.000000
  7
SN0
 71
     0
 72
     5
 11
7.836117
 21
3.305280
  0
ENDSEC
  0
EOF
