  0
SECTION
  2
HEADER
  9
$ACADVER
  1
AC1006
  9
$EXTMIN
 10
1.799821
 20
0.383683
  9
$EXTMAX
 10
19.378689
 20
7.410114
  9
$LTSCALE
 40
0.077512
  9
$PDMODE
 70
    35
  9
$PDSIZE
 40
0.062009
  0
ENDSEC
  0
SECTION
  2
TABLES
  0
TABLE
  2
LTYPE
 70
     9
  0
LTYPE
  2
CONTINUOUS
 70
    64
  3
Solid line
 72
    65
 73
     0
 40
0.000000
  0
LTYPE
  2
DASHED
 70
    64
  3
__ __ __ __ __ __ __ __ __ __ __ __ __ __ __
 72
    65
 73
     2
 40
0.000581
 49
0.000388
 49
-0.000194
  0
LTYPE
  2
HIDDEN
 70
    64
  3
 _ _ _ _ _ _ _ _ _ _ _ _ _ _ _ _ _ _ _ _ _ _
 72
    65
 73
     2
 40
0.000291
 49
0.000194
 49
-0.000097
  0
LTYPE
  2
CENTER
 70
    64
  3
____ _ ____ _ ____ _ ____ _ ____ _ ____ _ ____
 72
    65
 73
     4
 40
0.001550
 49
0.000969
 49
-0.000194
 49
0.000194
 49
-0.000194
  0
LTYPE
  2
PHANTOM
 70
    64
  3
_____ _ _ _____ _ _ _____ _ _ _____ _ _ ____
 72
    65
 73
     6
 40
0.001938
 49
0.000969
 49
-0.000194
 49
0.000194
 49
-0.000194
 49
0.000194
 49
-0.000194
  0
LTYPE
  2
DOT
 70
    64
  3
...............................................
 72
    65
 73
     2
 40
0.000194
 49
0.000000
 49
-0.000194
  0
LTYPE
  2
DASHDOT
 70
    64
  3
__ . __ . __ . __ . __ . __ . __ . __ . __ . __
 72
    65
 73
     4
 40
0.000775
 49
0.000388
 49
-0.000194
 49
0.000000
 49
-0.000194
  0
LTYPE
  2
BORDER
 70
    64
  3
__ __ . __ __ . __ __ . __ __ . __ __ . __ __
 72
    65
 73
     6
 40
0.001356
 49
0.000388
 49
-0.000194
 49
0.000388
 49
-0.000194
 49
0.000000
 49
-0.000194
  0
LTYPE
  2
DIVIDE
 70
    64
  3
__ . . __ . . __ . . __ . . __ . . __ . . __
 72
    65
 73
     6
 40
0.000969
 49
0.000388
 49
-0.000194
 49
0.000000
 49
-0.000194
 49
0.000000
 49
-0.000194
  0
LTYPE
  2
DOTDOT
 70
    64
  3
 . .  . .  . .  . .  . .  . . 
 72
    65
 73
     5
 40
0.000426
 49
-0.000194
 49
0.000000
 49
-0.000194
 49
0.000000
 49
-0.000194
  0
ENDTAB
  0
TABLE
  2
STYLE
 70
     4
  0
STYLE
 70
     0
  2
SN0
 40
0.000000
 41
0.000775
 50
0.000000
 71
     0
 42
0.000000
  3
ROMAND
  0
STYLE
 70
    68
  2
SV0
 40
0.000000
 41
0.000775
 50
0.000000
 71
     0
 42
0.000000
  3
ROMAND
  0
STYLE
 70
     0
  2
SN1
 40
0.000000
 41
0.000775
 50
0.000000
 71
     0
 42
0.000000
  3
ROMAND
  0
STYLE
 70
    68
  2
SV1
 40
0.000000
 41
0.000775
 50
0.000000
 71
     0
 42
0.000000
  3
ROMAND
  0
ENDTAB
  0
TABLE
  2
LAYER
 70
     3
  0
LAYER
  2
FOREGROUND
 70
    64
 62
     7
  6
CONTINUOUS
  0
LAYER
  2
BACKGROUND
 70
    65
 62
    -7
  6
CONTINUOUS
  0
LAYER
  2
0
 70
    64
 62
     7
  6
CONTINUOUS
  0
ENDTAB
  0
ENDSEC
  0
SECTION
  2
ENTITIES
  0
POLYLINE
  8
FOREGROUND
  6
CONTINUOUS
 66
     1
 40
0.000000
 41
0.000000
  0
VERTEX
  8
FOREGROUND
  6
CONTINUOUS
 10
0.000000
 20
7.793797
  0
VERTEX
  8
FOREGROUND
  6
CONTINUOUS
 10
8.499928
 20
7.793797
  0
VERTEX
  8
FOREGROUND
  6
CONTINUOUS
 10
8.499928
 20
-3.205882
  0
VERTEX
  8
FOREGROUND
  6
CONTINUOUS
 10
0.000000
 20
-3.205882
  0
VERTEX
  8
FOREGROUND
  6
CONTINUOUS
 10
0.000000
 20
7.793797
  0
SEQEND
  8
0
  0
POLYLINE
  8
FOREGROUND
  6
CONTINUOUS
 66
     1
 40
0.000000
 41
0.000000
  0
VERTEX
  8
FOREGROUND
  6
CONTINUOUS
 10
0.000000
 20
7.793797
  0
VERTEX
  8
FOREGROUND
  6
CONTINUOUS
 10
8.499928
 20
7.793797
  0
VERTEX
  8
FOREGROUND
  6
CONTINUOUS
 10
8.499928
 20
-3.205882
  0
VERTEX
  8
FOREGROUND
  6
CONTINUOUS
 10
0.000000
 20
-3.205882
  0
VERTEX
  8
FOREGROUND
  6
CONTINUOUS
 10
0.000000
 20
7.793797
  0
SEQEND
  8
0
  0
TEXT
  8
0
 10
19.346134
 20
0.389109
 40
0.010474
  1
B242
 41
1.000000
  7
SN0
 71
     0
 72
     5
 11
19.372502
 21
0.389109
  0
POLYLINE
  8
0
  6
CONTINUOUS
 66
     1
 40
0.013952
 41
0.013952
  0
VERTEX
  8
0
  6
CONTINUOUS
 10
2.973347
 20
7.023331
  0
VERTEX
  8
0
  6
CONTINUOUS
 10
2.958620
 20
7.024881
  0
VERTEX
  8
0
  6
CONTINUOUS
 10
2.950094
 20
7.027207
  0
VERTEX
  8
0
  6
CONTINUOUS
 10
2.936141
 20
7.039608
  0
VERTEX
  8
0
  6
CONTINUOUS
 10
2.929941
 20
7.057436
  0
VERTEX
  8
0
  6
CONTINUOUS
 10
2.929165
 20
7.074489
  0
VERTEX
  8
0
  6
CONTINUOUS
 10
2.930716
 20
7.092316
  0
VERTEX
  8
0
  6
CONTINUOUS
 10
2.078087
 20
7.091541
  0
VERTEX
  8
0
  6
CONTINUOUS
 10
2.058710
 20
7.085340
  0
VERTEX
  8
0
  6
CONTINUOUS
 10
2.041657
 20
7.069063
  0
VERTEX
  8
0
  6
CONTINUOUS
 10
2.032356
 20
7.041934
  0
VERTEX
  8
0
  6
CONTINUOUS
 10
2.026930
 20
7.020230
  0
VERTEX
  8
0
  6
CONTINUOUS
 10
2.022279
 20
7.016355
  0
VERTEX
  8
0
  6
CONTINUOUS
 10
1.990499
 20
7.003953
  0
VERTEX
  8
0
  6
CONTINUOUS
 10
1.978873
 20
6.995427
  0
VERTEX
  8
0
  6
CONTINUOUS
 10
1.963370
 20
6.972948
  0
VERTEX
  8
0
  6
CONTINUOUS
 10
1.952519
 20
6.934968
  0
VERTEX
  8
0
  6
CONTINUOUS
 10
1.946318
 20
6.888461
  0
VERTEX
  8
0
  6
CONTINUOUS
 10
1.940117
 20
6.872958
  0
VERTEX
  8
0
  6
CONTINUOUS
 10
1.926940
 20
6.866757
  0
VERTEX
  8
0
  6
CONTINUOUS
 10
1.807572
 20
6.866757
  0
VERTEX
  8
0
  6
CONTINUOUS
 10
1.807572
 20
6.312549
  0
VERTEX
  8
0
  6
CONTINUOUS
 10
7.324076
 20
6.312549
  0
VERTEX
  8
0
  6
CONTINUOUS
 10
7.324076
 20
6.855131
  0
VERTEX
  8
0
  6
CONTINUOUS
 10
7.318650
 20
6.857456
  0
VERTEX
  8
0
  6
CONTINUOUS
 10
7.226411
 20
6.857456
  0
VERTEX
  8
0
  6
CONTINUOUS
 10
7.220986
 20
6.859781
  0
VERTEX
  8
0
  6
CONTINUOUS
 10
7.211684
 20
6.880709
  0
VERTEX
  8
0
  6
CONTINUOUS
 10
7.202383
 20
6.939618
  0
VERTEX
  8
0
  6
CONTINUOUS
 10
7.192306
 20
6.964422
  0
VERTEX
  8
0
  6
CONTINUOUS
 10
7.176029
 20
6.986125
  0
VERTEX
  8
0
  6
CONTINUOUS
 10
7.149675
 20
7.001628
  0
VERTEX
  8
0
  6
CONTINUOUS
 10
7.129522
 20
7.008604
  0
VERTEX
  8
0
  6
CONTINUOUS
 10
7.124096
 20
7.020230
  0
VERTEX
  8
0
  6
CONTINUOUS
 10
7.118670
 20
7.045809
  0
VERTEX
  8
0
  6
CONTINUOUS
 10
7.107819
 20
7.065962
  0
VERTEX
  8
0
  6
CONTINUOUS
 10
7.086890
 20
7.079914
  0
VERTEX
  8
0
  6
CONTINUOUS
 10
7.061312
 20
7.083015
  0
VERTEX
  8
0
  6
CONTINUOUS
 10
6.259841
 20
7.083015
  0
VERTEX
  8
0
  6
CONTINUOUS
 10
6.255190
 20
7.051235
  0
VERTEX
  8
0
  6
CONTINUOUS
 10
6.244339
 20
7.031857
  0
VERTEX
  8
0
  6
CONTINUOUS
 10
6.230387
 20
7.021006
  0
VERTEX
  8
0
  6
CONTINUOUS
 10
6.211784
 20
7.017905
  0
VERTEX
  8
0
  6
CONTINUOUS
 10
6.133497
 20
7.021006
  0
VERTEX
  8
0
  6
CONTINUOUS
 10
6.066062
 20
7.018680
  0
VERTEX
  8
0
  6
CONTINUOUS
 10
5.979249
 20
7.007829
  0
VERTEX
  8
0
  6
CONTINUOUS
 10
5.905613
 20
6.989226
  0
VERTEX
  8
0
  6
CONTINUOUS
 10
5.862206
 20
6.973723
  0
VERTEX
  8
0
  6
CONTINUOUS
 10
5.671528
 20
6.890786
  0
VERTEX
  8
0
  6
CONTINUOUS
 10
5.565337
 20
6.857456
  0
VERTEX
  8
0
  6
CONTINUOUS
 10
5.466897
 20
6.838853
  0
VERTEX
  8
0
  6
CONTINUOUS
 10
5.345204
 20
6.827226
  0
VERTEX
  8
0
  6
CONTINUOUS
 10
5.298697
 20
6.825676
  0
VERTEX
  8
0
  6
CONTINUOUS
 10
5.297922
 20
6.849705
  0
VERTEX
  8
0
  6
CONTINUOUS
 10
5.289395
 20
6.888461
  0
VERTEX
  8
0
  6
CONTINUOUS
 10
5.274668
 20
6.923341
  0
VERTEX
  8
0
  6
CONTINUOUS
 10
5.253740
 20
6.955121
  0
VERTEX
  8
0
  6
CONTINUOUS
 10
5.226611
 20
6.982250
  0
VERTEX
  8
0
  6
CONTINUOUS
 10
5.177778
 20
7.011704
  0
VERTEX
  8
0
  6
CONTINUOUS
 10
5.140573
 20
7.023331
  0
VERTEX
  8
0
  6
CONTINUOUS
 10
5.101042
 20
7.027207
  0
VERTEX
  8
0
  6
CONTINUOUS
 10
5.061511
 20
7.023331
  0
VERTEX
  8
0
  6
CONTINUOUS
 10
5.025080
 20
7.011704
  0
VERTEX
  8
0
  6
CONTINUOUS
 10
4.991750
 20
6.993101
  0
VERTEX
  8
0
  6
CONTINUOUS
 10
4.962296
 20
6.969073
  0
VERTEX
  8
0
  6
CONTINUOUS
 10
4.938267
 20
6.939618
  0
VERTEX
  8
0
  6
CONTINUOUS
 10
4.919665
 20
6.906288
  0
VERTEX
  8
0
  6
CONTINUOUS
 10
4.908038
 20
6.869083
  0
VERTEX
  8
0
  6
CONTINUOUS
 10
4.904162
 20
6.828002
  0
VERTEX
  8
0
  6
CONTINUOUS
 10
4.795646
 20
6.828002
  0
VERTEX
  8
0
  6
CONTINUOUS
 10
4.794871
 20
6.851255
  0
VERTEX
  8
0
  6
CONTINUOUS
 10
4.786345
 20
6.889236
  0
VERTEX
  8
0
  6
CONTINUOUS
 10
4.771617
 20
6.924891
  0
VERTEX
  8
0
  6
CONTINUOUS
 10
4.750689
 20
6.955896
  0
VERTEX
  8
0
  6
CONTINUOUS
 10
4.723560
 20
6.983025
  0
VERTEX
  8
0
  6
CONTINUOUS
 10
4.692556
 20
7.003953
  0
VERTEX
  8
0
  6
CONTINUOUS
 10
4.656900
 20
7.018680
  0
VERTEX
  8
0
  6
CONTINUOUS
 10
4.618919
 20
7.027207
  0
VERTEX
  8
0
  6
CONTINUOUS
 10
4.578613
 20
7.027207
  0
VERTEX
  8
0
  6
CONTINUOUS
 10
4.539858
 20
7.018680
  0
VERTEX
  8
0
  6
CONTINUOUS
 10
4.504977
 20
7.003953
  0
VERTEX
  8
0
  6
CONTINUOUS
 10
4.473198
 20
6.983025
  0
VERTEX
  8
0
  6
CONTINUOUS
 10
4.446068
 20
6.955896
  0
VERTEX
  8
0
  6
CONTINUOUS
 10
4.425140
 20
6.924891
  0
VERTEX
  8
0
  6
CONTINUOUS
 10
4.410413
 20
6.889236
  0
VERTEX
  8
0
  6
CONTINUOUS
 10
4.401887
 20
6.851255
  0
VERTEX
  8
0
  6
CONTINUOUS
 10
4.401112
 20
6.831102
  0
VERTEX
  8
0
  6
CONTINUOUS
 10
4.402662
 20
6.831102
  0
VERTEX
  8
0
  6
CONTINUOUS
 10
4.286394
 20
6.831102
  0
VERTEX
  8
0
  6
CONTINUOUS
 10
4.285619
 20
6.855131
  0
VERTEX
  8
0
  6
CONTINUOUS
 10
4.277093
 20
6.893111
  0
VERTEX
  8
0
  6
CONTINUOUS
 10
4.262366
 20
6.928767
  0
VERTEX
  8
0
  6
CONTINUOUS
 10
4.241438
 20
6.959771
  0
VERTEX
  8
0
  6
CONTINUOUS
 10
4.214309
 20
6.986900
  0
VERTEX
  8
0
  6
CONTINUOUS
 10
4.183304
 20
7.008604
  0
VERTEX
  8
0
  6
CONTINUOUS
 10
4.147649
 20
7.023331
  0
VERTEX
  8
0
  6
CONTINUOUS
 10
4.109668
 20
7.031857
  0
VERTEX
  8
0
  6
CONTINUOUS
 10
4.069362
 20
7.031857
  0
VERTEX
  8
0
  6
CONTINUOUS
 10
4.030606
 20
7.023331
  0
VERTEX
  8
0
  6
CONTINUOUS
 10
3.995726
 20
7.008604
  0
VERTEX
  8
0
  6
CONTINUOUS
 10
3.963946
 20
6.986900
  0
VERTEX
  8
0
  6
CONTINUOUS
 10
3.936817
 20
6.959771
  0
VERTEX
  8
0
  6
CONTINUOUS
 10
3.915889
 20
6.928767
  0
VERTEX
  8
0
  6
CONTINUOUS
 10
3.901162
 20
6.893111
  0
VERTEX
  8
0
  6
CONTINUOUS
 10
3.892635
 20
6.855131
  0
VERTEX
  8
0
  6
CONTINUOUS
 10
3.891860
 20
6.831102
  0
VERTEX
  8
0
  6
CONTINUOUS
 10
3.801947
 20
6.835753
  0
VERTEX
  8
0
  6
CONTINUOUS
 10
3.688780
 20
6.849705
  0
VERTEX
  8
0
  6
CONTINUOUS
 10
3.595766
 20
6.870633
  0
VERTEX
  8
0
  6
CONTINUOUS
 10
3.495000
 20
6.905513
  0
VERTEX
  8
0
  6
CONTINUOUS
 10
3.328350
 20
6.978374
  0
VERTEX
  8
0
  6
CONTINUOUS
 10
3.261690
 20
7.000853
  0
VERTEX
  8
0
  6
CONTINUOUS
 10
3.184179
 20
7.017130
  0
VERTEX
  8
0
  6
CONTINUOUS
 10
3.124495
 20
7.024106
  0
VERTEX
  8
0
  6
CONTINUOUS
 10
3.019079
 20
7.025656
  0
VERTEX
  8
0
  6
CONTINUOUS
 10
2.973347
 20
7.023331
  0
SEQEND
  8
0
  0
SOLID
  8
0
 62
    15
 10
5.653700
 20
4.977798
 11
5.644399
 21
5.697107
 12
5.742838
 22
4.982449
 13
5.733537
 23
5.701757
  0
POLYLINE
  8
0
  6
CONTINUOUS
 66
     1
 40
0.000000
 41
0.000000
  0
VERTEX
  8
0
  6
CONTINUOUS
 10
5.653700
 20
4.977798
  0
VERTEX
  8
0
  6
CONTINUOUS
 10
5.644399
 20
5.697107
  0
VERTEX
  8
0
  6
CONTINUOUS
 10
5.733537
 20
5.701757
  0
VERTEX
  8
0
  6
CONTINUOUS
 10
5.742838
 20
4.982449
  0
VERTEX
  8
0
  6
CONTINUOUS
 10
5.653700
 20
4.977798
  0
SEQEND
  8
0
  0
SOLID
  8
0
 62
    15
 10
3.411288
 20
5.178554
 11
3.401986
 21
5.897087
 12
3.479498
 22
5.176228
 13
3.470197
 23
5.895536
  0
POLYLINE
  8
0
  6
CONTINUOUS
 66
     1
 40
0.000000
 41
0.000000
  0
VERTEX
  8
0
  6
CONTINUOUS
 10
3.411288
 20
5.178554
  0
VERTEX
  8
0
  6
CONTINUOUS
 10
3.401986
 20
5.897087
  0
VERTEX
  8
0
  6
CONTINUOUS
 10
3.470197
 20
5.895536
  0
VERTEX
  8
0
  6
CONTINUOUS
 10
3.479498
 20
5.176228
  0
VERTEX
  8
0
  6
CONTINUOUS
 10
3.411288
 20
5.178554
  0
SEQEND
  8
0
  0
SOLID
  8
0
 62
    15
 10
3.479498
 20
5.176228
 11
3.470197
 21
5.895536
 12
3.539182
 22
5.170027
 13
3.529881
 23
5.888560
  0
POLYLINE
  8
0
  6
CONTINUOUS
 66
     1
 40
0.000000
 41
0.000000
  0
VERTEX
  8
0
  6
CONTINUOUS
 10
3.479498
 20
5.176228
  0
VERTEX
  8
0
  6
CONTINUOUS
 10
3.470197
 20
5.895536
  0
VERTEX
  8
0
  6
CONTINUOUS
 10
3.529881
 20
5.888560
  0
VERTEX
  8
0
  6
CONTINUOUS
 10
3.539182
 20
5.170027
  0
VERTEX
  8
0
  6
CONTINUOUS
 10
3.479498
 20
5.176228
  0
SEQEND
  8
0
  0
SOLID
  8
0
 62
    15
 10
3.539182
 20
5.170027
 11
3.529881
 21
5.888560
 12
3.591890
 22
5.159951
 13
3.582589
 23
5.878484
  0
POLYLINE
  8
0
  6
CONTINUOUS
 66
     1
 40
0.000000
 41
0.000000
  0
VERTEX
  8
0
  6
CONTINUOUS
 10
3.539182
 20
5.170027
  0
VERTEX
  8
0
  6
CONTINUOUS
 10
3.529881
 20
5.888560
  0
VERTEX
  8
0
  6
CONTINUOUS
 10
3.582589
 20
5.878484
  0
VERTEX
  8
0
  6
CONTINUOUS
 10
3.591890
 20
5.159951
  0
VERTEX
  8
0
  6
CONTINUOUS
 10
3.539182
 20
5.170027
  0
SEQEND
  8
0
  0
SOLID
  8
0
 62
    15
 10
3.591890
 20
5.159951
 11
3.582589
 21
5.878484
 12
3.639172
 22
5.146774
 13
3.629871
 23
5.865307
  0
POLYLINE
  8
0
  6
CONTINUOUS
 66
     1
 40
0.000000
 41
0.000000
  0
VERTEX
  8
0
  6
CONTINUOUS
 10
3.591890
 20
5.159951
  0
VERTEX
  8
0
  6
CONTINUOUS
 10
3.582589
 20
5.878484
  0
VERTEX
  8
0
  6
CONTINUOUS
 10
3.629871
 20
5.865307
  0
VERTEX
  8
0
  6
CONTINUOUS
 10
3.639172
 20
5.146774
  0
VERTEX
  8
0
  6
CONTINUOUS
 10
3.591890
 20
5.159951
  0
SEQEND
  8
0
  0
SOLID
  8
0
 62
    15
 10
3.639172
 20
5.146774
 11
3.629871
 21
5.865307
 12
3.682579
 22
5.131271
 13
3.673277
 23
5.849804
  0
POLYLINE
  8
0
  6
CONTINUOUS
 66
     1
 40
0.000000
 41
0.000000
  0
VERTEX
  8
0
  6
CONTINUOUS
 10
3.639172
 20
5.146774
  0
VERTEX
  8
0
  6
CONTINUOUS
 10
3.629871
 20
5.865307
  0
VERTEX
  8
0
  6
CONTINUOUS
 10
3.673277
 20
5.849804
  0
VERTEX
  8
0
  6
CONTINUOUS
 10
3.682579
 20
5.131271
  0
VERTEX
  8
0
  6
CONTINUOUS
 10
3.639172
 20
5.146774
  0
SEQEND
  8
0
  0
SOLID
  8
0
 62
    15
 10
3.682579
 20
5.131271
 11
3.673277
 21
5.849804
 12
3.764741
 22
5.095616
 13
3.755440
 23
5.814149
  0
POLYLINE
  8
0
  6
CONTINUOUS
 66
     1
 40
0.000000
 41
0.000000
  0
VERTEX
  8
0
  6
CONTINUOUS
 10
3.682579
 20
5.131271
  0
VERTEX
  8
0
  6
CONTINUOUS
 10
3.673277
 20
5.849804
  0
VERTEX
  8
0
  6
CONTINUOUS
 10
3.755440
 20
5.814149
  0
VERTEX
  8
0
  6
CONTINUOUS
 10
3.764741
 20
5.095616
  0
VERTEX
  8
0
  6
CONTINUOUS
 10
3.682579
 20
5.131271
  0
SEQEND
  8
0
  0
SOLID
  8
0
 62
    15
 10
3.764741
 20
5.095616
 11
3.755440
 21
5.814149
 12
3.850004
 22
5.057635
 13
3.840702
 23
5.776944
  0
POLYLINE
  8
0
  6
CONTINUOUS
 66
     1
 40
0.000000
 41
0.000000
  0
VERTEX
  8
0
  6
CONTINUOUS
 10
3.764741
 20
5.095616
  0
VERTEX
  8
0
  6
CONTINUOUS
 10
3.755440
 20
5.814149
  0
VERTEX
  8
0
  6
CONTINUOUS
 10
3.840702
 20
5.776944
  0
VERTEX
  8
0
  6
CONTINUOUS
 10
3.850004
 20
5.057635
  0
VERTEX
  8
0
  6
CONTINUOUS
 10
3.764741
 20
5.095616
  0
SEQEND
  8
0
  0
SOLID
  8
0
 62
    15
 10
3.850004
 20
5.057635
 11
3.840702
 21
5.776944
 12
3.897286
 22
5.039808
 13
3.887985
 23
5.759116
  0
POLYLINE
  8
0
  6
CONTINUOUS
 66
     1
 40
0.000000
 41
0.000000
  0
VERTEX
  8
0
  6
CONTINUOUS
 10
3.850004
 20
5.057635
  0
VERTEX
  8
0
  6
CONTINUOUS
 10
3.840702
 20
5.776944
  0
VERTEX
  8
0
  6
CONTINUOUS
 10
3.887985
 20
5.759116
  0
VERTEX
  8
0
  6
CONTINUOUS
 10
3.897286
 20
5.039808
  0
VERTEX
  8
0
  6
CONTINUOUS
 10
3.850004
 20
5.057635
  0
SEQEND
  8
0
  0
SOLID
  8
0
 62
    15
 10
3.897286
 20
5.039808
 11
3.887985
 21
5.759116
 12
3.950769
 22
5.023530
 13
3.941468
 23
5.742063
  0
POLYLINE
  8
0
  6
CONTINUOUS
 66
     1
 40
0.000000
 41
0.000000
  0
VERTEX
  8
0
  6
CONTINUOUS
 10
3.897286
 20
5.039808
  0
VERTEX
  8
0
  6
CONTINUOUS
 10
3.887985
 20
5.759116
  0
VERTEX
  8
0
  6
CONTINUOUS
 10
3.941468
 20
5.742063
  0
VERTEX
  8
0
  6
CONTINUOUS
 10
3.950769
 20
5.023530
  0
VERTEX
  8
0
  6
CONTINUOUS
 10
3.897286
 20
5.039808
  0
SEQEND
  8
0
  0
SOLID
  8
0
 62
    15
 10
3.950769
 20
5.023530
 11
3.941468
 21
5.742063
 12
4.010453
 22
5.008803
 13
4.001152
 23
5.727336
  0
POLYLINE
  8
0
  6
CONTINUOUS
 66
     1
 40
0.000000
 41
0.000000
  0
VERTEX
  8
0
  6
CONTINUOUS
 10
3.950769
 20
5.023530
  0
VERTEX
  8
0
  6
CONTINUOUS
 10
3.941468
 20
5.742063
  0
VERTEX
  8
0
  6
CONTINUOUS
 10
4.001152
 20
5.727336
  0
VERTEX
  8
0
  6
CONTINUOUS
 10
4.010453
 20
5.008803
  0
VERTEX
  8
0
  6
CONTINUOUS
 10
3.950769
 20
5.023530
  0
SEQEND
  8
0
  0
SOLID
  8
0
 62
    15
 10
4.010453
 20
5.008803
 11
4.001152
 21
5.727336
 12
4.078663
 22
4.996401
 13
4.069362
 23
5.715709
  0
POLYLINE
  8
0
  6
CONTINUOUS
 66
     1
 40
0.000000
 41
0.000000
  0
VERTEX
  8
0
  6
CONTINUOUS
 10
4.010453
 20
5.008803
  0
VERTEX
  8
0
  6
CONTINUOUS
 10
4.001152
 20
5.727336
  0
VERTEX
  8
0
  6
CONTINUOUS
 10
4.069362
 20
5.715709
  0
VERTEX
  8
0
  6
CONTINUOUS
 10
4.078663
 20
4.996401
  0
VERTEX
  8
0
  6
CONTINUOUS
 10
4.010453
 20
5.008803
  0
SEQEND
  8
0
  0
SOLID
  8
0
 62
    15
 10
4.078663
 20
4.996401
 11
4.069362
 21
5.715709
 12
4.156950
 22
4.987875
 13
4.147649
 23
5.707183
  0
POLYLINE
  8
0
  6
CONTINUOUS
 66
     1
 40
0.000000
 41
0.000000
  0
VERTEX
  8
0
  6
CONTINUOUS
 10
4.078663
 20
4.996401
  0
VERTEX
  8
0
  6
CONTINUOUS
 10
4.069362
 20
5.715709
  0
VERTEX
  8
0
  6
CONTINUOUS
 10
4.147649
 20
5.707183
  0
VERTEX
  8
0
  6
CONTINUOUS
 10
4.156950
 20
4.987875
  0
VERTEX
  8
0
  6
CONTINUOUS
 10
4.078663
 20
4.996401
  0
SEQEND
  8
0
  0
SOLID
  8
0
 62
    15
 10
4.156950
 20
4.987875
 11
4.147649
 21
5.707183
 12
4.246863
 22
4.983224
 13
4.237562
 23
5.702532
  0
POLYLINE
  8
0
  6
CONTINUOUS
 66
     1
 40
0.000000
 41
0.000000
  0
VERTEX
  8
0
  6
CONTINUOUS
 10
4.156950
 20
4.987875
  0
VERTEX
  8
0
  6
CONTINUOUS
 10
4.147649
 20
5.707183
  0
VERTEX
  8
0
  6
CONTINUOUS
 10
4.237562
 20
5.702532
  0
VERTEX
  8
0
  6
CONTINUOUS
 10
4.246863
 20
4.983224
  0
VERTEX
  8
0
  6
CONTINUOUS
 10
4.156950
 20
4.987875
  0
SEQEND
  8
0
  0
SOLID
  8
0
 62
    15
 10
4.246863
 20
4.983224
 11
4.237562
 21
5.702532
 12
4.246863
 22
4.987100
 13
4.237562
 23
5.706408
  0
POLYLINE
  8
0
  6
CONTINUOUS
 66
     1
 40
0.000000
 41
0.000000
  0
VERTEX
  8
0
  6
CONTINUOUS
 10
4.246863
 20
4.983224
  0
VERTEX
  8
0
  6
CONTINUOUS
 10
4.237562
 20
5.702532
  0
VERTEX
  8
0
  6
CONTINUOUS
 10
4.237562
 20
5.706408
  0
VERTEX
  8
0
  6
CONTINUOUS
 10
4.246863
 20
4.987100
  0
VERTEX
  8
0
  6
CONTINUOUS
 10
4.246863
 20
4.983224
  0
SEQEND
  8
0
  0
SOLID
  8
0
 62
    15
 10
4.246863
 20
4.987100
 11
4.237562
 21
5.706408
 12
4.250739
 22
5.026631
 13
4.241438
 23
5.745939
  0
POLYLINE
  8
0
  6
CONTINUOUS
 66
     1
 40
0.000000
 41
0.000000
  0
VERTEX
  8
0
  6
CONTINUOUS
 10
4.246863
 20
4.987100
  0
VERTEX
  8
0
  6
CONTINUOUS
 10
4.237562
 20
5.706408
  0
VERTEX
  8
0
  6
CONTINUOUS
 10
4.241438
 20
5.745939
  0
VERTEX
  8
0
  6
CONTINUOUS
 10
4.250739
 20
5.026631
  0
VERTEX
  8
0
  6
CONTINUOUS
 10
4.246863
 20
4.987100
  0
SEQEND
  8
0
  0
SOLID
  8
0
 62
    15
 10
4.250739
 20
5.026631
 11
4.241438
 21
5.745939
 12
4.262366
 22
5.063836
 13
4.253064
 23
5.783144
  0
POLYLINE
  8
0
  6
CONTINUOUS
 66
     1
 40
0.000000
 41
0.000000
  0
VERTEX
  8
0
  6
CONTINUOUS
 10
4.250739
 20
5.026631
  0
VERTEX
  8
0
  6
CONTINUOUS
 10
4.241438
 20
5.745939
  0
VERTEX
  8
0
  6
CONTINUOUS
 10
4.253064
 20
5.783144
  0
VERTEX
  8
0
  6
CONTINUOUS
 10
4.262366
 20
5.063836
  0
VERTEX
  8
0
  6
CONTINUOUS
 10
4.250739
 20
5.026631
  0
SEQEND
  8
0
  0
SOLID
  8
0
 62
    15
 10
4.262366
 20
5.063836
 11
4.253064
 21
5.783144
 12
4.280969
 22
5.097166
 13
4.271667
 23
5.816474
  0
POLYLINE
  8
0
  6
CONTINUOUS
 66
     1
 40
0.000000
 41
0.000000
  0
VERTEX
  8
0
  6
CONTINUOUS
 10
4.262366
 20
5.063836
  0
VERTEX
  8
0
  6
CONTINUOUS
 10
4.253064
 20
5.783144
  0
VERTEX
  8
0
  6
CONTINUOUS
 10
4.271667
 20
5.816474
  0
VERTEX
  8
0
  6
CONTINUOUS
 10
4.280969
 20
5.097166
  0
VERTEX
  8
0
  6
CONTINUOUS
 10
4.262366
 20
5.063836
  0
SEQEND
  8
0
  0
SOLID
  8
0
 62
    15
 10
4.280969
 20
5.097166
 11
4.271667
 21
5.816474
 12
4.304997
 22
5.126621
 13
4.295696
 23
5.845929
  0
POLYLINE
  8
0
  6
CONTINUOUS
 66
     1
 40
0.000000
 41
0.000000
  0
VERTEX
  8
0
  6
CONTINUOUS
 10
4.280969
 20
5.097166
  0
VERTEX
  8
0
  6
CONTINUOUS
 10
4.271667
 20
5.816474
  0
VERTEX
  8
0
  6
CONTINUOUS
 10
4.295696
 20
5.845929
  0
VERTEX
  8
0
  6
CONTINUOUS
 10
4.304997
 20
5.126621
  0
VERTEX
  8
0
  6
CONTINUOUS
 10
4.280969
 20
5.097166
  0
SEQEND
  8
0
  0
SOLID
  8
0
 62
    15
 10
4.304997
 20
5.126621
 11
4.295696
 21
5.845929
 12
4.334452
 22
5.150649
 13
4.325150
 23
5.869958
  0
POLYLINE
  8
0
  6
CONTINUOUS
 66
     1
 40
0.000000
 41
0.000000
  0
VERTEX
  8
0
  6
CONTINUOUS
 10
4.304997
 20
5.126621
  0
VERTEX
  8
0
  6
CONTINUOUS
 10
4.295696
 20
5.845929
  0
VERTEX
  8
0
  6
CONTINUOUS
 10
4.325150
 20
5.869958
  0
VERTEX
  8
0
  6
CONTINUOUS
 10
4.334452
 20
5.150649
  0
VERTEX
  8
0
  6
CONTINUOUS
 10
4.304997
 20
5.126621
  0
SEQEND
  8
0
  0
SOLID
  8
0
 62
    15
 10
4.334452
 20
5.150649
 11
4.325150
 21
5.869958
 12
4.367782
 22
5.169252
 13
4.358480
 23
5.887785
  0
POLYLINE
  8
0
  6
CONTINUOUS
 66
     1
 40
0.000000
 41
0.000000
  0
VERTEX
  8
0
  6
CONTINUOUS
 10
4.334452
 20
5.150649
  0
VERTEX
  8
0
  6
CONTINUOUS
 10
4.325150
 20
5.869958
  0
VERTEX
  8
0
  6
CONTINUOUS
 10
4.358480
 20
5.887785
  0
VERTEX
  8
0
  6
CONTINUOUS
 10
4.367782
 20
5.169252
  0
VERTEX
  8
0
  6
CONTINUOUS
 10
4.334452
 20
5.150649
  0
SEQEND
  8
0
  0
SOLID
  8
0
 62
    15
 10
4.367782
 20
5.169252
 11
4.358480
 21
5.887785
 12
4.404212
 22
5.180879
 13
4.394911
 23
5.899412
  0
POLYLINE
  8
0
  6
CONTINUOUS
 66
     1
 40
0.000000
 41
0.000000
  0
VERTEX
  8
0
  6
CONTINUOUS
 10
4.367782
 20
5.169252
  0
VERTEX
  8
0
  6
CONTINUOUS
 10
4.358480
 20
5.887785
  0
VERTEX
  8
0
  6
CONTINUOUS
 10
4.394911
 20
5.899412
  0
VERTEX
  8
0
  6
CONTINUOUS
 10
4.404212
 20
5.180879
  0
VERTEX
  8
0
  6
CONTINUOUS
 10
4.367782
 20
5.169252
  0
SEQEND
  8
0
  0
SOLID
  8
0
 62
    15
 10
4.404212
 20
5.180879
 11
4.394911
 21
5.899412
 12
4.443743
 22
5.184755
 13
4.434442
 23
5.904063
  0
POLYLINE
  8
0
  6
CONTINUOUS
 66
     1
 40
0.000000
 41
0.000000
  0
VERTEX
  8
0
  6
CONTINUOUS
 10
4.404212
 20
5.180879
  0
VERTEX
  8
0
  6
CONTINUOUS
 10
4.394911
 20
5.899412
  0
VERTEX
  8
0
  6
CONTINUOUS
 10
4.434442
 20
5.904063
  0
VERTEX
  8
0
  6
CONTINUOUS
 10
4.443743
 20
5.184755
  0
VERTEX
  8
0
  6
CONTINUOUS
 10
4.404212
 20
5.180879
  0
SEQEND
  8
0
  0
SOLID
  8
0
 62
    15
 10
4.443743
 20
5.184755
 11
4.434442
 21
5.904063
 12
4.483274
 22
5.180879
 13
4.473973
 23
5.899412
  0
POLYLINE
  8
0
  6
CONTINUOUS
 66
     1
 40
0.000000
 41
0.000000
  0
VERTEX
  8
0
  6
CONTINUOUS
 10
4.443743
 20
5.184755
  0
VERTEX
  8
0
  6
CONTINUOUS
 10
4.434442
 20
5.904063
  0
VERTEX
  8
0
  6
CONTINUOUS
 10
4.473973
 20
5.899412
  0
VERTEX
  8
0
  6
CONTINUOUS
 10
4.483274
 20
5.180879
  0
VERTEX
  8
0
  6
CONTINUOUS
 10
4.443743
 20
5.184755
  0
SEQEND
  8
0
  0
SOLID
  8
0
 62
    15
 10
4.483274
 20
5.180879
 11
4.473973
 21
5.899412
 12
4.520480
 22
5.169252
 13
4.511178
 23
5.887785
  0
POLYLINE
  8
0
  6
CONTINUOUS
 66
     1
 40
0.000000
 41
0.000000
  0
VERTEX
  8
0
  6
CONTINUOUS
 10
4.483274
 20
5.180879
  0
VERTEX
  8
0
  6
CONTINUOUS
 10
4.473973
 20
5.899412
  0
VERTEX
  8
0
  6
CONTINUOUS
 10
4.511178
 20
5.887785
  0
VERTEX
  8
0
  6
CONTINUOUS
 10
4.520480
 20
5.169252
  0
VERTEX
  8
0
  6
CONTINUOUS
 10
4.483274
 20
5.180879
  0
SEQEND
  8
0
  0
SOLID
  8
0
 62
    15
 10
4.520480
 20
5.169252
 11
4.511178
 21
5.887785
 12
4.553810
 22
5.150649
 13
4.544508
 23
5.869958
  0
POLYLINE
  8
0
  6
CONTINUOUS
 66
     1
 40
0.000000
 41
0.000000
  0
VERTEX
  8
0
  6
CONTINUOUS
 10
4.520480
 20
5.169252
  0
VERTEX
  8
0
  6
CONTINUOUS
 10
4.511178
 20
5.887785
  0
VERTEX
  8
0
  6
CONTINUOUS
 10
4.544508
 20
5.869958
  0
VERTEX
  8
0
  6
CONTINUOUS
 10
4.553810
 20
5.150649
  0
VERTEX
  8
0
  6
CONTINUOUS
 10
4.520480
 20
5.169252
  0
SEQEND
  8
0
  0
SOLID
  8
0
 62
    15
 10
4.553810
 20
5.150649
 11
4.544508
 21
5.869958
 12
4.583264
 22
5.126621
 13
4.573963
 23
5.845929
  0
POLYLINE
  8
0
  6
CONTINUOUS
 66
     1
 40
0.000000
 41
0.000000
  0
VERTEX
  8
0
  6
CONTINUOUS
 10
4.553810
 20
5.150649
  0
VERTEX
  8
0
  6
CONTINUOUS
 10
4.544508
 20
5.869958
  0
VERTEX
  8
0
  6
CONTINUOUS
 10
4.573963
 20
5.845929
  0
VERTEX
  8
0
  6
CONTINUOUS
 10
4.583264
 20
5.126621
  0
VERTEX
  8
0
  6
CONTINUOUS
 10
4.553810
 20
5.150649
  0
SEQEND
  8
0
  0
SOLID
  8
0
 62
    15
 10
4.583264
 20
5.126621
 11
4.573963
 21
5.845929
 12
4.607293
 22
5.097166
 13
4.597991
 23
5.816474
  0
POLYLINE
  8
0
  6
CONTINUOUS
 66
     1
 40
0.000000
 41
0.000000
  0
VERTEX
  8
0
  6
CONTINUOUS
 10
4.583264
 20
5.126621
  0
VERTEX
  8
0
  6
CONTINUOUS
 10
4.573963
 20
5.845929
  0
VERTEX
  8
0
  6
CONTINUOUS
 10
4.597991
 20
5.816474
  0
VERTEX
  8
0
  6
CONTINUOUS
 10
4.607293
 20
5.097166
  0
VERTEX
  8
0
  6
CONTINUOUS
 10
4.583264
 20
5.126621
  0
SEQEND
  8
0
  0
SOLID
  8
0
 62
    15
 10
4.607293
 20
5.097166
 11
4.597991
 21
5.816474
 12
4.625895
 22
5.063836
 13
4.616594
 23
5.783144
  0
POLYLINE
  8
0
  6
CONTINUOUS
 66
     1
 40
0.000000
 41
0.000000
  0
VERTEX
  8
0
  6
CONTINUOUS
 10
4.607293
 20
5.097166
  0
VERTEX
  8
0
  6
CONTINUOUS
 10
4.597991
 20
5.816474
  0
VERTEX
  8
0
  6
CONTINUOUS
 10
4.616594
 20
5.783144
  0
VERTEX
  8
0
  6
CONTINUOUS
 10
4.625895
 20
5.063836
  0
VERTEX
  8
0
  6
CONTINUOUS
 10
4.607293
 20
5.097166
  0
SEQEND
  8
0
  0
SOLID
  8
0
 62
    15
 10
4.625895
 20
5.063836
 11
4.616594
 21
5.783144
 12
4.637522
 22
5.026631
 13
4.628221
 23
5.745939
  0
POLYLINE
  8
0
  6
CONTINUOUS
 66
     1
 40
0.000000
 41
0.000000
  0
VERTEX
  8
0
  6
CONTINUOUS
 10
4.625895
 20
5.063836
  0
VERTEX
  8
0
  6
CONTINUOUS
 10
4.616594
 20
5.783144
  0
VERTEX
  8
0
  6
CONTINUOUS
 10
4.628221
 20
5.745939
  0
VERTEX
  8
0
  6
CONTINUOUS
 10
4.637522
 20
5.026631
  0
VERTEX
  8
0
  6
CONTINUOUS
 10
4.625895
 20
5.063836
  0
SEQEND
  8
0
  0
SOLID
  8
0
 62
    15
 10
4.641398
 20
4.983224
 11
4.632096
 21
5.702532
 12
4.756115
 22
4.983224
 13
4.746814
 23
5.702532
  0
POLYLINE
  8
0
  6
CONTINUOUS
 66
     1
 40
0.000000
 41
0.000000
  0
VERTEX
  8
0
  6
CONTINUOUS
 10
4.641398
 20
4.983224
  0
VERTEX
  8
0
  6
CONTINUOUS
 10
4.632096
 20
5.702532
  0
VERTEX
  8
0
  6
CONTINUOUS
 10
4.746814
 20
5.702532
  0
VERTEX
  8
0
  6
CONTINUOUS
 10
4.756115
 20
4.983224
  0
VERTEX
  8
0
  6
CONTINUOUS
 10
4.641398
 20
4.983224
  0
SEQEND
  8
0
  0
SOLID
  8
0
 62
    15
 10
4.637522
 20
5.026631
 11
4.628221
 21
5.745939
 12
4.641398
 22
4.987100
 13
4.632096
 23
5.706408
  0
POLYLINE
  8
0
  6
CONTINUOUS
 66
     1
 40
0.000000
 41
0.000000
  0
VERTEX
  8
0
  6
CONTINUOUS
 10
4.637522
 20
5.026631
  0
VERTEX
  8
0
  6
CONTINUOUS
 10
4.628221
 20
5.745939
  0
VERTEX
  8
0
  6
CONTINUOUS
 10
4.632096
 20
5.706408
  0
VERTEX
  8
0
  6
CONTINUOUS
 10
4.641398
 20
4.987100
  0
VERTEX
  8
0
  6
CONTINUOUS
 10
4.637522
 20
5.026631
  0
SEQEND
  8
0
  0
SOLID
  8
0
 62
    15
 10
4.756115
 20
4.983224
 11
4.746814
 21
5.702532
 12
4.759991
 22
5.022755
 13
4.750689
 23
5.742063
  0
POLYLINE
  8
0
  6
CONTINUOUS
 66
     1
 40
0.000000
 41
0.000000
  0
VERTEX
  8
0
  6
CONTINUOUS
 10
4.756115
 20
4.983224
  0
VERTEX
  8
0
  6
CONTINUOUS
 10
4.746814
 20
5.702532
  0
VERTEX
  8
0
  6
CONTINUOUS
 10
4.750689
 20
5.742063
  0
VERTEX
  8
0
  6
CONTINUOUS
 10
4.759991
 20
5.022755
  0
VERTEX
  8
0
  6
CONTINUOUS
 10
4.756115
 20
4.983224
  0
SEQEND
  8
0
  0
SOLID
  8
0
 62
    15
 10
4.759991
 20
5.022755
 11
4.750689
 21
5.742063
 12
4.771617
 22
5.059961
 13
4.762316
 23
5.778494
  0
POLYLINE
  8
0
  6
CONTINUOUS
 66
     1
 40
0.000000
 41
0.000000
  0
VERTEX
  8
0
  6
CONTINUOUS
 10
4.759991
 20
5.022755
  0
VERTEX
  8
0
  6
CONTINUOUS
 10
4.750689
 20
5.742063
  0
VERTEX
  8
0
  6
CONTINUOUS
 10
4.762316
 20
5.778494
  0
VERTEX
  8
0
  6
CONTINUOUS
 10
4.771617
 20
5.059961
  0
VERTEX
  8
0
  6
CONTINUOUS
 10
4.759991
 20
5.022755
  0
SEQEND
  8
0
  0
SOLID
  8
0
 62
    15
 10
4.771617
 20
5.059961
 11
4.762316
 21
5.778494
 12
4.790220
 22
5.093291
 13
4.780919
 23
5.812599
  0
POLYLINE
  8
0
  6
CONTINUOUS
 66
     1
 40
0.000000
 41
0.000000
  0
VERTEX
  8
0
  6
CONTINUOUS
 10
4.771617
 20
5.059961
  0
VERTEX
  8
0
  6
CONTINUOUS
 10
4.762316
 20
5.778494
  0
VERTEX
  8
0
  6
CONTINUOUS
 10
4.780919
 20
5.812599
  0
VERTEX
  8
0
  6
CONTINUOUS
 10
4.790220
 20
5.093291
  0
VERTEX
  8
0
  6
CONTINUOUS
 10
4.771617
 20
5.059961
  0
SEQEND
  8
0
  0
SOLID
  8
0
 62
    15
 10
4.790220
 20
5.093291
 11
4.780919
 21
5.812599
 12
4.814249
 22
5.122745
 13
4.804947
 23
5.841278
  0
POLYLINE
  8
0
  6
CONTINUOUS
 66
     1
 40
0.000000
 41
0.000000
  0
VERTEX
  8
0
  6
CONTINUOUS
 10
4.790220
 20
5.093291
  0
VERTEX
  8
0
  6
CONTINUOUS
 10
4.780919
 20
5.812599
  0
VERTEX
  8
0
  6
CONTINUOUS
 10
4.804947
 20
5.841278
  0
VERTEX
  8
0
  6
CONTINUOUS
 10
4.814249
 20
5.122745
  0
VERTEX
  8
0
  6
CONTINUOUS
 10
4.790220
 20
5.093291
  0
SEQEND
  8
0
  0
SOLID
  8
0
 62
    15
 10
4.814249
 20
5.122745
 11
4.804947
 21
5.841278
 12
4.843703
 22
5.146774
 13
4.834402
 23
5.866082
  0
POLYLINE
  8
0
  6
CONTINUOUS
 66
     1
 40
0.000000
 41
0.000000
  0
VERTEX
  8
0
  6
CONTINUOUS
 10
4.814249
 20
5.122745
  0
VERTEX
  8
0
  6
CONTINUOUS
 10
4.804947
 20
5.841278
  0
VERTEX
  8
0
  6
CONTINUOUS
 10
4.834402
 20
5.866082
  0
VERTEX
  8
0
  6
CONTINUOUS
 10
4.843703
 20
5.146774
  0
VERTEX
  8
0
  6
CONTINUOUS
 10
4.814249
 20
5.122745
  0
SEQEND
  8
0
  0
SOLID
  8
0
 62
    15
 10
4.843703
 20
5.146774
 11
4.834402
 21
5.866082
 12
4.877033
 22
5.165377
 13
4.867732
 23
5.883910
  0
POLYLINE
  8
0
  6
CONTINUOUS
 66
     1
 40
0.000000
 41
0.000000
  0
VERTEX
  8
0
  6
CONTINUOUS
 10
4.843703
 20
5.146774
  0
VERTEX
  8
0
  6
CONTINUOUS
 10
4.834402
 20
5.866082
  0
VERTEX
  8
0
  6
CONTINUOUS
 10
4.867732
 20
5.883910
  0
VERTEX
  8
0
  6
CONTINUOUS
 10
4.877033
 20
5.165377
  0
VERTEX
  8
0
  6
CONTINUOUS
 10
4.843703
 20
5.146774
  0
SEQEND
  8
0
  0
SOLID
  8
0
 62
    15
 10
4.877033
 20
5.165377
 11
4.867732
 21
5.883910
 12
4.913464
 22
5.177003
 13
4.904162
 23
5.895536
  0
POLYLINE
  8
0
  6
CONTINUOUS
 66
     1
 40
0.000000
 41
0.000000
  0
VERTEX
  8
0
  6
CONTINUOUS
 10
4.877033
 20
5.165377
  0
VERTEX
  8
0
  6
CONTINUOUS
 10
4.867732
 20
5.883910
  0
VERTEX
  8
0
  6
CONTINUOUS
 10
4.904162
 20
5.895536
  0
VERTEX
  8
0
  6
CONTINUOUS
 10
4.913464
 20
5.177003
  0
VERTEX
  8
0
  6
CONTINUOUS
 10
4.877033
 20
5.165377
  0
SEQEND
  8
0
  0
SOLID
  8
0
 62
    15
 10
4.913464
 20
5.177003
 11
4.904162
 21
5.895536
 12
4.952995
 22
5.180879
 13
4.943693
 23
5.899412
  0
POLYLINE
  8
0
  6
CONTINUOUS
 66
     1
 40
0.000000
 41
0.000000
  0
VERTEX
  8
0
  6
CONTINUOUS
 10
4.913464
 20
5.177003
  0
VERTEX
  8
0
  6
CONTINUOUS
 10
4.904162
 20
5.895536
  0
VERTEX
  8
0
  6
CONTINUOUS
 10
4.943693
 20
5.899412
  0
VERTEX
  8
0
  6
CONTINUOUS
 10
4.952995
 20
5.180879
  0
VERTEX
  8
0
  6
CONTINUOUS
 10
4.913464
 20
5.177003
  0
SEQEND
  8
0
  0
SOLID
  8
0
 62
    15
 10
4.952995
 20
5.180879
 11
4.943693
 21
5.899412
 12
4.992526
 22
5.177003
 13
4.983224
 23
5.895536
  0
POLYLINE
  8
0
  6
CONTINUOUS
 66
     1
 40
0.000000
 41
0.000000
  0
VERTEX
  8
0
  6
CONTINUOUS
 10
4.952995
 20
5.180879
  0
VERTEX
  8
0
  6
CONTINUOUS
 10
4.943693
 20
5.899412
  0
VERTEX
  8
0
  6
CONTINUOUS
 10
4.983224
 20
5.895536
  0
VERTEX
  8
0
  6
CONTINUOUS
 10
4.992526
 20
5.177003
  0
VERTEX
  8
0
  6
CONTINUOUS
 10
4.952995
 20
5.180879
  0
SEQEND
  8
0
  0
SOLID
  8
0
 62
    15
 10
4.992526
 20
5.177003
 11
4.983224
 21
5.895536
 12
5.029731
 22
5.165377
 13
5.020430
 23
5.883910
  0
POLYLINE
  8
0
  6
CONTINUOUS
 66
     1
 40
0.000000
 41
0.000000
  0
VERTEX
  8
0
  6
CONTINUOUS
 10
4.992526
 20
5.177003
  0
VERTEX
  8
0
  6
CONTINUOUS
 10
4.983224
 20
5.895536
  0
VERTEX
  8
0
  6
CONTINUOUS
 10
5.020430
 20
5.883910
  0
VERTEX
  8
0
  6
CONTINUOUS
 10
5.029731
 20
5.165377
  0
VERTEX
  8
0
  6
CONTINUOUS
 10
4.992526
 20
5.177003
  0
SEQEND
  8
0
  0
SOLID
  8
0
 62
    15
 10
5.029731
 20
5.165377
 11
5.020430
 21
5.883910
 12
5.063061
 22
5.146774
 13
5.053760
 23
5.866082
  0
POLYLINE
  8
0
  6
CONTINUOUS
 66
     1
 40
0.000000
 41
0.000000
  0
VERTEX
  8
0
  6
CONTINUOUS
 10
5.029731
 20
5.165377
  0
VERTEX
  8
0
  6
CONTINUOUS
 10
5.020430
 20
5.883910
  0
VERTEX
  8
0
  6
CONTINUOUS
 10
5.053760
 20
5.866082
  0
VERTEX
  8
0
  6
CONTINUOUS
 10
5.063061
 20
5.146774
  0
VERTEX
  8
0
  6
CONTINUOUS
 10
5.029731
 20
5.165377
  0
SEQEND
  8
0
  0
SOLID
  8
0
 62
    15
 10
5.063061
 20
5.146774
 11
5.053760
 21
5.866082
 12
5.092516
 22
5.122745
 13
5.083214
 23
5.841278
  0
POLYLINE
  8
0
  6
CONTINUOUS
 66
     1
 40
0.000000
 41
0.000000
  0
VERTEX
  8
0
  6
CONTINUOUS
 10
5.063061
 20
5.146774
  0
VERTEX
  8
0
  6
CONTINUOUS
 10
5.053760
 20
5.866082
  0
VERTEX
  8
0
  6
CONTINUOUS
 10
5.083214
 20
5.841278
  0
VERTEX
  8
0
  6
CONTINUOUS
 10
5.092516
 20
5.122745
  0
VERTEX
  8
0
  6
CONTINUOUS
 10
5.063061
 20
5.146774
  0
SEQEND
  8
0
  0
SOLID
  8
0
 62
    15
 10
5.092516
 20
5.122745
 11
5.083214
 21
5.841278
 12
5.116544
 22
5.093291
 13
5.107243
 23
5.812599
  0
POLYLINE
  8
0
  6
CONTINUOUS
 66
     1
 40
0.000000
 41
0.000000
  0
VERTEX
  8
0
  6
CONTINUOUS
 10
5.092516
 20
5.122745
  0
VERTEX
  8
0
  6
CONTINUOUS
 10
5.083214
 20
5.841278
  0
VERTEX
  8
0
  6
CONTINUOUS
 10
5.107243
 20
5.812599
  0
VERTEX
  8
0
  6
CONTINUOUS
 10
5.116544
 20
5.093291
  0
VERTEX
  8
0
  6
CONTINUOUS
 10
5.092516
 20
5.122745
  0
SEQEND
  8
0
  0
SOLID
  8
0
 62
    15
 10
5.116544
 20
5.093291
 11
5.107243
 21
5.812599
 12
5.135147
 22
5.059961
 13
5.125846
 23
5.778494
  0
POLYLINE
  8
0
  6
CONTINUOUS
 66
     1
 40
0.000000
 41
0.000000
  0
VERTEX
  8
0
  6
CONTINUOUS
 10
5.116544
 20
5.093291
  0
VERTEX
  8
0
  6
CONTINUOUS
 10
5.107243
 20
5.812599
  0
VERTEX
  8
0
  6
CONTINUOUS
 10
5.125846
 20
5.778494
  0
VERTEX
  8
0
  6
CONTINUOUS
 10
5.135147
 20
5.059961
  0
VERTEX
  8
0
  6
CONTINUOUS
 10
5.116544
 20
5.093291
  0
SEQEND
  8
0
  0
SOLID
  8
0
 62
    15
 10
5.135147
 20
5.059961
 11
5.125846
 21
5.778494
 12
5.146774
 22
5.022755
 13
5.137472
 23
5.742063
  0
POLYLINE
  8
0
  6
CONTINUOUS
 66
     1
 40
0.000000
 41
0.000000
  0
VERTEX
  8
0
  6
CONTINUOUS
 10
5.135147
 20
5.059961
  0
VERTEX
  8
0
  6
CONTINUOUS
 10
5.125846
 20
5.778494
  0
VERTEX
  8
0
  6
CONTINUOUS
 10
5.137472
 20
5.742063
  0
VERTEX
  8
0
  6
CONTINUOUS
 10
5.146774
 20
5.022755
  0
VERTEX
  8
0
  6
CONTINUOUS
 10
5.135147
 20
5.059961
  0
SEQEND
  8
0
  0
SOLID
  8
0
 62
    15
 10
5.150649
 20
4.980899
 11
5.141348
 21
5.699432
 12
5.258391
 22
4.980899
 13
5.249089
 23
5.699432
  0
POLYLINE
  8
0
  6
CONTINUOUS
 66
     1
 40
0.000000
 41
0.000000
  0
VERTEX
  8
0
  6
CONTINUOUS
 10
5.150649
 20
4.980899
  0
VERTEX
  8
0
  6
CONTINUOUS
 10
5.141348
 20
5.699432
  0
VERTEX
  8
0
  6
CONTINUOUS
 10
5.249089
 20
5.699432
  0
VERTEX
  8
0
  6
CONTINUOUS
 10
5.258391
 20
4.980899
  0
VERTEX
  8
0
  6
CONTINUOUS
 10
5.150649
 20
4.980899
  0
SEQEND
  8
0
  0
SOLID
  8
0
 62
    15
 10
5.146774
 20
5.022755
 11
5.137472
 21
5.742063
 12
5.150649
 22
4.983224
 13
5.141348
 23
5.702532
  0
POLYLINE
  8
0
  6
CONTINUOUS
 66
     1
 40
0.000000
 41
0.000000
  0
VERTEX
  8
0
  6
CONTINUOUS
 10
5.146774
 20
5.022755
  0
VERTEX
  8
0
  6
CONTINUOUS
 10
5.137472
 20
5.742063
  0
VERTEX
  8
0
  6
CONTINUOUS
 10
5.141348
 20
5.702532
  0
VERTEX
  8
0
  6
CONTINUOUS
 10
5.150649
 20
4.983224
  0
VERTEX
  8
0
  6
CONTINUOUS
 10
5.146774
 20
5.022755
  0
SEQEND
  8
0
  0
SOLID
  8
0
 62
    15
 10
5.258391
 20
4.980899
 11
5.249089
 21
5.699432
 12
5.258391
 22
4.982449
 13
5.249089
 23
5.700982
  0
POLYLINE
  8
0
  6
CONTINUOUS
 66
     1
 40
0.000000
 41
0.000000
  0
VERTEX
  8
0
  6
CONTINUOUS
 10
5.258391
 20
4.980899
  0
VERTEX
  8
0
  6
CONTINUOUS
 10
5.249089
 20
5.699432
  0
VERTEX
  8
0
  6
CONTINUOUS
 10
5.249089
 20
5.700982
  0
VERTEX
  8
0
  6
CONTINUOUS
 10
5.258391
 20
4.982449
  0
VERTEX
  8
0
  6
CONTINUOUS
 10
5.258391
 20
4.980899
  0
SEQEND
  8
0
  0
SOLID
  8
0
 62
    15
 10
5.258391
 20
4.982449
 11
5.249089
 21
5.700982
 12
5.263041
 22
5.021205
 13
5.253740
 23
5.740513
  0
POLYLINE
  8
0
  6
CONTINUOUS
 66
     1
 40
0.000000
 41
0.000000
  0
VERTEX
  8
0
  6
CONTINUOUS
 10
5.258391
 20
4.982449
  0
VERTEX
  8
0
  6
CONTINUOUS
 10
5.249089
 20
5.700982
  0
VERTEX
  8
0
  6
CONTINUOUS
 10
5.253740
 20
5.740513
  0
VERTEX
  8
0
  6
CONTINUOUS
 10
5.263041
 20
5.021205
  0
VERTEX
  8
0
  6
CONTINUOUS
 10
5.258391
 20
4.982449
  0
SEQEND
  8
0
  0
SOLID
  8
0
 62
    15
 10
5.263041
 20
5.021205
 11
5.253740
 21
5.740513
 12
5.274668
 22
5.058411
 13
5.264592
 23
5.777719
  0
POLYLINE
  8
0
  6
CONTINUOUS
 66
     1
 40
0.000000
 41
0.000000
  0
VERTEX
  8
0
  6
CONTINUOUS
 10
5.263041
 20
5.021205
  0
VERTEX
  8
0
  6
CONTINUOUS
 10
5.253740
 20
5.740513
  0
VERTEX
  8
0
  6
CONTINUOUS
 10
5.264592
 20
5.777719
  0
VERTEX
  8
0
  6
CONTINUOUS
 10
5.274668
 20
5.058411
  0
VERTEX
  8
0
  6
CONTINUOUS
 10
5.263041
 20
5.021205
  0
SEQEND
  8
0
  0
SOLID
  8
0
 62
    15
 10
5.274668
 20
5.058411
 11
5.264592
 21
5.777719
 12
5.292496
 22
5.091741
 13
5.283194
 23
5.811049
  0
POLYLINE
  8
0
  6
CONTINUOUS
 66
     1
 40
0.000000
 41
0.000000
  0
VERTEX
  8
0
  6
CONTINUOUS
 10
5.274668
 20
5.058411
  0
VERTEX
  8
0
  6
CONTINUOUS
 10
5.264592
 20
5.777719
  0
VERTEX
  8
0
  6
CONTINUOUS
 10
5.283194
 20
5.811049
  0
VERTEX
  8
0
  6
CONTINUOUS
 10
5.292496
 20
5.091741
  0
VERTEX
  8
0
  6
CONTINUOUS
 10
5.274668
 20
5.058411
  0
SEQEND
  8
0
  0
SOLID
  8
0
 62
    15
 10
5.292496
 20
5.091741
 11
5.283194
 21
5.811049
 12
5.316524
 22
5.121195
 13
5.307223
 23
5.840503
  0
POLYLINE
  8
0
  6
CONTINUOUS
 66
     1
 40
0.000000
 41
0.000000
  0
VERTEX
  8
0
  6
CONTINUOUS
 10
5.292496
 20
5.091741
  0
VERTEX
  8
0
  6
CONTINUOUS
 10
5.283194
 20
5.811049
  0
VERTEX
  8
0
  6
CONTINUOUS
 10
5.307223
 20
5.840503
  0
VERTEX
  8
0
  6
CONTINUOUS
 10
5.316524
 20
5.121195
  0
VERTEX
  8
0
  6
CONTINUOUS
 10
5.292496
 20
5.091741
  0
SEQEND
  8
0
  0
SOLID
  8
0
 62
    15
 10
5.316524
 20
5.121195
 11
5.307223
 21
5.840503
 12
5.345979
 22
5.145224
 13
5.336677
 23
5.864532
  0
POLYLINE
  8
0
  6
CONTINUOUS
 66
     1
 40
0.000000
 41
0.000000
  0
VERTEX
  8
0
  6
CONTINUOUS
 10
5.316524
 20
5.121195
  0
VERTEX
  8
0
  6
CONTINUOUS
 10
5.307223
 20
5.840503
  0
VERTEX
  8
0
  6
CONTINUOUS
 10
5.336677
 20
5.864532
  0
VERTEX
  8
0
  6
CONTINUOUS
 10
5.345979
 20
5.145224
  0
VERTEX
  8
0
  6
CONTINUOUS
 10
5.316524
 20
5.121195
  0
SEQEND
  8
0
  0
SOLID
  8
0
 62
    15
 10
5.345979
 20
5.145224
 11
5.336677
 21
5.864532
 12
5.379309
 22
5.163826
 13
5.370007
 23
5.883135
  0
POLYLINE
  8
0
  6
CONTINUOUS
 66
     1
 40
0.000000
 41
0.000000
  0
VERTEX
  8
0
  6
CONTINUOUS
 10
5.345979
 20
5.145224
  0
VERTEX
  8
0
  6
CONTINUOUS
 10
5.336677
 20
5.864532
  0
VERTEX
  8
0
  6
CONTINUOUS
 10
5.370007
 20
5.883135
  0
VERTEX
  8
0
  6
CONTINUOUS
 10
5.379309
 20
5.163826
  0
VERTEX
  8
0
  6
CONTINUOUS
 10
5.345979
 20
5.145224
  0
SEQEND
  8
0
  0
SOLID
  8
0
 62
    15
 10
5.379309
 20
5.163826
 11
5.370007
 21
5.883135
 12
5.416514
 22
5.175453
 13
5.407213
 23
5.893986
  0
POLYLINE
  8
0
  6
CONTINUOUS
 66
     1
 40
0.000000
 41
0.000000
  0
VERTEX
  8
0
  6
CONTINUOUS
 10
5.379309
 20
5.163826
  0
VERTEX
  8
0
  6
CONTINUOUS
 10
5.370007
 20
5.883135
  0
VERTEX
  8
0
  6
CONTINUOUS
 10
5.407213
 20
5.893986
  0
VERTEX
  8
0
  6
CONTINUOUS
 10
5.416514
 20
5.175453
  0
VERTEX
  8
0
  6
CONTINUOUS
 10
5.379309
 20
5.163826
  0
SEQEND
  8
0
  0
SOLID
  8
0
 62
    15
 10
5.416514
 20
5.175453
 11
5.407213
 21
5.893986
 12
5.456045
 22
5.179329
 13
5.446744
 23
5.898637
  0
POLYLINE
  8
0
  6
CONTINUOUS
 66
     1
 40
0.000000
 41
0.000000
  0
VERTEX
  8
0
  6
CONTINUOUS
 10
5.416514
 20
5.175453
  0
VERTEX
  8
0
  6
CONTINUOUS
 10
5.407213
 20
5.893986
  0
VERTEX
  8
0
  6
CONTINUOUS
 10
5.446744
 20
5.898637
  0
VERTEX
  8
0
  6
CONTINUOUS
 10
5.456045
 20
5.179329
  0
VERTEX
  8
0
  6
CONTINUOUS
 10
5.416514
 20
5.175453
  0
SEQEND
  8
0
  0
SOLID
  8
0
 62
    15
 10
5.456045
 20
5.179329
 11
5.446744
 21
5.898637
 12
5.495576
 22
5.175453
 13
5.486275
 23
5.893986
  0
POLYLINE
  8
0
  6
CONTINUOUS
 66
     1
 40
0.000000
 41
0.000000
  0
VERTEX
  8
0
  6
CONTINUOUS
 10
5.456045
 20
5.179329
  0
VERTEX
  8
0
  6
CONTINUOUS
 10
5.446744
 20
5.898637
  0
VERTEX
  8
0
  6
CONTINUOUS
 10
5.486275
 20
5.893986
  0
VERTEX
  8
0
  6
CONTINUOUS
 10
5.495576
 20
5.175453
  0
VERTEX
  8
0
  6
CONTINUOUS
 10
5.456045
 20
5.179329
  0
SEQEND
  8
0
  0
SOLID
  8
0
 62
    15
 10
5.495576
 20
5.175453
 11
5.486275
 21
5.893986
 12
5.532007
 22
5.163826
 13
5.522705
 23
5.883135
  0
POLYLINE
  8
0
  6
CONTINUOUS
 66
     1
 40
0.000000
 41
0.000000
  0
VERTEX
  8
0
  6
CONTINUOUS
 10
5.495576
 20
5.175453
  0
VERTEX
  8
0
  6
CONTINUOUS
 10
5.486275
 20
5.893986
  0
VERTEX
  8
0
  6
CONTINUOUS
 10
5.522705
 20
5.883135
  0
VERTEX
  8
0
  6
CONTINUOUS
 10
5.532007
 20
5.163826
  0
VERTEX
  8
0
  6
CONTINUOUS
 10
5.495576
 20
5.175453
  0
SEQEND
  8
0
  0
SOLID
  8
0
 62
    15
 10
5.532007
 20
5.163826
 11
5.522705
 21
5.883135
 12
5.566112
 22
5.145224
 13
5.556810
 23
5.864532
  0
POLYLINE
  8
0
  6
CONTINUOUS
 66
     1
 40
0.000000
 41
0.000000
  0
VERTEX
  8
0
  6
CONTINUOUS
 10
5.532007
 20
5.163826
  0
VERTEX
  8
0
  6
CONTINUOUS
 10
5.522705
 20
5.883135
  0
VERTEX
  8
0
  6
CONTINUOUS
 10
5.556810
 20
5.864532
  0
VERTEX
  8
0
  6
CONTINUOUS
 10
5.566112
 20
5.145224
  0
VERTEX
  8
0
  6
CONTINUOUS
 10
5.532007
 20
5.163826
  0
SEQEND
  8
0
  0
SOLID
  8
0
 62
    15
 10
5.566112
 20
5.145224
 11
5.556810
 21
5.864532
 12
5.594791
 22
5.121195
 13
5.585490
 23
5.840503
  0
POLYLINE
  8
0
  6
CONTINUOUS
 66
     1
 40
0.000000
 41
0.000000
  0
VERTEX
  8
0
  6
CONTINUOUS
 10
5.566112
 20
5.145224
  0
VERTEX
  8
0
  6
CONTINUOUS
 10
5.556810
 20
5.864532
  0
VERTEX
  8
0
  6
CONTINUOUS
 10
5.585490
 20
5.840503
  0
VERTEX
  8
0
  6
CONTINUOUS
 10
5.594791
 20
5.121195
  0
VERTEX
  8
0
  6
CONTINUOUS
 10
5.566112
 20
5.145224
  0
SEQEND
  8
0
  0
SOLID
  8
0
 62
    15
 10
5.594791
 20
5.121195
 11
5.585490
 21
5.840503
 12
5.619595
 22
5.091741
 13
5.610293
 23
5.811049
  0
POLYLINE
  8
0
  6
CONTINUOUS
 66
     1
 40
0.000000
 41
0.000000
  0
VERTEX
  8
0
  6
CONTINUOUS
 10
5.594791
 20
5.121195
  0
VERTEX
  8
0
  6
CONTINUOUS
 10
5.585490
 20
5.840503
  0
VERTEX
  8
0
  6
CONTINUOUS
 10
5.610293
 20
5.811049
  0
VERTEX
  8
0
  6
CONTINUOUS
 10
5.619595
 20
5.091741
  0
VERTEX
  8
0
  6
CONTINUOUS
 10
5.594791
 20
5.121195
  0
SEQEND
  8
0
  0
SOLID
  8
0
 62
    15
 10
5.619595
 20
5.091741
 11
5.610293
 21
5.811049
 12
5.637423
 22
5.058411
 13
5.628121
 23
5.777719
  0
POLYLINE
  8
0
  6
CONTINUOUS
 66
     1
 40
0.000000
 41
0.000000
  0
VERTEX
  8
0
  6
CONTINUOUS
 10
5.619595
 20
5.091741
  0
VERTEX
  8
0
  6
CONTINUOUS
 10
5.610293
 20
5.811049
  0
VERTEX
  8
0
  6
CONTINUOUS
 10
5.628121
 20
5.777719
  0
VERTEX
  8
0
  6
CONTINUOUS
 10
5.637423
 20
5.058411
  0
VERTEX
  8
0
  6
CONTINUOUS
 10
5.619595
 20
5.091741
  0
SEQEND
  8
0
  0
SOLID
  8
0
 62
    15
 10
3.333001
 20
5.175453
 11
3.323700
 21
5.894761
 12
3.411288
 22
5.178554
 13
3.401986
 23
5.897087
  0
POLYLINE
  8
0
  6
CONTINUOUS
 66
     1
 40
0.000000
 41
0.000000
  0
VERTEX
  8
0
  6
CONTINUOUS
 10
3.333001
 20
5.175453
  0
VERTEX
  8
0
  6
CONTINUOUS
 10
3.323700
 20
5.894761
  0
VERTEX
  8
0
  6
CONTINUOUS
 10
3.401986
 20
5.897087
  0
VERTEX
  8
0
  6
CONTINUOUS
 10
3.411288
 20
5.178554
  0
VERTEX
  8
0
  6
CONTINUOUS
 10
3.333001
 20
5.175453
  0
SEQEND
  8
0
  0
SOLID
  8
0
 62
    15
 10
5.649049
 20
5.021205
 11
5.639748
 21
5.740513
 12
5.652925
 22
4.982449
 13
5.643623
 23
5.700982
  0
POLYLINE
  8
0
  6
CONTINUOUS
 66
     1
 40
0.000000
 41
0.000000
  0
VERTEX
  8
0
  6
CONTINUOUS
 10
5.649049
 20
5.021205
  0
VERTEX
  8
0
  6
CONTINUOUS
 10
5.639748
 20
5.740513
  0
VERTEX
  8
0
  6
CONTINUOUS
 10
5.643623
 20
5.700982
  0
VERTEX
  8
0
  6
CONTINUOUS
 10
5.652925
 20
4.982449
  0
VERTEX
  8
0
  6
CONTINUOUS
 10
5.649049
 20
5.021205
  0
SEQEND
  8
0
  0
SOLID
  8
0
 62
    15
 10
5.637423
 20
5.058411
 11
5.628121
 21
5.777719
 12
5.649049
 22
5.021205
 13
5.639748
 23
5.740513
  0
POLYLINE
  8
0
  6
CONTINUOUS
 66
     1
 40
0.000000
 41
0.000000
  0
VERTEX
  8
0
  6
CONTINUOUS
 10
5.637423
 20
5.058411
  0
VERTEX
  8
0
  6
CONTINUOUS
 10
5.628121
 20
5.777719
  0
VERTEX
  8
0
  6
CONTINUOUS
 10
5.639748
 20
5.740513
  0
VERTEX
  8
0
  6
CONTINUOUS
 10
5.649049
 20
5.021205
  0
VERTEX
  8
0
  6
CONTINUOUS
 10
5.637423
 20
5.058411
  0
SEQEND
  8
0
  0
SOLID
  8
0
 62
    15
 10
5.742838
 20
4.982449
 11
5.733537
 21
5.701757
 12
5.821125
 22
4.991750
 13
5.811824
 23
5.710284
  0
POLYLINE
  8
0
  6
CONTINUOUS
 66
     1
 40
0.000000
 41
0.000000
  0
VERTEX
  8
0
  6
CONTINUOUS
 10
5.742838
 20
4.982449
  0
VERTEX
  8
0
  6
CONTINUOUS
 10
5.733537
 20
5.701757
  0
VERTEX
  8
0
  6
CONTINUOUS
 10
5.811824
 20
5.710284
  0
VERTEX
  8
0
  6
CONTINUOUS
 10
5.821125
 20
4.991750
  0
VERTEX
  8
0
  6
CONTINUOUS
 10
5.742838
 20
4.982449
  0
SEQEND
  8
0
  0
SOLID
  8
0
 62
    15
 10
5.821125
 20
4.991750
 11
5.811824
 21
5.710284
 12
5.889335
 22
5.003377
 13
5.880034
 23
5.722685
  0
POLYLINE
  8
0
  6
CONTINUOUS
 66
     1
 40
0.000000
 41
0.000000
  0
VERTEX
  8
0
  6
CONTINUOUS
 10
5.821125
 20
4.991750
  0
VERTEX
  8
0
  6
CONTINUOUS
 10
5.811824
 20
5.710284
  0
VERTEX
  8
0
  6
CONTINUOUS
 10
5.880034
 20
5.722685
  0
VERTEX
  8
0
  6
CONTINUOUS
 10
5.889335
 20
5.003377
  0
VERTEX
  8
0
  6
CONTINUOUS
 10
5.821125
 20
4.991750
  0
SEQEND
  8
0
  0
SOLID
  8
0
 62
    15
 10
5.889335
 20
5.003377
 11
5.880034
 21
5.722685
 12
5.949795
 22
5.018104
 13
5.939718
 23
5.736637
  0
POLYLINE
  8
0
  6
CONTINUOUS
 66
     1
 40
0.000000
 41
0.000000
  0
VERTEX
  8
0
  6
CONTINUOUS
 10
5.889335
 20
5.003377
  0
VERTEX
  8
0
  6
CONTINUOUS
 10
5.880034
 20
5.722685
  0
VERTEX
  8
0
  6
CONTINUOUS
 10
5.939718
 20
5.736637
  0
VERTEX
  8
0
  6
CONTINUOUS
 10
5.949795
 20
5.018104
  0
VERTEX
  8
0
  6
CONTINUOUS
 10
5.889335
 20
5.003377
  0
SEQEND
  8
0
  0
SOLID
  8
0
 62
    15
 10
5.949795
 20
5.018104
 11
5.939718
 21
5.736637
 12
6.002502
 22
5.034382
 13
5.993201
 23
5.753690
  0
POLYLINE
  8
0
  6
CONTINUOUS
 66
     1
 40
0.000000
 41
0.000000
  0
VERTEX
  8
0
  6
CONTINUOUS
 10
5.949795
 20
5.018104
  0
VERTEX
  8
0
  6
CONTINUOUS
 10
5.939718
 20
5.736637
  0
VERTEX
  8
0
  6
CONTINUOUS
 10
5.993201
 20
5.753690
  0
VERTEX
  8
0
  6
CONTINUOUS
 10
6.002502
 20
5.034382
  0
VERTEX
  8
0
  6
CONTINUOUS
 10
5.949795
 20
5.018104
  0
SEQEND
  8
0
  0
SOLID
  8
0
 62
    15
 10
6.002502
 20
5.034382
 11
5.993201
 21
5.753690
 12
6.049785
 22
5.052210
 13
6.040483
 23
5.771518
  0
POLYLINE
  8
0
  6
CONTINUOUS
 66
     1
 40
0.000000
 41
0.000000
  0
VERTEX
  8
0
  6
CONTINUOUS
 10
6.002502
 20
5.034382
  0
VERTEX
  8
0
  6
CONTINUOUS
 10
5.993201
 20
5.753690
  0
VERTEX
  8
0
  6
CONTINUOUS
 10
6.040483
 20
5.771518
  0
VERTEX
  8
0
  6
CONTINUOUS
 10
6.049785
 20
5.052210
  0
VERTEX
  8
0
  6
CONTINUOUS
 10
6.002502
 20
5.034382
  0
SEQEND
  8
0
  0
SOLID
  8
0
 62
    15
 10
6.049785
 20
5.052210
 11
6.040483
 21
5.771518
 12
6.135047
 22
5.090190
 13
6.125746
 23
5.809498
  0
POLYLINE
  8
0
  6
CONTINUOUS
 66
     1
 40
0.000000
 41
0.000000
  0
VERTEX
  8
0
  6
CONTINUOUS
 10
6.049785
 20
5.052210
  0
VERTEX
  8
0
  6
CONTINUOUS
 10
6.040483
 20
5.771518
  0
VERTEX
  8
0
  6
CONTINUOUS
 10
6.125746
 20
5.809498
  0
VERTEX
  8
0
  6
CONTINUOUS
 10
6.135047
 20
5.090190
  0
VERTEX
  8
0
  6
CONTINUOUS
 10
6.049785
 20
5.052210
  0
SEQEND
  8
0
  0
SOLID
  8
0
 62
    15
 10
6.135047
 20
5.090190
 11
6.125746
 21
5.809498
 12
6.217210
 22
5.125846
 13
6.207908
 23
5.845154
  0
POLYLINE
  8
0
  6
CONTINUOUS
 66
     1
 40
0.000000
 41
0.000000
  0
VERTEX
  8
0
  6
CONTINUOUS
 10
6.135047
 20
5.090190
  0
VERTEX
  8
0
  6
CONTINUOUS
 10
6.125746
 20
5.809498
  0
VERTEX
  8
0
  6
CONTINUOUS
 10
6.207908
 20
5.845154
  0
VERTEX
  8
0
  6
CONTINUOUS
 10
6.217210
 20
5.125846
  0
VERTEX
  8
0
  6
CONTINUOUS
 10
6.135047
 20
5.090190
  0
SEQEND
  8
0
  0
SOLID
  8
0
 62
    15
 10
6.217210
 20
5.125846
 11
6.207908
 21
5.845154
 12
6.260616
 22
5.141348
 13
6.251315
 23
5.860656
  0
POLYLINE
  8
0
  6
CONTINUOUS
 66
     1
 40
0.000000
 41
0.000000
  0
VERTEX
  8
0
  6
CONTINUOUS
 10
6.217210
 20
5.125846
  0
VERTEX
  8
0
  6
CONTINUOUS
 10
6.207908
 20
5.845154
  0
VERTEX
  8
0
  6
CONTINUOUS
 10
6.251315
 20
5.860656
  0
VERTEX
  8
0
  6
CONTINUOUS
 10
6.260616
 20
5.141348
  0
VERTEX
  8
0
  6
CONTINUOUS
 10
6.217210
 20
5.125846
  0
SEQEND
  8
0
  0
SOLID
  8
0
 62
    15
 10
6.260616
 20
5.141348
 11
6.251315
 21
5.860656
 12
6.307898
 22
5.154525
 13
6.298597
 23
5.873058
  0
POLYLINE
  8
0
  6
CONTINUOUS
 66
     1
 40
0.000000
 41
0.000000
  0
VERTEX
  8
0
  6
CONTINUOUS
 10
6.260616
 20
5.141348
  0
VERTEX
  8
0
  6
CONTINUOUS
 10
6.251315
 20
5.860656
  0
VERTEX
  8
0
  6
CONTINUOUS
 10
6.298597
 20
5.873058
  0
VERTEX
  8
0
  6
CONTINUOUS
 10
6.307898
 20
5.154525
  0
VERTEX
  8
0
  6
CONTINUOUS
 10
6.260616
 20
5.141348
  0
SEQEND
  8
0
  0
SOLID
  8
0
 62
    15
 10
6.307898
 20
5.154525
 11
6.298597
 21
5.873058
 12
6.360606
 22
5.164601
 13
6.351305
 23
5.883135
  0
POLYLINE
  8
0
  6
CONTINUOUS
 66
     1
 40
0.000000
 41
0.000000
  0
VERTEX
  8
0
  6
CONTINUOUS
 10
6.307898
 20
5.154525
  0
VERTEX
  8
0
  6
CONTINUOUS
 10
6.298597
 20
5.873058
  0
VERTEX
  8
0
  6
CONTINUOUS
 10
6.351305
 20
5.883135
  0
VERTEX
  8
0
  6
CONTINUOUS
 10
6.360606
 20
5.164601
  0
VERTEX
  8
0
  6
CONTINUOUS
 10
6.307898
 20
5.154525
  0
SEQEND
  8
0
  0
SOLID
  8
0
 62
    15
 10
6.360606
 20
5.164601
 11
6.351305
 21
5.883135
 12
6.420290
 22
5.170802
 13
6.410989
 23
5.890111
  0
POLYLINE
  8
0
  6
CONTINUOUS
 66
     1
 40
0.000000
 41
0.000000
  0
VERTEX
  8
0
  6
CONTINUOUS
 10
6.360606
 20
5.164601
  0
VERTEX
  8
0
  6
CONTINUOUS
 10
6.351305
 20
5.883135
  0
VERTEX
  8
0
  6
CONTINUOUS
 10
6.410989
 20
5.890111
  0
VERTEX
  8
0
  6
CONTINUOUS
 10
6.420290
 20
5.170802
  0
VERTEX
  8
0
  6
CONTINUOUS
 10
6.360606
 20
5.164601
  0
SEQEND
  8
0
  0
SOLID
  8
0
 62
    15
 10
6.420290
 20
5.170802
 11
6.410989
 21
5.890111
 12
6.488501
 22
5.173128
 13
6.479199
 23
5.891661
  0
POLYLINE
  8
0
  6
CONTINUOUS
 66
     1
 40
0.000000
 41
0.000000
  0
VERTEX
  8
0
  6
CONTINUOUS
 10
6.420290
 20
5.170802
  0
VERTEX
  8
0
  6
CONTINUOUS
 10
6.410989
 20
5.890111
  0
VERTEX
  8
0
  6
CONTINUOUS
 10
6.479199
 20
5.891661
  0
VERTEX
  8
0
  6
CONTINUOUS
 10
6.488501
 20
5.173128
  0
VERTEX
  8
0
  6
CONTINUOUS
 10
6.420290
 20
5.170802
  0
SEQEND
  8
0
  0
SOLID
  8
0
 62
    15
 10
6.488501
 20
5.173128
 11
6.479199
 21
5.891661
 12
6.566787
 22
5.170027
 13
6.557486
 23
5.889335
  0
POLYLINE
  8
0
  6
CONTINUOUS
 66
     1
 40
0.000000
 41
0.000000
  0
VERTEX
  8
0
  6
CONTINUOUS
 10
6.488501
 20
5.173128
  0
VERTEX
  8
0
  6
CONTINUOUS
 10
6.479199
 20
5.891661
  0
VERTEX
  8
0
  6
CONTINUOUS
 10
6.557486
 20
5.889335
  0
VERTEX
  8
0
  6
CONTINUOUS
 10
6.566787
 20
5.170027
  0
VERTEX
  8
0
  6
CONTINUOUS
 10
6.488501
 20
5.173128
  0
SEQEND
  8
0
  0
SOLID
  8
0
 62
    15
 10
6.566787
 20
5.170027
 11
6.557486
 21
5.889335
 12
6.572213
 22
5.170027
 13
6.562912
 23
5.889335
  0
POLYLINE
  8
0
  6
CONTINUOUS
 66
     1
 40
0.000000
 41
0.000000
  0
VERTEX
  8
0
  6
CONTINUOUS
 10
6.566787
 20
5.170027
  0
VERTEX
  8
0
  6
CONTINUOUS
 10
6.557486
 20
5.889335
  0
VERTEX
  8
0
  6
CONTINUOUS
 10
6.562912
 20
5.889335
  0
VERTEX
  8
0
  6
CONTINUOUS
 10
6.572213
 20
5.170027
  0
VERTEX
  8
0
  6
CONTINUOUS
 10
6.566787
 20
5.170027
  0
SEQEND
  8
0
  0
SOLID
  8
0
 62
    15
 10
6.572213
 20
5.170027
 11
6.562912
 21
5.889335
 12
6.585390
 22
5.173903
 13
6.576089
 23
5.892436
  0
POLYLINE
  8
0
  6
CONTINUOUS
 66
     1
 40
0.000000
 41
0.000000
  0
VERTEX
  8
0
  6
CONTINUOUS
 10
6.572213
 20
5.170027
  0
VERTEX
  8
0
  6
CONTINUOUS
 10
6.562912
 20
5.889335
  0
VERTEX
  8
0
  6
CONTINUOUS
 10
6.576089
 20
5.892436
  0
VERTEX
  8
0
  6
CONTINUOUS
 10
6.585390
 20
5.173903
  0
VERTEX
  8
0
  6
CONTINUOUS
 10
6.572213
 20
5.170027
  0
SEQEND
  8
0
  0
SOLID
  8
0
 62
    15
 10
6.585390
 20
5.173903
 11
6.576089
 21
5.892436
 12
6.598567
 22
5.183979
 13
6.589266
 23
5.903288
  0
POLYLINE
  8
0
  6
CONTINUOUS
 66
     1
 40
0.000000
 41
0.000000
  0
VERTEX
  8
0
  6
CONTINUOUS
 10
6.585390
 20
5.173903
  0
VERTEX
  8
0
  6
CONTINUOUS
 10
6.576089
 20
5.892436
  0
VERTEX
  8
0
  6
CONTINUOUS
 10
6.589266
 20
5.903288
  0
VERTEX
  8
0
  6
CONTINUOUS
 10
6.598567
 20
5.183979
  0
VERTEX
  8
0
  6
CONTINUOUS
 10
6.585390
 20
5.173903
  0
SEQEND
  8
0
  0
SOLID
  8
0
 62
    15
 10
6.598567
 20
5.183979
 11
6.589266
 21
5.903288
 12
6.609419
 22
5.203357
 13
6.600117
 23
5.922665
  0
POLYLINE
  8
0
  6
CONTINUOUS
 66
     1
 40
0.000000
 41
0.000000
  0
VERTEX
  8
0
  6
CONTINUOUS
 10
6.598567
 20
5.183979
  0
VERTEX
  8
0
  6
CONTINUOUS
 10
6.589266
 20
5.903288
  0
VERTEX
  8
0
  6
CONTINUOUS
 10
6.600117
 20
5.922665
  0
VERTEX
  8
0
  6
CONTINUOUS
 10
6.609419
 20
5.203357
  0
VERTEX
  8
0
  6
CONTINUOUS
 10
6.598567
 20
5.183979
  0
SEQEND
  8
0
  0
SOLID
  8
0
 62
    15
 10
6.609419
 20
5.203357
 11
6.600117
 21
5.922665
 12
6.614845
 22
5.231261
 13
6.605543
 23
5.950570
  0
POLYLINE
  8
0
  6
CONTINUOUS
 66
     1
 40
0.000000
 41
0.000000
  0
VERTEX
  8
0
  6
CONTINUOUS
 10
6.609419
 20
5.203357
  0
VERTEX
  8
0
  6
CONTINUOUS
 10
6.600117
 20
5.922665
  0
VERTEX
  8
0
  6
CONTINUOUS
 10
6.605543
 20
5.950570
  0
VERTEX
  8
0
  6
CONTINUOUS
 10
6.614845
 20
5.231261
  0
VERTEX
  8
0
  6
CONTINUOUS
 10
6.609419
 20
5.203357
  0
SEQEND
  8
0
  0
SOLID
  8
0
 62
    15
 10
6.614845
 20
5.231261
 11
6.605543
 21
5.950570
 12
6.614845
 22
5.235137
 13
6.605543
 23
5.954445
  0
POLYLINE
  8
0
  6
CONTINUOUS
 66
     1
 40
0.000000
 41
0.000000
  0
VERTEX
  8
0
  6
CONTINUOUS
 10
6.614845
 20
5.231261
  0
VERTEX
  8
0
  6
CONTINUOUS
 10
6.605543
 20
5.950570
  0
VERTEX
  8
0
  6
CONTINUOUS
 10
6.605543
 20
5.954445
  0
VERTEX
  8
0
  6
CONTINUOUS
 10
6.614845
 20
5.235137
  0
VERTEX
  8
0
  6
CONTINUOUS
 10
6.614845
 20
5.231261
  0
SEQEND
  8
0
  0
SOLID
  8
0
 62
    15
 10
6.614845
 20
5.235137
 11
6.605543
 21
5.954445
 12
7.418640
 22
5.235137
 13
7.409339
 23
5.954445
  0
POLYLINE
  8
0
  6
CONTINUOUS
 66
     1
 40
0.000000
 41
0.000000
  0
VERTEX
  8
0
  6
CONTINUOUS
 10
6.614845
 20
5.235137
  0
VERTEX
  8
0
  6
CONTINUOUS
 10
6.605543
 20
5.954445
  0
VERTEX
  8
0
  6
CONTINUOUS
 10
7.409339
 20
5.954445
  0
VERTEX
  8
0
  6
CONTINUOUS
 10
7.418640
 20
5.235137
  0
VERTEX
  8
0
  6
CONTINUOUS
 10
6.614845
 20
5.235137
  0
SEQEND
  8
0
  0
SOLID
  8
0
 62
    15
 10
7.418640
 20
5.235137
 11
7.409339
 21
5.954445
 12
7.441119
 22
5.232037
 13
7.431817
 23
5.951345
  0
POLYLINE
  8
0
  6
CONTINUOUS
 66
     1
 40
0.000000
 41
0.000000
  0
VERTEX
  8
0
  6
CONTINUOUS
 10
7.418640
 20
5.235137
  0
VERTEX
  8
0
  6
CONTINUOUS
 10
7.409339
 20
5.954445
  0
VERTEX
  8
0
  6
CONTINUOUS
 10
7.431817
 20
5.951345
  0
VERTEX
  8
0
  6
CONTINUOUS
 10
7.441119
 20
5.232037
  0
VERTEX
  8
0
  6
CONTINUOUS
 10
7.418640
 20
5.235137
  0
SEQEND
  8
0
  0
SOLID
  8
0
 62
    15
 10
7.441119
 20
5.232037
 11
7.431817
 21
5.951345
 12
7.457396
 22
5.224285
 13
7.448095
 23
5.942818
  0
POLYLINE
  8
0
  6
CONTINUOUS
 66
     1
 40
0.000000
 41
0.000000
  0
VERTEX
  8
0
  6
CONTINUOUS
 10
7.441119
 20
5.232037
  0
VERTEX
  8
0
  6
CONTINUOUS
 10
7.431817
 20
5.951345
  0
VERTEX
  8
0
  6
CONTINUOUS
 10
7.448095
 20
5.942818
  0
VERTEX
  8
0
  6
CONTINUOUS
 10
7.457396
 20
5.224285
  0
VERTEX
  8
0
  6
CONTINUOUS
 10
7.441119
 20
5.232037
  0
SEQEND
  8
0
  0
SOLID
  8
0
 62
    15
 10
7.467473
 20
5.211884
 11
7.458171
 21
5.931192
 12
7.473674
 22
5.198707
 13
7.464372
 23
5.917240
  0
POLYLINE
  8
0
  6
CONTINUOUS
 66
     1
 40
0.000000
 41
0.000000
  0
VERTEX
  8
0
  6
CONTINUOUS
 10
7.467473
 20
5.211884
  0
VERTEX
  8
0
  6
CONTINUOUS
 10
7.458171
 20
5.931192
  0
VERTEX
  8
0
  6
CONTINUOUS
 10
7.464372
 20
5.917240
  0
VERTEX
  8
0
  6
CONTINUOUS
 10
7.473674
 20
5.198707
  0
VERTEX
  8
0
  6
CONTINUOUS
 10
7.467473
 20
5.211884
  0
SEQEND
  8
0
  0
SOLID
  8
0
 62
    15
 10
7.457396
 20
5.224285
 11
7.448095
 21
5.942818
 12
7.467473
 22
5.211884
 13
7.458171
 23
5.931192
  0
POLYLINE
  8
0
  6
CONTINUOUS
 66
     1
 40
0.000000
 41
0.000000
  0
VERTEX
  8
0
  6
CONTINUOUS
 10
7.457396
 20
5.224285
  0
VERTEX
  8
0
  6
CONTINUOUS
 10
7.448095
 20
5.942818
  0
VERTEX
  8
0
  6
CONTINUOUS
 10
7.458171
 20
5.931192
  0
VERTEX
  8
0
  6
CONTINUOUS
 10
7.467473
 20
5.211884
  0
VERTEX
  8
0
  6
CONTINUOUS
 10
7.457396
 20
5.224285
  0
SEQEND
  8
0
  0
SOLID
  8
0
 62
    15
 10
7.473674
 20
5.198707
 11
7.464372
 21
5.917240
 12
7.479099
 22
5.172353
 13
7.469798
 23
5.891661
  0
POLYLINE
  8
0
  6
CONTINUOUS
 66
     1
 40
0.000000
 41
0.000000
  0
VERTEX
  8
0
  6
CONTINUOUS
 10
7.473674
 20
5.198707
  0
VERTEX
  8
0
  6
CONTINUOUS
 10
7.464372
 20
5.917240
  0
VERTEX
  8
0
  6
CONTINUOUS
 10
7.469798
 20
5.891661
  0
VERTEX
  8
0
  6
CONTINUOUS
 10
7.479099
 20
5.172353
  0
VERTEX
  8
0
  6
CONTINUOUS
 10
7.473674
 20
5.198707
  0
SEQEND
  8
0
  0
SOLID
  8
0
 62
    15
 10
7.482200
 20
5.163826
 11
7.472899
 21
5.882359
 12
7.486851
 22
5.159176
 13
7.477549
 23
5.878484
  0
POLYLINE
  8
0
  6
CONTINUOUS
 66
     1
 40
0.000000
 41
0.000000
  0
VERTEX
  8
0
  6
CONTINUOUS
 10
7.482200
 20
5.163826
  0
VERTEX
  8
0
  6
CONTINUOUS
 10
7.472899
 20
5.882359
  0
VERTEX
  8
0
  6
CONTINUOUS
 10
7.477549
 20
5.878484
  0
VERTEX
  8
0
  6
CONTINUOUS
 10
7.486851
 20
5.159176
  0
VERTEX
  8
0
  6
CONTINUOUS
 10
7.482200
 20
5.163826
  0
SEQEND
  8
0
  0
SOLID
  8
0
 62
    15
 10
7.479099
 20
5.172353
 11
7.469798
 21
5.891661
 12
7.482200
 22
5.163826
 13
7.472899
 23
5.882359
  0
POLYLINE
  8
0
  6
CONTINUOUS
 66
     1
 40
0.000000
 41
0.000000
  0
VERTEX
  8
0
  6
CONTINUOUS
 10
7.479099
 20
5.172353
  0
VERTEX
  8
0
  6
CONTINUOUS
 10
7.469798
 20
5.891661
  0
VERTEX
  8
0
  6
CONTINUOUS
 10
7.472899
 20
5.882359
  0
VERTEX
  8
0
  6
CONTINUOUS
 10
7.482200
 20
5.163826
  0
VERTEX
  8
0
  6
CONTINUOUS
 10
7.479099
 20
5.172353
  0
SEQEND
  8
0
  0
SOLID
  8
0
 62
    15
 10
7.486851
 20
5.159176
 11
7.477549
 21
5.878484
 12
7.503903
 22
5.154525
 13
7.494602
 23
5.873058
  0
POLYLINE
  8
0
  6
CONTINUOUS
 66
     1
 40
0.000000
 41
0.000000
  0
VERTEX
  8
0
  6
CONTINUOUS
 10
7.486851
 20
5.159176
  0
VERTEX
  8
0
  6
CONTINUOUS
 10
7.477549
 20
5.878484
  0
VERTEX
  8
0
  6
CONTINUOUS
 10
7.494602
 20
5.873058
  0
VERTEX
  8
0
  6
CONTINUOUS
 10
7.503903
 20
5.154525
  0
VERTEX
  8
0
  6
CONTINUOUS
 10
7.486851
 20
5.159176
  0
SEQEND
  8
0
  0
SOLID
  8
0
 62
    15
 10
7.503903
 20
5.154525
 11
7.494602
 21
5.873058
 12
7.518630
 22
5.147549
 13
7.509329
 23
5.866082
  0
POLYLINE
  8
0
  6
CONTINUOUS
 66
     1
 40
0.000000
 41
0.000000
  0
VERTEX
  8
0
  6
CONTINUOUS
 10
7.503903
 20
5.154525
  0
VERTEX
  8
0
  6
CONTINUOUS
 10
7.494602
 20
5.873058
  0
VERTEX
  8
0
  6
CONTINUOUS
 10
7.509329
 20
5.866082
  0
VERTEX
  8
0
  6
CONTINUOUS
 10
7.518630
 20
5.147549
  0
VERTEX
  8
0
  6
CONTINUOUS
 10
7.503903
 20
5.154525
  0
SEQEND
  8
0
  0
SOLID
  8
0
 62
    15
 10
7.540334
 20
5.128171
 11
7.530257
 21
5.846704
 12
7.552736
 22
5.104918
 13
7.543434
 23
5.823451
  0
POLYLINE
  8
0
  6
CONTINUOUS
 66
     1
 40
0.000000
 41
0.000000
  0
VERTEX
  8
0
  6
CONTINUOUS
 10
7.540334
 20
5.128171
  0
VERTEX
  8
0
  6
CONTINUOUS
 10
7.530257
 20
5.846704
  0
VERTEX
  8
0
  6
CONTINUOUS
 10
7.543434
 20
5.823451
  0
VERTEX
  8
0
  6
CONTINUOUS
 10
7.552736
 20
5.104918
  0
VERTEX
  8
0
  6
CONTINUOUS
 10
7.540334
 20
5.128171
  0
SEQEND
  8
0
  0
SOLID
  8
0
 62
    15
 10
7.518630
 20
5.147549
 11
7.509329
 21
5.866082
 12
7.540334
 22
5.128171
 13
7.530257
 23
5.846704
  0
POLYLINE
  8
0
  6
CONTINUOUS
 66
     1
 40
0.000000
 41
0.000000
  0
VERTEX
  8
0
  6
CONTINUOUS
 10
7.518630
 20
5.147549
  0
VERTEX
  8
0
  6
CONTINUOUS
 10
7.509329
 20
5.866082
  0
VERTEX
  8
0
  6
CONTINUOUS
 10
7.530257
 20
5.846704
  0
VERTEX
  8
0
  6
CONTINUOUS
 10
7.540334
 20
5.128171
  0
VERTEX
  8
0
  6
CONTINUOUS
 10
7.518630
 20
5.147549
  0
SEQEND
  8
0
  0
SOLID
  8
0
 62
    15
 10
7.552736
 20
5.104918
 11
7.543434
 21
5.823451
 12
7.559712
 22
5.079339
 13
7.550410
 23
5.798647
  0
POLYLINE
  8
0
  6
CONTINUOUS
 66
     1
 40
0.000000
 41
0.000000
  0
VERTEX
  8
0
  6
CONTINUOUS
 10
7.552736
 20
5.104918
  0
VERTEX
  8
0
  6
CONTINUOUS
 10
7.543434
 20
5.823451
  0
VERTEX
  8
0
  6
CONTINUOUS
 10
7.550410
 20
5.798647
  0
VERTEX
  8
0
  6
CONTINUOUS
 10
7.559712
 20
5.079339
  0
VERTEX
  8
0
  6
CONTINUOUS
 10
7.552736
 20
5.104918
  0
SEQEND
  8
0
  0
SOLID
  8
0
 62
    15
 10
7.559712
 20
5.079339
 11
7.550410
 21
5.798647
 12
7.566688
 22
5.033607
 13
7.557386
 23
5.752140
  0
POLYLINE
  8
0
  6
CONTINUOUS
 66
     1
 40
0.000000
 41
0.000000
  0
VERTEX
  8
0
  6
CONTINUOUS
 10
7.559712
 20
5.079339
  0
VERTEX
  8
0
  6
CONTINUOUS
 10
7.550410
 20
5.798647
  0
VERTEX
  8
0
  6
CONTINUOUS
 10
7.557386
 20
5.752140
  0
VERTEX
  8
0
  6
CONTINUOUS
 10
7.566688
 20
5.033607
  0
VERTEX
  8
0
  6
CONTINUOUS
 10
7.559712
 20
5.079339
  0
SEQEND
  8
0
  0
SOLID
  8
0
 62
    15
 10
7.572113
 20
5.017329
 11
7.562812
 21
5.736637
 12
7.581415
 22
5.010353
 13
7.572113
 23
5.728886
  0
POLYLINE
  8
0
  6
CONTINUOUS
 66
     1
 40
0.000000
 41
0.000000
  0
VERTEX
  8
0
  6
CONTINUOUS
 10
7.572113
 20
5.017329
  0
VERTEX
  8
0
  6
CONTINUOUS
 10
7.562812
 20
5.736637
  0
VERTEX
  8
0
  6
CONTINUOUS
 10
7.572113
 20
5.728886
  0
VERTEX
  8
0
  6
CONTINUOUS
 10
7.581415
 20
5.010353
  0
VERTEX
  8
0
  6
CONTINUOUS
 10
7.572113
 20
5.017329
  0
SEQEND
  8
0
  0
SOLID
  8
0
 62
    15
 10
7.566688
 20
5.033607
 11
7.557386
 21
5.752140
 12
7.572113
 22
5.017329
 13
7.562812
 23
5.736637
  0
POLYLINE
  8
0
  6
CONTINUOUS
 66
     1
 40
0.000000
 41
0.000000
  0
VERTEX
  8
0
  6
CONTINUOUS
 10
7.566688
 20
5.033607
  0
VERTEX
  8
0
  6
CONTINUOUS
 10
7.557386
 20
5.752140
  0
VERTEX
  8
0
  6
CONTINUOUS
 10
7.562812
 20
5.736637
  0
VERTEX
  8
0
  6
CONTINUOUS
 10
7.572113
 20
5.017329
  0
VERTEX
  8
0
  6
CONTINUOUS
 10
7.566688
 20
5.033607
  0
SEQEND
  8
0
  0
SOLID
  8
0
 62
    15
 10
7.581415
 20
5.010353
 11
7.572113
 21
5.728886
 12
7.673654
 22
5.010353
 13
7.664352
 23
5.728886
  0
POLYLINE
  8
0
  6
CONTINUOUS
 66
     1
 40
0.000000
 41
0.000000
  0
VERTEX
  8
0
  6
CONTINUOUS
 10
7.581415
 20
5.010353
  0
VERTEX
  8
0
  6
CONTINUOUS
 10
7.572113
 20
5.728886
  0
VERTEX
  8
0
  6
CONTINUOUS
 10
7.664352
 20
5.728886
  0
VERTEX
  8
0
  6
CONTINUOUS
 10
7.673654
 20
5.010353
  0
VERTEX
  8
0
  6
CONTINUOUS
 10
7.581415
 20
5.010353
  0
SEQEND
  8
0
  0
SOLID
  8
0
 62
    15
 10
7.673654
 20
5.010353
 11
7.664352
 21
5.728886
 12
7.678304
 22
5.007253
 13
7.669003
 23
5.726561
  0
POLYLINE
  8
0
  6
CONTINUOUS
 66
     1
 40
0.000000
 41
0.000000
  0
VERTEX
  8
0
  6
CONTINUOUS
 10
7.673654
 20
5.010353
  0
VERTEX
  8
0
  6
CONTINUOUS
 10
7.664352
 20
5.728886
  0
VERTEX
  8
0
  6
CONTINUOUS
 10
7.669003
 20
5.726561
  0
VERTEX
  8
0
  6
CONTINUOUS
 10
7.678304
 20
5.007253
  0
VERTEX
  8
0
  6
CONTINUOUS
 10
7.673654
 20
5.010353
  0
SEQEND
  8
0
  0
SOLID
  8
0
 62
    15
 10
2.162575
 20
4.464671
 11
2.153274
 21
5.183979
 12
2.162575
 22
5.019655
 13
2.153274
 23
5.738188
  0
POLYLINE
  8
0
  6
CONTINUOUS
 66
     1
 40
0.000000
 41
0.000000
  0
VERTEX
  8
0
  6
CONTINUOUS
 10
2.162575
 20
4.464671
  0
VERTEX
  8
0
  6
CONTINUOUS
 10
2.153274
 20
5.183979
  0
VERTEX
  8
0
  6
CONTINUOUS
 10
2.153274
 20
5.738188
  0
VERTEX
  8
0
  6
CONTINUOUS
 10
2.162575
 20
5.019655
  0
VERTEX
  8
0
  6
CONTINUOUS
 10
2.162575
 20
4.464671
  0
SEQEND
  8
0
  0
SOLID
  8
0
 62
    15
 10
2.162575
 20
5.019655
 11
2.153274
 21
5.738188
 12
2.282718
 22
5.019655
 13
2.273417
 23
5.738188
  0
POLYLINE
  8
0
  6
CONTINUOUS
 66
     1
 40
0.000000
 41
0.000000
  0
VERTEX
  8
0
  6
CONTINUOUS
 10
2.162575
 20
5.019655
  0
VERTEX
  8
0
  6
CONTINUOUS
 10
2.153274
 20
5.738188
  0
VERTEX
  8
0
  6
CONTINUOUS
 10
2.273417
 20
5.738188
  0
VERTEX
  8
0
  6
CONTINUOUS
 10
2.282718
 20
5.019655
  0
VERTEX
  8
0
  6
CONTINUOUS
 10
2.162575
 20
5.019655
  0
SEQEND
  8
0
  0
SOLID
  8
0
 62
    15
 10
2.282718
 20
5.019655
 11
2.273417
 21
5.738188
 12
2.294345
 22
5.025856
 13
2.285044
 23
5.745164
  0
POLYLINE
  8
0
  6
CONTINUOUS
 66
     1
 40
0.000000
 41
0.000000
  0
VERTEX
  8
0
  6
CONTINUOUS
 10
2.282718
 20
5.019655
  0
VERTEX
  8
0
  6
CONTINUOUS
 10
2.273417
 20
5.738188
  0
VERTEX
  8
0
  6
CONTINUOUS
 10
2.285044
 20
5.745164
  0
VERTEX
  8
0
  6
CONTINUOUS
 10
2.294345
 20
5.025856
  0
VERTEX
  8
0
  6
CONTINUOUS
 10
2.282718
 20
5.019655
  0
SEQEND
  8
0
  0
SOLID
  8
0
 62
    15
 10
2.294345
 20
5.025856
 11
2.285044
 21
5.745164
 12
2.300546
 22
5.040583
 13
2.291244
 23
5.759891
  0
POLYLINE
  8
0
  6
CONTINUOUS
 66
     1
 40
0.000000
 41
0.000000
  0
VERTEX
  8
0
  6
CONTINUOUS
 10
2.294345
 20
5.025856
  0
VERTEX
  8
0
  6
CONTINUOUS
 10
2.285044
 20
5.745164
  0
VERTEX
  8
0
  6
CONTINUOUS
 10
2.291244
 20
5.759891
  0
VERTEX
  8
0
  6
CONTINUOUS
 10
2.300546
 20
5.040583
  0
VERTEX
  8
0
  6
CONTINUOUS
 10
2.294345
 20
5.025856
  0
SEQEND
  8
0
  0
SOLID
  8
0
 62
    15
 10
2.300546
 20
5.040583
 11
2.291244
 21
5.759891
 12
2.307522
 22
5.087090
 13
2.298221
 23
5.806398
  0
POLYLINE
  8
0
  6
CONTINUOUS
 66
     1
 40
0.000000
 41
0.000000
  0
VERTEX
  8
0
  6
CONTINUOUS
 10
2.300546
 20
5.040583
  0
VERTEX
  8
0
  6
CONTINUOUS
 10
2.291244
 20
5.759891
  0
VERTEX
  8
0
  6
CONTINUOUS
 10
2.298221
 20
5.806398
  0
VERTEX
  8
0
  6
CONTINUOUS
 10
2.307522
 20
5.087090
  0
VERTEX
  8
0
  6
CONTINUOUS
 10
2.300546
 20
5.040583
  0
SEQEND
  8
0
  0
SOLID
  8
0
 62
    15
 10
2.307522
 20
5.087090
 11
2.298221
 21
5.806398
 12
2.313723
 22
5.112669
 13
2.304421
 23
5.831977
  0
POLYLINE
  8
0
  6
CONTINUOUS
 66
     1
 40
0.000000
 41
0.000000
  0
VERTEX
  8
0
  6
CONTINUOUS
 10
2.307522
 20
5.087090
  0
VERTEX
  8
0
  6
CONTINUOUS
 10
2.298221
 20
5.806398
  0
VERTEX
  8
0
  6
CONTINUOUS
 10
2.304421
 20
5.831977
  0
VERTEX
  8
0
  6
CONTINUOUS
 10
2.313723
 20
5.112669
  0
VERTEX
  8
0
  6
CONTINUOUS
 10
2.307522
 20
5.087090
  0
SEQEND
  8
0
  0
SOLID
  8
0
 62
    15
 10
2.313723
 20
5.112669
 11
2.304421
 21
5.831977
 12
2.325350
 22
5.136697
 13
2.316048
 23
5.856005
  0
POLYLINE
  8
0
  6
CONTINUOUS
 66
     1
 40
0.000000
 41
0.000000
  0
VERTEX
  8
0
  6
CONTINUOUS
 10
2.313723
 20
5.112669
  0
VERTEX
  8
0
  6
CONTINUOUS
 10
2.304421
 20
5.831977
  0
VERTEX
  8
0
  6
CONTINUOUS
 10
2.316048
 20
5.856005
  0
VERTEX
  8
0
  6
CONTINUOUS
 10
2.325350
 20
5.136697
  0
VERTEX
  8
0
  6
CONTINUOUS
 10
2.313723
 20
5.112669
  0
SEQEND
  8
0
  0
SOLID
  8
0
 62
    15
 10
2.325350
 20
5.136697
 11
2.316048
 21
5.856005
 12
2.345503
 22
5.156075
 13
2.336201
 23
5.875383
  0
POLYLINE
  8
0
  6
CONTINUOUS
 66
     1
 40
0.000000
 41
0.000000
  0
VERTEX
  8
0
  6
CONTINUOUS
 10
2.325350
 20
5.136697
  0
VERTEX
  8
0
  6
CONTINUOUS
 10
2.316048
 20
5.856005
  0
VERTEX
  8
0
  6
CONTINUOUS
 10
2.336201
 20
5.875383
  0
VERTEX
  8
0
  6
CONTINUOUS
 10
2.345503
 20
5.156075
  0
VERTEX
  8
0
  6
CONTINUOUS
 10
2.325350
 20
5.136697
  0
SEQEND
  8
0
  0
SOLID
  8
0
 62
    15
 10
2.345503
 20
5.156075
 11
2.336201
 21
5.875383
 12
2.359455
 22
5.163826
 13
2.350153
 23
5.882359
  0
POLYLINE
  8
0
  6
CONTINUOUS
 66
     1
 40
0.000000
 41
0.000000
  0
VERTEX
  8
0
  6
CONTINUOUS
 10
2.345503
 20
5.156075
  0
VERTEX
  8
0
  6
CONTINUOUS
 10
2.336201
 20
5.875383
  0
VERTEX
  8
0
  6
CONTINUOUS
 10
2.350153
 20
5.882359
  0
VERTEX
  8
0
  6
CONTINUOUS
 10
2.359455
 20
5.163826
  0
VERTEX
  8
0
  6
CONTINUOUS
 10
2.345503
 20
5.156075
  0
SEQEND
  8
0
  0
SOLID
  8
0
 62
    15
 10
2.359455
 20
5.163826
 11
2.350153
 21
5.882359
 12
2.377282
 22
5.168477
 13
2.367981
 23
5.887785
  0
POLYLINE
  8
0
  6
CONTINUOUS
 66
     1
 40
0.000000
 41
0.000000
  0
VERTEX
  8
0
  6
CONTINUOUS
 10
2.359455
 20
5.163826
  0
VERTEX
  8
0
  6
CONTINUOUS
 10
2.350153
 20
5.882359
  0
VERTEX
  8
0
  6
CONTINUOUS
 10
2.367981
 20
5.887785
  0
VERTEX
  8
0
  6
CONTINUOUS
 10
2.377282
 20
5.168477
  0
VERTEX
  8
0
  6
CONTINUOUS
 10
2.359455
 20
5.163826
  0
SEQEND
  8
0
  0
SOLID
  8
0
 62
    15
 10
2.377282
 20
5.168477
 11
2.367981
 21
5.887785
 12
2.381933
 22
5.173128
 13
2.372632
 23
5.891661
  0
POLYLINE
  8
0
  6
CONTINUOUS
 66
     1
 40
0.000000
 41
0.000000
  0
VERTEX
  8
0
  6
CONTINUOUS
 10
2.377282
 20
5.168477
  0
VERTEX
  8
0
  6
CONTINUOUS
 10
2.367981
 20
5.887785
  0
VERTEX
  8
0
  6
CONTINUOUS
 10
2.372632
 20
5.891661
  0
VERTEX
  8
0
  6
CONTINUOUS
 10
2.381933
 20
5.173128
  0
VERTEX
  8
0
  6
CONTINUOUS
 10
2.377282
 20
5.168477
  0
SEQEND
  8
0
  0
SOLID
  8
0
 62
    15
 10
2.381933
 20
5.173128
 11
2.372632
 21
5.891661
 12
2.384258
 22
5.181654
 13
2.374957
 23
5.900962
  0
POLYLINE
  8
0
  6
CONTINUOUS
 66
     1
 40
0.000000
 41
0.000000
  0
VERTEX
  8
0
  6
CONTINUOUS
 10
2.381933
 20
5.173128
  0
VERTEX
  8
0
  6
CONTINUOUS
 10
2.372632
 20
5.891661
  0
VERTEX
  8
0
  6
CONTINUOUS
 10
2.374957
 20
5.900962
  0
VERTEX
  8
0
  6
CONTINUOUS
 10
2.384258
 20
5.181654
  0
VERTEX
  8
0
  6
CONTINUOUS
 10
2.381933
 20
5.173128
  0
SEQEND
  8
0
  0
SOLID
  8
0
 62
    15
 10
2.384258
 20
5.181654
 11
2.374957
 21
5.900962
 12
2.390459
 22
5.208008
 13
2.381158
 23
5.926541
  0
POLYLINE
  8
0
  6
CONTINUOUS
 66
     1
 40
0.000000
 41
0.000000
  0
VERTEX
  8
0
  6
CONTINUOUS
 10
2.384258
 20
5.181654
  0
VERTEX
  8
0
  6
CONTINUOUS
 10
2.374957
 20
5.900962
  0
VERTEX
  8
0
  6
CONTINUOUS
 10
2.381158
 20
5.926541
  0
VERTEX
  8
0
  6
CONTINUOUS
 10
2.390459
 20
5.208008
  0
VERTEX
  8
0
  6
CONTINUOUS
 10
2.384258
 20
5.181654
  0
SEQEND
  8
0
  0
SOLID
  8
0
 62
    15
 10
2.390459
 20
5.208008
 11
2.381158
 21
5.926541
 12
2.395885
 22
5.221185
 13
2.386584
 23
5.940493
  0
POLYLINE
  8
0
  6
CONTINUOUS
 66
     1
 40
0.000000
 41
0.000000
  0
VERTEX
  8
0
  6
CONTINUOUS
 10
2.390459
 20
5.208008
  0
VERTEX
  8
0
  6
CONTINUOUS
 10
2.381158
 20
5.926541
  0
VERTEX
  8
0
  6
CONTINUOUS
 10
2.386584
 20
5.940493
  0
VERTEX
  8
0
  6
CONTINUOUS
 10
2.395885
 20
5.221185
  0
VERTEX
  8
0
  6
CONTINUOUS
 10
2.390459
 20
5.208008
  0
SEQEND
  8
0
  0
SOLID
  8
0
 62
    15
 10
2.395885
 20
5.221185
 11
2.386584
 21
5.940493
 12
2.406737
 22
5.233587
 13
2.397435
 23
5.952120
  0
POLYLINE
  8
0
  6
CONTINUOUS
 66
     1
 40
0.000000
 41
0.000000
  0
VERTEX
  8
0
  6
CONTINUOUS
 10
2.395885
 20
5.221185
  0
VERTEX
  8
0
  6
CONTINUOUS
 10
2.386584
 20
5.940493
  0
VERTEX
  8
0
  6
CONTINUOUS
 10
2.397435
 20
5.952120
  0
VERTEX
  8
0
  6
CONTINUOUS
 10
2.406737
 20
5.233587
  0
VERTEX
  8
0
  6
CONTINUOUS
 10
2.395885
 20
5.221185
  0
SEQEND
  8
0
  0
SOLID
  8
0
 62
    15
 10
2.406737
 20
5.233587
 11
2.397435
 21
5.952120
 12
2.422239
 22
5.241338
 13
2.412938
 23
5.960646
  0
POLYLINE
  8
0
  6
CONTINUOUS
 66
     1
 40
0.000000
 41
0.000000
  0
VERTEX
  8
0
  6
CONTINUOUS
 10
2.406737
 20
5.233587
  0
VERTEX
  8
0
  6
CONTINUOUS
 10
2.397435
 20
5.952120
  0
VERTEX
  8
0
  6
CONTINUOUS
 10
2.412938
 20
5.960646
  0
VERTEX
  8
0
  6
CONTINUOUS
 10
2.422239
 20
5.241338
  0
VERTEX
  8
0
  6
CONTINUOUS
 10
2.406737
 20
5.233587
  0
SEQEND
  8
0
  0
SOLID
  8
0
 62
    15
 10
2.422239
 20
5.241338
 11
2.412938
 21
5.960646
 12
2.445493
 22
5.244438
 13
2.436191
 23
5.963747
  0
POLYLINE
  8
0
  6
CONTINUOUS
 66
     1
 40
0.000000
 41
0.000000
  0
VERTEX
  8
0
  6
CONTINUOUS
 10
2.422239
 20
5.241338
  0
VERTEX
  8
0
  6
CONTINUOUS
 10
2.412938
 20
5.960646
  0
VERTEX
  8
0
  6
CONTINUOUS
 10
2.436191
 20
5.963747
  0
VERTEX
  8
0
  6
CONTINUOUS
 10
2.445493
 20
5.244438
  0
VERTEX
  8
0
  6
CONTINUOUS
 10
2.422239
 20
5.241338
  0
SEQEND
  8
0
  0
SOLID
  8
0
 62
    15
 10
3.283394
 20
5.217309
 11
3.274092
 21
5.936618
 12
3.285719
 22
5.203357
 13
3.276418
 23
5.921890
  0
POLYLINE
  8
0
  6
CONTINUOUS
 66
     1
 40
0.000000
 41
0.000000
  0
VERTEX
  8
0
  6
CONTINUOUS
 10
3.283394
 20
5.217309
  0
VERTEX
  8
0
  6
CONTINUOUS
 10
3.274092
 20
5.936618
  0
VERTEX
  8
0
  6
CONTINUOUS
 10
3.276418
 20
5.921890
  0
VERTEX
  8
0
  6
CONTINUOUS
 10
3.285719
 20
5.203357
  0
VERTEX
  8
0
  6
CONTINUOUS
 10
3.283394
 20
5.217309
  0
SEQEND
  8
0
  0
SOLID
  8
0
 62
    15
 10
3.284944
 20
5.232812
 11
3.275642
 21
5.952120
 12
3.284944
 22
5.236687
 13
3.275642
 23
5.955995
  0
POLYLINE
  8
0
  6
CONTINUOUS
 66
     1
 40
0.000000
 41
0.000000
  0
VERTEX
  8
0
  6
CONTINUOUS
 10
3.284944
 20
5.232812
  0
VERTEX
  8
0
  6
CONTINUOUS
 10
3.275642
 20
5.952120
  0
VERTEX
  8
0
  6
CONTINUOUS
 10
3.275642
 20
5.955995
  0
VERTEX
  8
0
  6
CONTINUOUS
 10
3.284944
 20
5.236687
  0
VERTEX
  8
0
  6
CONTINUOUS
 10
3.284944
 20
5.232812
  0
SEQEND
  8
0
  0
SOLID
  8
0
 62
    15
 10
3.285719
 20
5.203357
 11
3.276418
 21
5.921890
 12
3.290370
 22
5.192506
 13
3.281068
 23
5.911039
  0
POLYLINE
  8
0
  6
CONTINUOUS
 66
     1
 40
0.000000
 41
0.000000
  0
VERTEX
  8
0
  6
CONTINUOUS
 10
3.285719
 20
5.203357
  0
VERTEX
  8
0
  6
CONTINUOUS
 10
3.276418
 20
5.921890
  0
VERTEX
  8
0
  6
CONTINUOUS
 10
3.281068
 20
5.911039
  0
VERTEX
  8
0
  6
CONTINUOUS
 10
3.290370
 20
5.192506
  0
VERTEX
  8
0
  6
CONTINUOUS
 10
3.285719
 20
5.203357
  0
SEQEND
  8
0
  0
SOLID
  8
0
 62
    15
 10
2.445493
 20
5.244438
 11
2.436191
 21
5.963747
 12
3.284944
 22
5.244438
 13
3.275642
 23
5.963747
  0
POLYLINE
  8
0
  6
CONTINUOUS
 66
     1
 40
0.000000
 41
0.000000
  0
VERTEX
  8
0
  6
CONTINUOUS
 10
2.445493
 20
5.244438
  0
VERTEX
  8
0
  6
CONTINUOUS
 10
2.436191
 20
5.963747
  0
VERTEX
  8
0
  6
CONTINUOUS
 10
3.275642
 20
5.963747
  0
VERTEX
  8
0
  6
CONTINUOUS
 10
3.284944
 20
5.244438
  0
VERTEX
  8
0
  6
CONTINUOUS
 10
2.445493
 20
5.244438
  0
SEQEND
  8
0
  0
SOLID
  8
0
 62
    15
 10
3.290370
 20
5.192506
 11
3.281068
 21
5.911039
 12
3.297346
 22
5.184755
 13
3.288044
 23
5.903288
  0
POLYLINE
  8
0
  6
CONTINUOUS
 66
     1
 40
0.000000
 41
0.000000
  0
VERTEX
  8
0
  6
CONTINUOUS
 10
3.290370
 20
5.192506
  0
VERTEX
  8
0
  6
CONTINUOUS
 10
3.281068
 20
5.911039
  0
VERTEX
  8
0
  6
CONTINUOUS
 10
3.288044
 20
5.903288
  0
VERTEX
  8
0
  6
CONTINUOUS
 10
3.297346
 20
5.184755
  0
VERTEX
  8
0
  6
CONTINUOUS
 10
3.290370
 20
5.192506
  0
SEQEND
  8
0
  0
SOLID
  8
0
 62
    15
 10
3.297346
 20
5.184755
 11
3.288044
 21
5.903288
 12
3.312848
 22
5.177003
 13
3.303547
 23
5.896311
  0
POLYLINE
  8
0
  6
CONTINUOUS
 66
     1
 40
0.000000
 41
0.000000
  0
VERTEX
  8
0
  6
CONTINUOUS
 10
3.297346
 20
5.184755
  0
VERTEX
  8
0
  6
CONTINUOUS
 10
3.288044
 20
5.903288
  0
VERTEX
  8
0
  6
CONTINUOUS
 10
3.303547
 20
5.896311
  0
VERTEX
  8
0
  6
CONTINUOUS
 10
3.312848
 20
5.177003
  0
VERTEX
  8
0
  6
CONTINUOUS
 10
3.297346
 20
5.184755
  0
SEQEND
  8
0
  0
SOLID
  8
0
 62
    15
 10
3.312848
 20
5.177003
 11
3.303547
 21
5.896311
 12
3.327575
 22
5.175453
 13
3.318274
 23
5.894761
  0
POLYLINE
  8
0
  6
CONTINUOUS
 66
     1
 40
0.000000
 41
0.000000
  0
VERTEX
  8
0
  6
CONTINUOUS
 10
3.312848
 20
5.177003
  0
VERTEX
  8
0
  6
CONTINUOUS
 10
3.303547
 20
5.896311
  0
VERTEX
  8
0
  6
CONTINUOUS
 10
3.318274
 20
5.894761
  0
VERTEX
  8
0
  6
CONTINUOUS
 10
3.327575
 20
5.175453
  0
VERTEX
  8
0
  6
CONTINUOUS
 10
3.312848
 20
5.177003
  0
SEQEND
  8
0
  0
SOLID
  8
0
 62
    15
 10
3.327575
 20
5.175453
 11
3.318274
 21
5.894761
 12
3.333001
 22
5.175453
 13
3.323700
 23
5.894761
  0
POLYLINE
  8
0
  6
CONTINUOUS
 66
     1
 40
0.000000
 41
0.000000
  0
VERTEX
  8
0
  6
CONTINUOUS
 10
3.327575
 20
5.175453
  0
VERTEX
  8
0
  6
CONTINUOUS
 10
3.318274
 20
5.894761
  0
VERTEX
  8
0
  6
CONTINUOUS
 10
3.323700
 20
5.894761
  0
VERTEX
  8
0
  6
CONTINUOUS
 10
3.333001
 20
5.175453
  0
VERTEX
  8
0
  6
CONTINUOUS
 10
3.327575
 20
5.175453
  0
SEQEND
  8
0
  0
POLYLINE
  8
0
  6
CONTINUOUS
 66
     1
 40
0.000000
 41
0.000000
  0
VERTEX
  8
0
  6
CONTINUOUS
 10
3.333001
 20
5.175453
  0
VERTEX
  8
0
  6
CONTINUOUS
 10
3.411288
 20
5.178554
  0
VERTEX
  8
0
  6
CONTINUOUS
 10
3.479498
 20
5.176228
  0
VERTEX
  8
0
  6
CONTINUOUS
 10
3.539182
 20
5.170027
  0
VERTEX
  8
0
  6
CONTINUOUS
 10
3.591890
 20
5.159951
  0
VERTEX
  8
0
  6
CONTINUOUS
 10
3.639172
 20
5.146774
  0
VERTEX
  8
0
  6
CONTINUOUS
 10
3.682579
 20
5.131271
  0
VERTEX
  8
0
  6
CONTINUOUS
 10
3.850004
 20
5.057635
  0
VERTEX
  8
0
  6
CONTINUOUS
 10
3.897286
 20
5.039808
  0
VERTEX
  8
0
  6
CONTINUOUS
 10
3.950769
 20
5.023530
  0
VERTEX
  8
0
  6
CONTINUOUS
 10
4.010453
 20
5.008803
  0
VERTEX
  8
0
  6
CONTINUOUS
 10
4.078663
 20
4.996401
  0
VERTEX
  8
0
  6
CONTINUOUS
 10
4.156950
 20
4.987875
  0
VERTEX
  8
0
  6
CONTINUOUS
 10
4.246863
 20
4.983224
  0
VERTEX
  8
0
  6
CONTINUOUS
 10
4.250739
 20
5.026631
  0
VERTEX
  8
0
  6
CONTINUOUS
 10
4.262366
 20
5.063836
  0
VERTEX
  8
0
  6
CONTINUOUS
 10
4.280969
 20
5.097166
  0
VERTEX
  8
0
  6
CONTINUOUS
 10
4.304997
 20
5.126621
  0
VERTEX
  8
0
  6
CONTINUOUS
 10
4.334452
 20
5.150649
  0
VERTEX
  8
0
  6
CONTINUOUS
 10
4.367782
 20
5.169252
  0
VERTEX
  8
0
  6
CONTINUOUS
 10
4.404212
 20
5.180879
  0
VERTEX
  8
0
  6
CONTINUOUS
 10
4.443743
 20
5.184755
  0
VERTEX
  8
0
  6
CONTINUOUS
 10
4.483274
 20
5.180879
  0
VERTEX
  8
0
  6
CONTINUOUS
 10
4.520480
 20
5.169252
  0
VERTEX
  8
0
  6
CONTINUOUS
 10
4.553810
 20
5.150649
  0
VERTEX
  8
0
  6
CONTINUOUS
 10
4.583264
 20
5.126621
  0
VERTEX
  8
0
  6
CONTINUOUS
 10
4.607293
 20
5.097166
  0
VERTEX
  8
0
  6
CONTINUOUS
 10
4.625895
 20
5.063836
  0
VERTEX
  8
0
  6
CONTINUOUS
 10
4.637522
 20
5.026631
  0
VERTEX
  8
0
  6
CONTINUOUS
 10
4.641398
 20
4.983224
  0
VERTEX
  8
0
  6
CONTINUOUS
 10
4.756115
 20
4.983224
  0
VERTEX
  8
0
  6
CONTINUOUS
 10
4.759991
 20
5.022755
  0
VERTEX
  8
0
  6
CONTINUOUS
 10
4.771617
 20
5.059961
  0
VERTEX
  8
0
  6
CONTINUOUS
 10
4.790220
 20
5.093291
  0
VERTEX
  8
0
  6
CONTINUOUS
 10
4.814249
 20
5.122745
  0
VERTEX
  8
0
  6
CONTINUOUS
 10
4.843703
 20
5.146774
  0
VERTEX
  8
0
  6
CONTINUOUS
 10
4.877033
 20
5.165377
  0
VERTEX
  8
0
  6
CONTINUOUS
 10
4.913464
 20
5.177003
  0
VERTEX
  8
0
  6
CONTINUOUS
 10
4.952995
 20
5.180879
  0
VERTEX
  8
0
  6
CONTINUOUS
 10
4.992526
 20
5.177003
  0
VERTEX
  8
0
  6
CONTINUOUS
 10
5.029731
 20
5.165377
  0
VERTEX
  8
0
  6
CONTINUOUS
 10
5.063061
 20
5.146774
  0
VERTEX
  8
0
  6
CONTINUOUS
 10
5.092516
 20
5.122745
  0
VERTEX
  8
0
  6
CONTINUOUS
 10
5.116544
 20
5.093291
  0
VERTEX
  8
0
  6
CONTINUOUS
 10
5.135147
 20
5.059961
  0
VERTEX
  8
0
  6
CONTINUOUS
 10
5.146774
 20
5.022755
  0
VERTEX
  8
0
  6
CONTINUOUS
 10
5.150649
 20
4.980899
  0
VERTEX
  8
0
  6
CONTINUOUS
 10
5.258391
 20
4.980899
  0
VERTEX
  8
0
  6
CONTINUOUS
 10
5.263041
 20
5.021205
  0
VERTEX
  8
0
  6
CONTINUOUS
 10
5.274668
 20
5.058411
  0
VERTEX
  8
0
  6
CONTINUOUS
 10
5.292496
 20
5.091741
  0
VERTEX
  8
0
  6
CONTINUOUS
 10
5.316524
 20
5.121195
  0
VERTEX
  8
0
  6
CONTINUOUS
 10
5.345979
 20
5.145224
  0
VERTEX
  8
0
  6
CONTINUOUS
 10
5.379309
 20
5.163826
  0
VERTEX
  8
0
  6
CONTINUOUS
 10
5.416514
 20
5.175453
  0
VERTEX
  8
0
  6
CONTINUOUS
 10
5.456045
 20
5.179329
  0
VERTEX
  8
0
  6
CONTINUOUS
 10
5.495576
 20
5.175453
  0
VERTEX
  8
0
  6
CONTINUOUS
 10
5.532007
 20
5.163826
  0
VERTEX
  8
0
  6
CONTINUOUS
 10
5.566112
 20
5.145224
  0
VERTEX
  8
0
  6
CONTINUOUS
 10
5.594791
 20
5.121195
  0
VERTEX
  8
0
  6
CONTINUOUS
 10
5.619595
 20
5.091741
  0
VERTEX
  8
0
  6
CONTINUOUS
 10
5.637423
 20
5.058411
  0
VERTEX
  8
0
  6
CONTINUOUS
 10
5.649049
 20
5.021205
  0
VERTEX
  8
0
  6
CONTINUOUS
 10
5.653700
 20
4.977798
  0
VERTEX
  8
0
  6
CONTINUOUS
 10
5.742838
 20
4.982449
  0
VERTEX
  8
0
  6
CONTINUOUS
 10
5.821125
 20
4.991750
  0
VERTEX
  8
0
  6
CONTINUOUS
 10
5.889335
 20
5.003377
  0
VERTEX
  8
0
  6
CONTINUOUS
 10
5.949795
 20
5.018104
  0
VERTEX
  8
0
  6
CONTINUOUS
 10
6.002502
 20
5.034382
  0
VERTEX
  8
0
  6
CONTINUOUS
 10
6.049785
 20
5.052210
  0
VERTEX
  8
0
  6
CONTINUOUS
 10
6.217210
 20
5.125846
  0
VERTEX
  8
0
  6
CONTINUOUS
 10
6.260616
 20
5.141348
  0
VERTEX
  8
0
  6
CONTINUOUS
 10
6.307898
 20
5.154525
  0
VERTEX
  8
0
  6
CONTINUOUS
 10
6.360606
 20
5.164601
  0
VERTEX
  8
0
  6
CONTINUOUS
 10
6.420290
 20
5.170802
  0
VERTEX
  8
0
  6
CONTINUOUS
 10
6.488501
 20
5.173128
  0
VERTEX
  8
0
  6
CONTINUOUS
 10
6.572213
 20
5.170027
  0
VERTEX
  8
0
  6
CONTINUOUS
 10
6.585390
 20
5.173903
  0
VERTEX
  8
0
  6
CONTINUOUS
 10
6.598567
 20
5.183979
  0
VERTEX
  8
0
  6
CONTINUOUS
 10
6.609419
 20
5.203357
  0
VERTEX
  8
0
  6
CONTINUOUS
 10
6.614845
 20
5.235137
  0
VERTEX
  8
0
  6
CONTINUOUS
 10
7.418640
 20
5.235137
  0
VERTEX
  8
0
  6
CONTINUOUS
 10
7.441119
 20
5.232037
  0
VERTEX
  8
0
  6
CONTINUOUS
 10
7.457396
 20
5.224285
  0
VERTEX
  8
0
  6
CONTINUOUS
 10
7.467473
 20
5.211884
  0
VERTEX
  8
0
  6
CONTINUOUS
 10
7.473674
 20
5.198707
  0
VERTEX
  8
0
  6
CONTINUOUS
 10
7.482200
 20
5.163826
  0
VERTEX
  8
0
  6
CONTINUOUS
 10
7.486851
 20
5.159176
  0
VERTEX
  8
0
  6
CONTINUOUS
 10
7.503903
 20
5.154525
  0
VERTEX
  8
0
  6
CONTINUOUS
 10
7.518630
 20
5.147549
  0
VERTEX
  8
0
  6
CONTINUOUS
 10
7.540334
 20
5.128171
  0
VERTEX
  8
0
  6
CONTINUOUS
 10
7.552736
 20
5.104918
  0
VERTEX
  8
0
  6
CONTINUOUS
 10
7.559712
 20
5.079339
  0
VERTEX
  8
0
  6
CONTINUOUS
 10
7.566688
 20
5.033607
  0
VERTEX
  8
0
  6
CONTINUOUS
 10
7.572113
 20
5.017329
  0
VERTEX
  8
0
  6
CONTINUOUS
 10
7.581415
 20
5.010353
  0
VERTEX
  8
0
  6
CONTINUOUS
 10
7.673654
 20
5.010353
  0
VERTEX
  8
0
  6
CONTINUOUS
 10
7.678304
 20
5.007253
  0
VERTEX
  8
0
  6
CONTINUOUS
 10
7.678304
 20
4.464671
  0
VERTEX
  8
0
  6
CONTINUOUS
 10
2.162575
 20
4.464671
  0
VERTEX
  8
0
  6
CONTINUOUS
 10
2.162575
 20
5.019655
  0
VERTEX
  8
0
  6
CONTINUOUS
 10
2.282718
 20
5.019655
  0
VERTEX
  8
0
  6
CONTINUOUS
 10
2.294345
 20
5.025856
  0
VERTEX
  8
0
  6
CONTINUOUS
 10
2.300546
 20
5.040583
  0
VERTEX
  8
0
  6
CONTINUOUS
 10
2.307522
 20
5.087090
  0
VERTEX
  8
0
  6
CONTINUOUS
 10
2.313723
 20
5.112669
  0
VERTEX
  8
0
  6
CONTINUOUS
 10
2.325350
 20
5.136697
  0
VERTEX
  8
0
  6
CONTINUOUS
 10
2.345503
 20
5.156075
  0
VERTEX
  8
0
  6
CONTINUOUS
 10
2.359455
 20
5.163826
  0
VERTEX
  8
0
  6
CONTINUOUS
 10
2.377282
 20
5.168477
  0
VERTEX
  8
0
  6
CONTINUOUS
 10
2.381933
 20
5.173128
  0
VERTEX
  8
0
  6
CONTINUOUS
 10
2.390459
 20
5.208008
  0
VERTEX
  8
0
  6
CONTINUOUS
 10
2.395885
 20
5.221185
  0
VERTEX
  8
0
  6
CONTINUOUS
 10
2.406737
 20
5.233587
  0
VERTEX
  8
0
  6
CONTINUOUS
 10
2.422239
 20
5.241338
  0
VERTEX
  8
0
  6
CONTINUOUS
 10
2.445493
 20
5.244438
  0
VERTEX
  8
0
  6
CONTINUOUS
 10
3.284944
 20
5.244438
  0
VERTEX
  8
0
  6
CONTINUOUS
 10
3.284944
 20
5.232812
  0
VERTEX
  8
0
  6
CONTINUOUS
 10
3.284944
 20
5.236687
  0
VERTEX
  8
0
  6
CONTINUOUS
 10
3.283394
 20
5.217309
  0
VERTEX
  8
0
  6
CONTINUOUS
 10
3.285719
 20
5.203357
  0
VERTEX
  8
0
  6
CONTINUOUS
 10
3.290370
 20
5.192506
  0
VERTEX
  8
0
  6
CONTINUOUS
 10
3.297346
 20
5.184755
  0
VERTEX
  8
0
  6
CONTINUOUS
 10
3.312848
 20
5.177003
  0
VERTEX
  8
0
  6
CONTINUOUS
 10
3.333001
 20
5.175453
  0
SEQEND
  8
0
  0
TEXT
  8
0
 10
4.619695
 20
4.185629
 40
0.135362
  1
BA  250
 41
1.000000
  7
SN1
 71
     0
 72
     5
 11
5.205071
 21
4.185629
  0
TEXT
  8
0
 10
4.463896
 20
3.994176
 40
0.135362
  1
3/4" x 5-1/2"
 41
1.000000
  7
SN1
 71
     0
 72
     5
 11
5.356024
 21
3.994176
  0
TEXT
  8
0
 10
7.736438
 20
7.258966
 40
0.135362
  1
case
 41
1.000000
  7
SN1
 71
     0
 72
     5
 11
8.084500
 21
7.258966
  0
TEXT
  8
0
 10
7.772869
 20
7.067513
 40
0.135362
  1
250
 41
1.000000
  7
SN1
 71
     0
 72
     5
 11
8.047099
 21
7.067513
  0
ENDSEC
  0
EOF
