  0
SECTION
  2
HEADER
  9
$ACADVER
  1
AC1006
  9
$EXTMIN
 10
4.113120
 20
0.366960
  9
$EXTMAX
 10
8.044080
 20
4.240280
  9
$LTSCALE
 40
0.044000
  9
$PDMODE
 70
    35
  9
$PDSIZE
 40
0.035200
  0
ENDSEC
  0
SECTION
  2
TABLES
  0
TABLE
  2
LTYPE
 70
     9
  0
LTYPE
  2
CONTINUOUS
 70
    64
  3
Solid line
 72
    65
 73
     0
 40
0.000000
  0
LTYPE
  2
DASHED
 70
    64
  3
__ __ __ __ __ __ __ __ __ __ __ __ __ __ __
 72
    65
 73
     2
 40
0.000330
 49
0.000220
 49
-0.000110
  0
LTYPE
  2
HIDDEN
 70
    64
  3
 _ _ _ _ _ _ _ _ _ _ _ _ _ _ _ _ _ _ _ _ _ _
 72
    65
 73
     2
 40
0.000165
 49
0.000110
 49
-0.000055
  0
LTYPE
  2
CENTER
 70
    64
  3
____ _ ____ _ ____ _ ____ _ ____ _ ____ _ ____
 72
    65
 73
     4
 40
0.000880
 49
0.000550
 49
-0.000110
 49
0.000110
 49
-0.000110
  0
LTYPE
  2
PHANTOM
 70
    64
  3
_____ _ _ _____ _ _ _____ _ _ _____ _ _ ____
 72
    65
 73
     6
 40
0.001100
 49
0.000550
 49
-0.000110
 49
0.000110
 49
-0.000110
 49
0.000110
 49
-0.000110
  0
LTYPE
  2
DOT
 70
    64
  3
...............................................
 72
    65
 73
     2
 40
0.000110
 49
0.000000
 49
-0.000110
  0
LTYPE
  2
DASHDOT
 70
    64
  3
__ . __ . __ . __ . __ . __ . __ . __ . __ . __
 72
    65
 73
     4
 40
0.000440
 49
0.000220
 49
-0.000110
 49
0.000000
 49
-0.000110
  0
LTYPE
  2
BORDER
 70
    64
  3
__ __ . __ __ . __ __ . __ __ . __ __ . __ __
 72
    65
 73
     6
 40
0.000770
 49
0.000220
 49
-0.000110
 49
0.000220
 49
-0.000110
 49
0.000000
 49
-0.000110
  0
LTYPE
  2
DIVIDE
 70
    64
  3
__ . . __ . . __ . . __ . . __ . . __ . . __
 72
    65
 73
     6
 40
0.000550
 49
0.000220
 49
-0.000110
 49
0.000000
 49
-0.000110
 49
0.000000
 49
-0.000110
  0
LTYPE
  2
DOTDOT
 70
    64
  3
 . .  . .  . .  . .  . .  . . 
 72
    65
 73
     5
 40
0.000242
 49
-0.000110
 49
0.000000
 49
-0.000110
 49
0.000000
 49
-0.000110
  0
ENDTAB
  0
TABLE
  2
STYLE
 70
     2
  0
STYLE
 70
     0
  2
SN0
 40
0.000000
 41
0.000440
 50
0.000000
 71
     0
 42
0.000000
  3
ROMAND
  0
STYLE
 70
    68
  2
SV0
 40
0.000000
 41
0.000440
 50
0.000000
 71
     0
 42
0.000000
  3
ROMAND
  0
ENDTAB
  0
TABLE
  2
LAYER
 70
     3
  0
LAYER
  2
FOREGROUND
 70
    64
 62
     7
  6
CONTINUOUS
  0
LAYER
  2
BACKGROUND
 70
    65
 62
    -7
  6
CONTINUOUS
  0
LAYER
  2
0
 70
    64
 62
     7
  6
CONTINUOUS
  0
ENDTAB
  0
ENDSEC
  0
SECTION
  2
ENTITIES
  0
POLYLINE
  8
FOREGROUND
  6
CONTINUOUS
 66
     1
 40
0.000000
 41
0.000000
  0
VERTEX
  8
FOREGROUND
  6
CONTINUOUS
 10
0.000000
 20
4.607240
  0
VERTEX
  8
FOREGROUND
  6
CONTINUOUS
 10
8.499920
 20
4.607240
  0
VERTEX
  8
FOREGROUND
  6
CONTINUOUS
 10
8.499920
 20
-6.392760
  0
VERTEX
  8
FOREGROUND
  6
CONTINUOUS
 10
0.000000
 20
-6.392760
  0
VERTEX
  8
FOREGROUND
  6
CONTINUOUS
 10
0.000000
 20
4.607240
  0
SEQEND
  8
0
  0
POLYLINE
  8
FOREGROUND
  6
CONTINUOUS
 66
     1
 40
0.000000
 41
0.000000
  0
VERTEX
  8
FOREGROUND
  6
CONTINUOUS
 10
0.000000
 20
4.607240
  0
VERTEX
  8
FOREGROUND
  6
CONTINUOUS
 10
8.499920
 20
4.607240
  0
VERTEX
  8
FOREGROUND
  6
CONTINUOUS
 10
8.499920
 20
-6.392760
  0
VERTEX
  8
FOREGROUND
  6
CONTINUOUS
 10
0.000000
 20
-6.392760
  0
VERTEX
  8
FOREGROUND
  6
CONTINUOUS
 10
0.000000
 20
4.607240
  0
SEQEND
  8
0
  0
POLYLINE
  8
0
  6
CONTINUOUS
 66
     1
 40
0.014080
 41
0.014080
  0
VERTEX
  8
0
  6
CONTINUOUS
 10
4.405280
 20
2.579280
  0
VERTEX
  8
0
  6
CONTINUOUS
 10
6.157360
 20
2.579280
  0
VERTEX
  8
0
  6
CONTINUOUS
 10
6.157360
 20
2.863520
  0
VERTEX
  8
0
  6
CONTINUOUS
 10
6.192120
 20
2.866600
  0
VERTEX
  8
0
  6
CONTINUOUS
 10
6.207520
 20
2.869680
  0
VERTEX
  8
0
  6
CONTINUOUS
 10
6.236120
 20
2.880240
  0
VERTEX
  8
0
  6
CONTINUOUS
 10
6.260760
 20
2.894320
  0
VERTEX
  8
0
  6
CONTINUOUS
 10
6.280560
 20
2.911480
  0
VERTEX
  8
0
  6
CONTINUOUS
 10
6.295960
 20
2.931720
  0
VERTEX
  8
0
  6
CONTINUOUS
 10
6.306960
 20
2.953720
  0
VERTEX
  8
0
  6
CONTINUOUS
 10
6.313560
 20
2.977040
  0
VERTEX
  8
0
  6
CONTINUOUS
 10
6.314880
 20
3.000800
  0
VERTEX
  8
0
  6
CONTINUOUS
 10
6.314000
 20
3.012680
  0
VERTEX
  8
0
  6
CONTINUOUS
 10
6.307840
 20
3.036440
  0
VERTEX
  8
0
  6
CONTINUOUS
 10
6.296840
 20
3.058880
  0
VERTEX
  8
0
  6
CONTINUOUS
 10
6.280560
 20
3.079560
  0
VERTEX
  8
0
  6
CONTINUOUS
 10
6.258560
 20
3.098040
  0
VERTEX
  8
0
  6
CONTINUOUS
 10
6.231280
 20
3.113000
  0
VERTEX
  8
0
  6
CONTINUOUS
 10
6.198720
 20
3.124440
  0
VERTEX
  8
0
  6
CONTINUOUS
 10
6.157360
 20
3.131480
  0
VERTEX
  8
0
  6
CONTINUOUS
 10
6.165280
 20
3.248080
  0
VERTEX
  8
0
  6
CONTINUOUS
 10
6.177160
 20
3.331240
  0
VERTEX
  8
0
  6
CONTINUOUS
 10
6.183320
 20
3.361600
  0
VERTEX
  8
0
  6
CONTINUOUS
 10
6.200480
 20
3.424080
  0
VERTEX
  8
0
  6
CONTINUOUS
 10
6.225120
 20
3.487880
  0
VERTEX
  8
0
  6
CONTINUOUS
 10
6.249320
 20
3.535840
  0
VERTEX
  8
0
  6
CONTINUOUS
 10
6.279240
 20
3.582920
  0
VERTEX
  8
0
  6
CONTINUOUS
 10
6.315320
 20
3.628680
  0
VERTEX
  8
0
  6
CONTINUOUS
 10
6.343040
 20
3.657720
  0
VERTEX
  8
0
  6
CONTINUOUS
 10
6.391000
 20
3.699080
  0
VERTEX
  8
0
  6
CONTINUOUS
 10
6.427520
 20
3.725040
  0
VERTEX
  8
0
  6
CONTINUOUS
 10
6.488680
 20
3.760240
  0
VERTEX
  8
0
  6
CONTINUOUS
 10
6.534440
 20
3.780920
  0
VERTEX
  8
0
  6
CONTINUOUS
 10
6.584600
 20
3.799400
  0
VERTEX
  8
0
  6
CONTINUOUS
 10
6.638720
 20
3.815680
  0
VERTEX
  8
0
  6
CONTINUOUS
 10
6.697680
 20
3.828880
  0
VERTEX
  8
0
  6
CONTINUOUS
 10
6.761040
 20
3.839440
  0
VERTEX
  8
0
  6
CONTINUOUS
 10
6.829240
 20
3.846920
  0
VERTEX
  8
0
  6
CONTINUOUS
 10
6.902720
 20
3.850880
  0
VERTEX
  8
0
  6
CONTINUOUS
 10
6.981480
 20
3.851320
  0
VERTEX
  8
0
  6
CONTINUOUS
 10
7.028120
 20
3.850000
  0
VERTEX
  8
0
  6
CONTINUOUS
 10
7.028120
 20
4.088480
  0
VERTEX
  8
0
  6
CONTINUOUS
 10
4.400000
 20
4.088480
  0
VERTEX
  8
0
  6
CONTINUOUS
 10
4.400000
 20
2.579280
  0
VERTEX
  8
0
  6
CONTINUOUS
 10
4.405280
 20
2.579280
  0
SEQEND
  8
0
  0
SOLID
  8
0
 62
    15
 10
5.878840
 20
1.415480
 11
6.523440
 21
1.051160
 12
5.875320
 22
1.367520
 13
6.519480
 23
1.003640
  0
POLYLINE
  8
0
  6
CONTINUOUS
 66
     1
 40
0.000000
 41
0.000000
  0
VERTEX
  8
0
  6
CONTINUOUS
 10
5.878840
 20
1.415480
  0
VERTEX
  8
0
  6
CONTINUOUS
 10
6.523440
 20
1.051160
  0
VERTEX
  8
0
  6
CONTINUOUS
 10
6.519480
 20
1.003640
  0
VERTEX
  8
0
  6
CONTINUOUS
 10
5.875320
 20
1.367520
  0
VERTEX
  8
0
  6
CONTINUOUS
 10
5.878840
 20
1.415480
  0
SEQEND
  8
0
  0
SOLID
  8
0
 62
    15
 10
6.741680
 20
2.017400
 11
7.386280
 21
1.653520
 12
6.578880
 22
2.016960
 13
7.223480
 23
1.652640
  0
POLYLINE
  8
0
  6
CONTINUOUS
 66
     1
 40
0.000000
 41
0.000000
  0
VERTEX
  8
0
  6
CONTINUOUS
 10
6.741680
 20
2.017400
  0
VERTEX
  8
0
  6
CONTINUOUS
 10
7.386280
 20
1.653520
  0
VERTEX
  8
0
  6
CONTINUOUS
 10
7.223480
 20
1.652640
  0
VERTEX
  8
0
  6
CONTINUOUS
 10
6.578880
 20
2.016960
  0
VERTEX
  8
0
  6
CONTINUOUS
 10
6.741680
 20
2.017400
  0
SEQEND
  8
0
  0
SOLID
  8
0
 62
    15
 10
6.578880
 20
2.016960
 11
7.223480
 21
1.652640
 12
6.442040
 22
2.002440
 13
7.086640
 23
1.638120
  0
POLYLINE
  8
0
  6
CONTINUOUS
 66
     1
 40
0.000000
 41
0.000000
  0
VERTEX
  8
0
  6
CONTINUOUS
 10
6.578880
 20
2.016960
  0
VERTEX
  8
0
  6
CONTINUOUS
 10
7.223480
 20
1.652640
  0
VERTEX
  8
0
  6
CONTINUOUS
 10
7.086640
 20
1.638120
  0
VERTEX
  8
0
  6
CONTINUOUS
 10
6.442040
 20
2.002440
  0
VERTEX
  8
0
  6
CONTINUOUS
 10
6.578880
 20
2.016960
  0
SEQEND
  8
0
  0
SOLID
  8
0
 62
    15
 10
6.442040
 20
2.002440
 11
7.086640
 21
1.638120
 12
6.324560
 22
1.975600
 13
6.968720
 23
1.611280
  0
POLYLINE
  8
0
  6
CONTINUOUS
 66
     1
 40
0.000000
 41
0.000000
  0
VERTEX
  8
0
  6
CONTINUOUS
 10
6.442040
 20
2.002440
  0
VERTEX
  8
0
  6
CONTINUOUS
 10
7.086640
 20
1.638120
  0
VERTEX
  8
0
  6
CONTINUOUS
 10
6.968720
 20
1.611280
  0
VERTEX
  8
0
  6
CONTINUOUS
 10
6.324560
 20
1.975600
  0
VERTEX
  8
0
  6
CONTINUOUS
 10
6.442040
 20
2.002440
  0
SEQEND
  8
0
  0
SOLID
  8
0
 62
    15
 10
6.324560
 20
1.975600
 11
6.968720
 21
1.611280
 12
6.224240
 22
1.938200
 13
6.868840
 23
1.574320
  0
POLYLINE
  8
0
  6
CONTINUOUS
 66
     1
 40
0.000000
 41
0.000000
  0
VERTEX
  8
0
  6
CONTINUOUS
 10
6.324560
 20
1.975600
  0
VERTEX
  8
0
  6
CONTINUOUS
 10
6.968720
 20
1.611280
  0
VERTEX
  8
0
  6
CONTINUOUS
 10
6.868840
 20
1.574320
  0
VERTEX
  8
0
  6
CONTINUOUS
 10
6.224240
 20
1.938200
  0
VERTEX
  8
0
  6
CONTINUOUS
 10
6.324560
 20
1.975600
  0
SEQEND
  8
0
  0
SOLID
  8
0
 62
    15
 10
6.224240
 20
1.938200
 11
6.868840
 21
1.574320
 12
6.140640
 22
1.892440
 13
6.785240
 23
1.528120
  0
POLYLINE
  8
0
  6
CONTINUOUS
 66
     1
 40
0.000000
 41
0.000000
  0
VERTEX
  8
0
  6
CONTINUOUS
 10
6.224240
 20
1.938200
  0
VERTEX
  8
0
  6
CONTINUOUS
 10
6.868840
 20
1.574320
  0
VERTEX
  8
0
  6
CONTINUOUS
 10
6.785240
 20
1.528120
  0
VERTEX
  8
0
  6
CONTINUOUS
 10
6.140640
 20
1.892440
  0
VERTEX
  8
0
  6
CONTINUOUS
 10
6.224240
 20
1.938200
  0
SEQEND
  8
0
  0
SOLID
  8
0
 62
    15
 10
6.140640
 20
1.892440
 11
6.785240
 21
1.528120
 12
6.071560
 22
1.839200
 13
6.716160
 23
1.475320
  0
POLYLINE
  8
0
  6
CONTINUOUS
 66
     1
 40
0.000000
 41
0.000000
  0
VERTEX
  8
0
  6
CONTINUOUS
 10
6.140640
 20
1.892440
  0
VERTEX
  8
0
  6
CONTINUOUS
 10
6.785240
 20
1.528120
  0
VERTEX
  8
0
  6
CONTINUOUS
 10
6.716160
 20
1.475320
  0
VERTEX
  8
0
  6
CONTINUOUS
 10
6.071560
 20
1.839200
  0
VERTEX
  8
0
  6
CONTINUOUS
 10
6.140640
 20
1.892440
  0
SEQEND
  8
0
  0
SOLID
  8
0
 62
    15
 10
6.071560
 20
1.839200
 11
6.716160
 21
1.475320
 12
6.016120
 22
1.781120
 13
6.660720
 23
1.416800
  0
POLYLINE
  8
0
  6
CONTINUOUS
 66
     1
 40
0.000000
 41
0.000000
  0
VERTEX
  8
0
  6
CONTINUOUS
 10
6.071560
 20
1.839200
  0
VERTEX
  8
0
  6
CONTINUOUS
 10
6.716160
 20
1.475320
  0
VERTEX
  8
0
  6
CONTINUOUS
 10
6.660720
 20
1.416800
  0
VERTEX
  8
0
  6
CONTINUOUS
 10
6.016120
 20
1.781120
  0
VERTEX
  8
0
  6
CONTINUOUS
 10
6.071560
 20
1.839200
  0
SEQEND
  8
0
  0
SOLID
  8
0
 62
    15
 10
6.016120
 20
1.781120
 11
6.660720
 21
1.416800
 12
5.972120
 22
1.719080
 13
6.616720
 23
1.355200
  0
POLYLINE
  8
0
  6
CONTINUOUS
 66
     1
 40
0.000000
 41
0.000000
  0
VERTEX
  8
0
  6
CONTINUOUS
 10
6.016120
 20
1.781120
  0
VERTEX
  8
0
  6
CONTINUOUS
 10
6.660720
 20
1.416800
  0
VERTEX
  8
0
  6
CONTINUOUS
 10
6.616720
 20
1.355200
  0
VERTEX
  8
0
  6
CONTINUOUS
 10
5.972120
 20
1.719080
  0
VERTEX
  8
0
  6
CONTINUOUS
 10
6.016120
 20
1.781120
  0
SEQEND
  8
0
  0
SOLID
  8
0
 62
    15
 10
5.972120
 20
1.719080
 11
6.616720
 21
1.355200
 12
5.938680
 22
1.655280
 13
6.583280
 23
1.291400
  0
POLYLINE
  8
0
  6
CONTINUOUS
 66
     1
 40
0.000000
 41
0.000000
  0
VERTEX
  8
0
  6
CONTINUOUS
 10
5.972120
 20
1.719080
  0
VERTEX
  8
0
  6
CONTINUOUS
 10
6.616720
 20
1.355200
  0
VERTEX
  8
0
  6
CONTINUOUS
 10
6.583280
 20
1.291400
  0
VERTEX
  8
0
  6
CONTINUOUS
 10
5.938680
 20
1.655280
  0
VERTEX
  8
0
  6
CONTINUOUS
 10
5.972120
 20
1.719080
  0
SEQEND
  8
0
  0
SOLID
  8
0
 62
    15
 10
5.938680
 20
1.655280
 11
6.583280
 21
1.291400
 12
5.914040
 22
1.591480
 13
6.558640
 23
1.227160
  0
POLYLINE
  8
0
  6
CONTINUOUS
 66
     1
 40
0.000000
 41
0.000000
  0
VERTEX
  8
0
  6
CONTINUOUS
 10
5.938680
 20
1.655280
  0
VERTEX
  8
0
  6
CONTINUOUS
 10
6.583280
 20
1.291400
  0
VERTEX
  8
0
  6
CONTINUOUS
 10
6.558640
 20
1.227160
  0
VERTEX
  8
0
  6
CONTINUOUS
 10
5.914040
 20
1.591480
  0
VERTEX
  8
0
  6
CONTINUOUS
 10
5.938680
 20
1.655280
  0
SEQEND
  8
0
  0
SOLID
  8
0
 62
    15
 10
5.914040
 20
1.591480
 11
6.558640
 21
1.227160
 12
5.885880
 22
1.469600
 13
6.530040
 23
1.105720
  0
POLYLINE
  8
0
  6
CONTINUOUS
 66
     1
 40
0.000000
 41
0.000000
  0
VERTEX
  8
0
  6
CONTINUOUS
 10
5.914040
 20
1.591480
  0
VERTEX
  8
0
  6
CONTINUOUS
 10
6.558640
 20
1.227160
  0
VERTEX
  8
0
  6
CONTINUOUS
 10
6.530040
 20
1.105720
  0
VERTEX
  8
0
  6
CONTINUOUS
 10
5.885880
 20
1.469600
  0
VERTEX
  8
0
  6
CONTINUOUS
 10
5.914040
 20
1.591480
  0
SEQEND
  8
0
  0
SOLID
  8
0
 62
    15
 10
5.885880
 20
1.469600
 11
6.530040
 21
1.105720
 12
5.878840
 22
1.415480
 13
6.523440
 23
1.051160
  0
POLYLINE
  8
0
  6
CONTINUOUS
 66
     1
 40
0.000000
 41
0.000000
  0
VERTEX
  8
0
  6
CONTINUOUS
 10
5.885880
 20
1.469600
  0
VERTEX
  8
0
  6
CONTINUOUS
 10
6.530040
 20
1.105720
  0
VERTEX
  8
0
  6
CONTINUOUS
 10
6.523440
 20
1.051160
  0
VERTEX
  8
0
  6
CONTINUOUS
 10
5.878840
 20
1.415480
  0
VERTEX
  8
0
  6
CONTINUOUS
 10
5.885880
 20
1.469600
  0
SEQEND
  8
0
  0
SOLID
  8
0
 62
    15
 10
6.741680
 20
2.256320
 11
7.386280
 21
1.892000
 12
6.741680
 22
2.017400
 13
7.386280
 23
1.653520
  0
POLYLINE
  8
0
  6
CONTINUOUS
 66
     1
 40
0.000000
 41
0.000000
  0
VERTEX
  8
0
  6
CONTINUOUS
 10
6.741680
 20
2.256320
  0
VERTEX
  8
0
  6
CONTINUOUS
 10
7.386280
 20
1.892000
  0
VERTEX
  8
0
  6
CONTINUOUS
 10
7.386280
 20
1.653520
  0
VERTEX
  8
0
  6
CONTINUOUS
 10
6.741680
 20
2.017400
  0
VERTEX
  8
0
  6
CONTINUOUS
 10
6.741680
 20
2.256320
  0
SEQEND
  8
0
  0
SOLID
  8
0
 62
    15
 10
5.875320
 20
1.367520
 11
6.519480
 21
1.003640
 12
5.873120
 22
1.328360
 13
6.517720
 23
0.964040
  0
POLYLINE
  8
0
  6
CONTINUOUS
 66
     1
 40
0.000000
 41
0.000000
  0
VERTEX
  8
0
  6
CONTINUOUS
 10
5.875320
 20
1.367520
  0
VERTEX
  8
0
  6
CONTINUOUS
 10
6.519480
 20
1.003640
  0
VERTEX
  8
0
  6
CONTINUOUS
 10
6.517720
 20
0.964040
  0
VERTEX
  8
0
  6
CONTINUOUS
 10
5.873120
 20
1.328360
  0
VERTEX
  8
0
  6
CONTINUOUS
 10
5.875320
 20
1.367520
  0
SEQEND
  8
0
  0
SOLID
  8
0
 62
    15
 10
5.873120
 20
1.328360
 11
6.517720
 21
0.964040
 12
5.870920
 22
1.298880
 13
6.515520
 23
0.934560
  0
POLYLINE
  8
0
  6
CONTINUOUS
 66
     1
 40
0.000000
 41
0.000000
  0
VERTEX
  8
0
  6
CONTINUOUS
 10
5.873120
 20
1.328360
  0
VERTEX
  8
0
  6
CONTINUOUS
 10
6.517720
 20
0.964040
  0
VERTEX
  8
0
  6
CONTINUOUS
 10
6.515520
 20
0.934560
  0
VERTEX
  8
0
  6
CONTINUOUS
 10
5.870920
 20
1.298880
  0
VERTEX
  8
0
  6
CONTINUOUS
 10
5.873120
 20
1.328360
  0
SEQEND
  8
0
  0
SOLID
  8
0
 62
    15
 10
5.945280
 20
1.280400
 11
6.589440
 21
0.916520
 12
5.994120
 22
1.246960
 13
6.638720
 23
0.883080
  0
POLYLINE
  8
0
  6
CONTINUOUS
 66
     1
 40
0.000000
 41
0.000000
  0
VERTEX
  8
0
  6
CONTINUOUS
 10
5.945280
 20
1.280400
  0
VERTEX
  8
0
  6
CONTINUOUS
 10
6.589440
 20
0.916520
  0
VERTEX
  8
0
  6
CONTINUOUS
 10
6.638720
 20
0.883080
  0
VERTEX
  8
0
  6
CONTINUOUS
 10
5.994120
 20
1.246960
  0
VERTEX
  8
0
  6
CONTINUOUS
 10
5.945280
 20
1.280400
  0
SEQEND
  8
0
  0
SOLID
  8
0
 62
    15
 10
5.994120
 20
1.246960
 11
6.638720
 21
0.883080
 12
6.021400
 22
1.203840
 13
6.666000
 23
0.839520
  0
POLYLINE
  8
0
  6
CONTINUOUS
 66
     1
 40
0.000000
 41
0.000000
  0
VERTEX
  8
0
  6
CONTINUOUS
 10
5.994120
 20
1.246960
  0
VERTEX
  8
0
  6
CONTINUOUS
 10
6.638720
 20
0.883080
  0
VERTEX
  8
0
  6
CONTINUOUS
 10
6.666000
 20
0.839520
  0
VERTEX
  8
0
  6
CONTINUOUS
 10
6.021400
 20
1.203840
  0
VERTEX
  8
0
  6
CONTINUOUS
 10
5.994120
 20
1.246960
  0
SEQEND
  8
0
  0
SOLID
  8
0
 62
    15
 10
6.021400
 20
1.203840
 11
6.666000
 21
0.839520
 12
6.028440
 22
1.156320
 13
6.673040
 23
0.792000
  0
POLYLINE
  8
0
  6
CONTINUOUS
 66
     1
 40
0.000000
 41
0.000000
  0
VERTEX
  8
0
  6
CONTINUOUS
 10
6.021400
 20
1.203840
  0
VERTEX
  8
0
  6
CONTINUOUS
 10
6.666000
 20
0.839520
  0
VERTEX
  8
0
  6
CONTINUOUS
 10
6.673040
 20
0.792000
  0
VERTEX
  8
0
  6
CONTINUOUS
 10
6.028440
 20
1.156320
  0
VERTEX
  8
0
  6
CONTINUOUS
 10
6.021400
 20
1.203840
  0
SEQEND
  8
0
  0
SOLID
  8
0
 62
    15
 10
6.028440
 20
1.156320
 11
6.673040
 21
0.792000
 12
6.015680
 22
1.109680
 13
6.660280
 23
0.745800
  0
POLYLINE
  8
0
  6
CONTINUOUS
 66
     1
 40
0.000000
 41
0.000000
  0
VERTEX
  8
0
  6
CONTINUOUS
 10
6.028440
 20
1.156320
  0
VERTEX
  8
0
  6
CONTINUOUS
 10
6.673040
 20
0.792000
  0
VERTEX
  8
0
  6
CONTINUOUS
 10
6.660280
 20
0.745800
  0
VERTEX
  8
0
  6
CONTINUOUS
 10
6.015680
 20
1.109680
  0
VERTEX
  8
0
  6
CONTINUOUS
 10
6.028440
 20
1.156320
  0
SEQEND
  8
0
  0
SOLID
  8
0
 62
    15
 10
6.015680
 20
1.109680
 11
6.660280
 21
0.745800
 12
5.984880
 22
1.070080
 13
6.629040
 23
0.705760
  0
POLYLINE
  8
0
  6
CONTINUOUS
 66
     1
 40
0.000000
 41
0.000000
  0
VERTEX
  8
0
  6
CONTINUOUS
 10
6.015680
 20
1.109680
  0
VERTEX
  8
0
  6
CONTINUOUS
 10
6.660280
 20
0.745800
  0
VERTEX
  8
0
  6
CONTINUOUS
 10
6.629040
 20
0.705760
  0
VERTEX
  8
0
  6
CONTINUOUS
 10
5.984880
 20
1.070080
  0
VERTEX
  8
0
  6
CONTINUOUS
 10
6.015680
 20
1.109680
  0
SEQEND
  8
0
  0
SOLID
  8
0
 62
    15
 10
5.984880
 20
1.070080
 11
6.629040
 21
0.705760
 12
5.936040
 22
1.041920
 13
6.580640
 23
0.677600
  0
POLYLINE
  8
0
  6
CONTINUOUS
 66
     1
 40
0.000000
 41
0.000000
  0
VERTEX
  8
0
  6
CONTINUOUS
 10
5.984880
 20
1.070080
  0
VERTEX
  8
0
  6
CONTINUOUS
 10
6.629040
 20
0.705760
  0
VERTEX
  8
0
  6
CONTINUOUS
 10
6.580640
 20
0.677600
  0
VERTEX
  8
0
  6
CONTINUOUS
 10
5.936040
 20
1.041920
  0
VERTEX
  8
0
  6
CONTINUOUS
 10
5.984880
 20
1.070080
  0
SEQEND
  8
0
  0
SOLID
  8
0
 62
    15
 10
5.936040
 20
1.041920
 11
6.580640
 21
0.677600
 12
5.870920
 22
1.030920
 13
6.515520
 23
0.666600
  0
POLYLINE
  8
0
  6
CONTINUOUS
 66
     1
 40
0.000000
 41
0.000000
  0
VERTEX
  8
0
  6
CONTINUOUS
 10
5.936040
 20
1.041920
  0
VERTEX
  8
0
  6
CONTINUOUS
 10
6.580640
 20
0.677600
  0
VERTEX
  8
0
  6
CONTINUOUS
 10
6.515520
 20
0.666600
  0
VERTEX
  8
0
  6
CONTINUOUS
 10
5.870920
 20
1.030920
  0
VERTEX
  8
0
  6
CONTINUOUS
 10
5.936040
 20
1.041920
  0
SEQEND
  8
0
  0
SOLID
  8
0
 62
    15
 10
5.870920
 20
1.030920
 11
6.515520
 21
0.666600
 12
5.870920
 22
0.746680
 13
6.515520
 23
0.382800
  0
POLYLINE
  8
0
  6
CONTINUOUS
 66
     1
 40
0.000000
 41
0.000000
  0
VERTEX
  8
0
  6
CONTINUOUS
 10
5.870920
 20
1.030920
  0
VERTEX
  8
0
  6
CONTINUOUS
 10
6.515520
 20
0.666600
  0
VERTEX
  8
0
  6
CONTINUOUS
 10
6.515520
 20
0.382800
  0
VERTEX
  8
0
  6
CONTINUOUS
 10
5.870920
 20
0.746680
  0
VERTEX
  8
0
  6
CONTINUOUS
 10
5.870920
 20
1.030920
  0
SEQEND
  8
0
  0
SOLID
  8
0
 62
    15
 10
5.870920
 20
0.746680
 11
6.515520
 21
0.382800
 12
4.118840
 22
0.746680
 13
4.763440
 23
0.382800
  0
POLYLINE
  8
0
  6
CONTINUOUS
 66
     1
 40
0.000000
 41
0.000000
  0
VERTEX
  8
0
  6
CONTINUOUS
 10
5.870920
 20
0.746680
  0
VERTEX
  8
0
  6
CONTINUOUS
 10
6.515520
 20
0.382800
  0
VERTEX
  8
0
  6
CONTINUOUS
 10
4.763440
 20
0.382800
  0
VERTEX
  8
0
  6
CONTINUOUS
 10
4.118840
 20
0.746680
  0
VERTEX
  8
0
  6
CONTINUOUS
 10
5.870920
 20
0.746680
  0
SEQEND
  8
0
  0
SOLID
  8
0
 62
    15
 10
4.118840
 20
0.746680
 11
4.763440
 21
0.382800
 12
4.113560
 22
0.746680
 13
4.758160
 23
0.382800
  0
POLYLINE
  8
0
  6
CONTINUOUS
 66
     1
 40
0.000000
 41
0.000000
  0
VERTEX
  8
0
  6
CONTINUOUS
 10
4.118840
 20
0.746680
  0
VERTEX
  8
0
  6
CONTINUOUS
 10
4.763440
 20
0.382800
  0
VERTEX
  8
0
  6
CONTINUOUS
 10
4.758160
 20
0.382800
  0
VERTEX
  8
0
  6
CONTINUOUS
 10
4.113560
 20
0.746680
  0
VERTEX
  8
0
  6
CONTINUOUS
 10
4.118840
 20
0.746680
  0
SEQEND
  8
0
  0
POLYLINE
  8
0
  6
CONTINUOUS
 66
     1
 40
0.000000
 41
0.000000
  0
VERTEX
  8
0
  6
CONTINUOUS
 10
4.113560
 20
0.746680
  0
VERTEX
  8
0
  6
CONTINUOUS
 10
4.113560
 20
2.256320
  0
VERTEX
  8
0
  6
CONTINUOUS
 10
6.741680
 20
2.256320
  0
VERTEX
  8
0
  6
CONTINUOUS
 10
6.741680
 20
2.017400
  0
VERTEX
  8
0
  6
CONTINUOUS
 10
6.578880
 20
2.016960
  0
VERTEX
  8
0
  6
CONTINUOUS
 10
6.442040
 20
2.002440
  0
VERTEX
  8
0
  6
CONTINUOUS
 10
6.324560
 20
1.975600
  0
VERTEX
  8
0
  6
CONTINUOUS
 10
6.224240
 20
1.938200
  0
VERTEX
  8
0
  6
CONTINUOUS
 10
6.140640
 20
1.892440
  0
VERTEX
  8
0
  6
CONTINUOUS
 10
6.071560
 20
1.839200
  0
VERTEX
  8
0
  6
CONTINUOUS
 10
6.016120
 20
1.781120
  0
VERTEX
  8
0
  6
CONTINUOUS
 10
5.972120
 20
1.719080
  0
VERTEX
  8
0
  6
CONTINUOUS
 10
5.938680
 20
1.655280
  0
VERTEX
  8
0
  6
CONTINUOUS
 10
5.914040
 20
1.591480
  0
VERTEX
  8
0
  6
CONTINUOUS
 10
5.885880
 20
1.469600
  0
VERTEX
  8
0
  6
CONTINUOUS
 10
5.878840
 20
1.415480
  0
VERTEX
  8
0
  6
CONTINUOUS
 10
5.875320
 20
1.367520
  0
VERTEX
  8
0
  6
CONTINUOUS
 10
5.873120
 20
1.328360
  0
VERTEX
  8
0
  6
CONTINUOUS
 10
5.870920
 20
1.298880
  0
VERTEX
  8
0
  6
CONTINUOUS
 10
5.873560
 20
1.298880
  0
VERTEX
  8
0
  6
CONTINUOUS
 10
5.912280
 20
1.291840
  0
VERTEX
  8
0
  6
CONTINUOUS
 10
5.945280
 20
1.280400
  0
VERTEX
  8
0
  6
CONTINUOUS
 10
5.994120
 20
1.246960
  0
VERTEX
  8
0
  6
CONTINUOUS
 10
6.021400
 20
1.203840
  0
VERTEX
  8
0
  6
CONTINUOUS
 10
6.028440
 20
1.156320
  0
VERTEX
  8
0
  6
CONTINUOUS
 10
6.015680
 20
1.109680
  0
VERTEX
  8
0
  6
CONTINUOUS
 10
5.984880
 20
1.070080
  0
VERTEX
  8
0
  6
CONTINUOUS
 10
5.936040
 20
1.041920
  0
VERTEX
  8
0
  6
CONTINUOUS
 10
5.870920
 20
1.030920
  0
VERTEX
  8
0
  6
CONTINUOUS
 10
5.870920
 20
0.746680
  0
VERTEX
  8
0
  6
CONTINUOUS
 10
4.118840
 20
0.746680
  0
VERTEX
  8
0
  6
CONTINUOUS
 10
4.113560
 20
0.746680
  0
SEQEND
  8
0
  0
TEXT
  8
0
 10
6.978400
 20
0.601480
 40
0.138195
  1
BA  244
 41
1.000000
  7
SN0
 71
     0
 72
     5
 11
7.568241
 21
0.601480
  0
TEXT
  8
0
 10
6.748720
 20
0.410080
 40
0.138195
  1
1-1/2" x 2-5/8"
 41
1.000000
  7
SN0
 71
     0
 72
     5
 11
7.795928
 21
0.410080
  0
TEXT
  8
0
 10
7.600560
 20
4.088480
 40
0.138195
  1
crown
 41
1.000000
  7
SN0
 71
     0
 72
     5
 11
8.043186
 21
4.088480
  0
TEXT
  8
0
 10
7.683280
 20
3.897080
 40
0.138195
  1
244
 41
1.000000
  7
SN0
 71
     0
 72
     5
 11
7.960216
 21
3.897080
  0
ENDSEC
  0
EOF
