  0
SECTION
  2
HEADER
  9
$ACADVER
  1
AC1006
  9
$EXTMIN
 10
1.710720
 20
4.818440
  9
$EXTMAX
 10
6.789200
 20
6.994680
  9
$LTSCALE
 40
0.044000
  9
$PDMODE
 70
    35
  9
$PDSIZE
 40
0.035200
  0
ENDSEC
  0
SECTION
  2
TABLES
  0
TABLE
  2
LTYPE
 70
     9
  0
LTYPE
  2
CONTINUOUS
 70
    64
  3
Solid line
 72
    65
 73
     0
 40
0.000000
  0
LTYPE
  2
DASHED
 70
    64
  3
__ __ __ __ __ __ __ __ __ __ __ __ __ __ __
 72
    65
 73
     2
 40
0.000330
 49
0.000220
 49
-0.000110
  0
LTYPE
  2
HIDDEN
 70
    64
  3
 _ _ _ _ _ _ _ _ _ _ _ _ _ _ _ _ _ _ _ _ _ _
 72
    65
 73
     2
 40
0.000165
 49
0.000110
 49
-0.000055
  0
LTYPE
  2
CENTER
 70
    64
  3
____ _ ____ _ ____ _ ____ _ ____ _ ____ _ ____
 72
    65
 73
     4
 40
0.000880
 49
0.000550
 49
-0.000110
 49
0.000110
 49
-0.000110
  0
LTYPE
  2
PHANTOM
 70
    64
  3
_____ _ _ _____ _ _ _____ _ _ _____ _ _ ____
 72
    65
 73
     6
 40
0.001100
 49
0.000550
 49
-0.000110
 49
0.000110
 49
-0.000110
 49
0.000110
 49
-0.000110
  0
LTYPE
  2
DOT
 70
    64
  3
...............................................
 72
    65
 73
     2
 40
0.000110
 49
0.000000
 49
-0.000110
  0
LTYPE
  2
DASHDOT
 70
    64
  3
__ . __ . __ . __ . __ . __ . __ . __ . __ . __
 72
    65
 73
     4
 40
0.000440
 49
0.000220
 49
-0.000110
 49
0.000000
 49
-0.000110
  0
LTYPE
  2
BORDER
 70
    64
  3
__ __ . __ __ . __ __ . __ __ . __ __ . __ __
 72
    65
 73
     6
 40
0.000770
 49
0.000220
 49
-0.000110
 49
0.000220
 49
-0.000110
 49
0.000000
 49
-0.000110
  0
LTYPE
  2
DIVIDE
 70
    64
  3
__ . . __ . . __ . . __ . . __ . . __ . . __
 72
    65
 73
     6
 40
0.000550
 49
0.000220
 49
-0.000110
 49
0.000000
 49
-0.000110
 49
0.000000
 49
-0.000110
  0
LTYPE
  2
DOTDOT
 70
    64
  3
 . .  . .  . .  . .  . .  . . 
 72
    65
 73
     5
 40
0.000242
 49
-0.000110
 49
0.000000
 49
-0.000110
 49
0.000000
 49
-0.000110
  0
ENDTAB
  0
TABLE
  2
STYLE
 70
     2
  0
STYLE
 70
     0
  2
SN0
 40
0.000000
 41
0.000440
 50
0.000000
 71
     0
 42
0.000000
  3
ROMAND
  0
STYLE
 70
    68
  2
SV0
 40
0.000000
 41
0.000440
 50
0.000000
 71
     0
 42
0.000000
  3
ROMAND
  0
ENDTAB
  0
TABLE
  2
LAYER
 70
     3
  0
LAYER
  2
FOREGROUND
 70
    64
 62
     7
  6
CONTINUOUS
  0
LAYER
  2
BACKGROUND
 70
    65
 62
    -7
  6
CONTINUOUS
  0
LAYER
  2
0
 70
    64
 62
     7
  6
CONTINUOUS
  0
ENDTAB
  0
ENDSEC
  0
SECTION
  2
ENTITIES
  0
POLYLINE
  8
FOREGROUND
  6
CONTINUOUS
 66
     1
 40
0.000000
 41
0.000000
  0
VERTEX
  8
FOREGROUND
  6
CONTINUOUS
 10
0.000000
 20
11.813120
  0
VERTEX
  8
FOREGROUND
  6
CONTINUOUS
 10
8.499920
 20
11.813120
  0
VERTEX
  8
FOREGROUND
  6
CONTINUOUS
 10
8.499920
 20
0.813120
  0
VERTEX
  8
FOREGROUND
  6
CONTINUOUS
 10
0.000000
 20
0.813120
  0
VERTEX
  8
FOREGROUND
  6
CONTINUOUS
 10
0.000000
 20
11.813120
  0
SEQEND
  8
0
  0
POLYLINE
  8
FOREGROUND
  6
CONTINUOUS
 66
     1
 40
0.000000
 41
0.000000
  0
VERTEX
  8
FOREGROUND
  6
CONTINUOUS
 10
0.000000
 20
11.813120
  0
VERTEX
  8
FOREGROUND
  6
CONTINUOUS
 10
8.499920
 20
11.813120
  0
VERTEX
  8
FOREGROUND
  6
CONTINUOUS
 10
8.499920
 20
0.813120
  0
VERTEX
  8
FOREGROUND
  6
CONTINUOUS
 10
0.000000
 20
0.813120
  0
VERTEX
  8
FOREGROUND
  6
CONTINUOUS
 10
0.000000
 20
11.813120
  0
SEQEND
  8
0
  0
TEXT
  8
0
 10
3.954720
 20
5.785560
 40
0.138034
  1
BA  243
 41
1.000000
  7
SN0
 71
     0
 72
     5
 11
4.544839
 21
5.785560
  0
TEXT
  8
0
 10
3.752760
 20
5.594160
 40
0.138034
  1
1/2" x 4-7/16"
 41
1.000000
  7
SN0
 71
     0
 72
     5
 11
4.745857
 21
5.594160
  0
SOLID
  8
0
 62
    15
 10
5.894680
 20
6.370760
 11
6.552480
 21
6.734200
 12
5.941760
 22
6.358880
 13
6.599560
 23
6.722320
  0
POLYLINE
  8
0
  6
CONTINUOUS
 66
     1
 40
0.000000
 41
0.000000
  0
VERTEX
  8
0
  6
CONTINUOUS
 10
5.894680
 20
6.370760
  0
VERTEX
  8
0
  6
CONTINUOUS
 10
6.552480
 20
6.734200
  0
VERTEX
  8
0
  6
CONTINUOUS
 10
6.599560
 20
6.722320
  0
VERTEX
  8
0
  6
CONTINUOUS
 10
5.941760
 20
6.358880
  0
VERTEX
  8
0
  6
CONTINUOUS
 10
5.894680
 20
6.370760
  0
SEQEND
  8
0
  0
SOLID
  8
0
 62
    15
 10
5.560720
 20
6.630360
 11
6.218520
 21
6.993800
 12
5.566880
 22
6.592520
 13
6.224240
 23
6.955960
  0
POLYLINE
  8
0
  6
CONTINUOUS
 66
     1
 40
0.000000
 41
0.000000
  0
VERTEX
  8
0
  6
CONTINUOUS
 10
5.560720
 20
6.630360
  0
VERTEX
  8
0
  6
CONTINUOUS
 10
6.218520
 20
6.993800
  0
VERTEX
  8
0
  6
CONTINUOUS
 10
6.224240
 20
6.955960
  0
VERTEX
  8
0
  6
CONTINUOUS
 10
5.566880
 20
6.592520
  0
VERTEX
  8
0
  6
CONTINUOUS
 10
5.560720
 20
6.630360
  0
SEQEND
  8
0
  0
SOLID
  8
0
 62
    15
 10
5.566880
 20
6.592520
 11
6.224240
 21
6.955960
 12
5.575240
 22
6.559080
 13
6.233040
 23
6.922520
  0
POLYLINE
  8
0
  6
CONTINUOUS
 66
     1
 40
0.000000
 41
0.000000
  0
VERTEX
  8
0
  6
CONTINUOUS
 10
5.566880
 20
6.592520
  0
VERTEX
  8
0
  6
CONTINUOUS
 10
6.224240
 20
6.955960
  0
VERTEX
  8
0
  6
CONTINUOUS
 10
6.233040
 20
6.922520
  0
VERTEX
  8
0
  6
CONTINUOUS
 10
5.575240
 20
6.559080
  0
VERTEX
  8
0
  6
CONTINUOUS
 10
5.566880
 20
6.592520
  0
SEQEND
  8
0
  0
SOLID
  8
0
 62
    15
 10
5.575240
 20
6.559080
 11
6.233040
 21
6.922520
 12
5.585800
 22
6.530040
 13
6.243600
 23
6.893040
  0
POLYLINE
  8
0
  6
CONTINUOUS
 66
     1
 40
0.000000
 41
0.000000
  0
VERTEX
  8
0
  6
CONTINUOUS
 10
5.575240
 20
6.559080
  0
VERTEX
  8
0
  6
CONTINUOUS
 10
6.233040
 20
6.922520
  0
VERTEX
  8
0
  6
CONTINUOUS
 10
6.243600
 20
6.893040
  0
VERTEX
  8
0
  6
CONTINUOUS
 10
5.585800
 20
6.530040
  0
VERTEX
  8
0
  6
CONTINUOUS
 10
5.575240
 20
6.559080
  0
SEQEND
  8
0
  0
SOLID
  8
0
 62
    15
 10
5.585800
 20
6.530040
 11
6.243600
 21
6.893040
 12
5.598120
 22
6.504080
 13
6.255920
 23
6.867520
  0
POLYLINE
  8
0
  6
CONTINUOUS
 66
     1
 40
0.000000
 41
0.000000
  0
VERTEX
  8
0
  6
CONTINUOUS
 10
5.585800
 20
6.530040
  0
VERTEX
  8
0
  6
CONTINUOUS
 10
6.243600
 20
6.893040
  0
VERTEX
  8
0
  6
CONTINUOUS
 10
6.255920
 20
6.867520
  0
VERTEX
  8
0
  6
CONTINUOUS
 10
5.598120
 20
6.504080
  0
VERTEX
  8
0
  6
CONTINUOUS
 10
5.585800
 20
6.530040
  0
SEQEND
  8
0
  0
SOLID
  8
0
 62
    15
 10
5.598120
 20
6.504080
 11
6.255920
 21
6.867520
 12
5.612640
 22
6.482080
 13
6.270440
 23
6.845520
  0
POLYLINE
  8
0
  6
CONTINUOUS
 66
     1
 40
0.000000
 41
0.000000
  0
VERTEX
  8
0
  6
CONTINUOUS
 10
5.598120
 20
6.504080
  0
VERTEX
  8
0
  6
CONTINUOUS
 10
6.255920
 20
6.867520
  0
VERTEX
  8
0
  6
CONTINUOUS
 10
6.270440
 20
6.845520
  0
VERTEX
  8
0
  6
CONTINUOUS
 10
5.612640
 20
6.482080
  0
VERTEX
  8
0
  6
CONTINUOUS
 10
5.598120
 20
6.504080
  0
SEQEND
  8
0
  0
SOLID
  8
0
 62
    15
 10
5.612640
 20
6.482080
 11
6.270440
 21
6.845520
 12
5.628480
 22
6.463160
 13
6.286280
 23
6.826160
  0
POLYLINE
  8
0
  6
CONTINUOUS
 66
     1
 40
0.000000
 41
0.000000
  0
VERTEX
  8
0
  6
CONTINUOUS
 10
5.612640
 20
6.482080
  0
VERTEX
  8
0
  6
CONTINUOUS
 10
6.270440
 20
6.845520
  0
VERTEX
  8
0
  6
CONTINUOUS
 10
6.286280
 20
6.826160
  0
VERTEX
  8
0
  6
CONTINUOUS
 10
5.628480
 20
6.463160
  0
VERTEX
  8
0
  6
CONTINUOUS
 10
5.612640
 20
6.482080
  0
SEQEND
  8
0
  0
SOLID
  8
0
 62
    15
 10
5.628480
 20
6.463160
 11
6.286280
 21
6.826160
 12
5.646080
 22
6.446880
 13
6.303880
 23
6.809880
  0
POLYLINE
  8
0
  6
CONTINUOUS
 66
     1
 40
0.000000
 41
0.000000
  0
VERTEX
  8
0
  6
CONTINUOUS
 10
5.628480
 20
6.463160
  0
VERTEX
  8
0
  6
CONTINUOUS
 10
6.286280
 20
6.826160
  0
VERTEX
  8
0
  6
CONTINUOUS
 10
6.303880
 20
6.809880
  0
VERTEX
  8
0
  6
CONTINUOUS
 10
5.646080
 20
6.446880
  0
VERTEX
  8
0
  6
CONTINUOUS
 10
5.628480
 20
6.463160
  0
SEQEND
  8
0
  0
SOLID
  8
0
 62
    15
 10
5.646080
 20
6.446880
 11
6.303880
 21
6.809880
 12
5.665000
 22
6.433240
 13
6.322800
 23
6.796240
  0
POLYLINE
  8
0
  6
CONTINUOUS
 66
     1
 40
0.000000
 41
0.000000
  0
VERTEX
  8
0
  6
CONTINUOUS
 10
5.646080
 20
6.446880
  0
VERTEX
  8
0
  6
CONTINUOUS
 10
6.303880
 20
6.809880
  0
VERTEX
  8
0
  6
CONTINUOUS
 10
6.322800
 20
6.796240
  0
VERTEX
  8
0
  6
CONTINUOUS
 10
5.665000
 20
6.433240
  0
VERTEX
  8
0
  6
CONTINUOUS
 10
5.646080
 20
6.446880
  0
SEQEND
  8
0
  0
SOLID
  8
0
 62
    15
 10
5.665000
 20
6.433240
 11
6.322800
 21
6.796240
 12
5.705920
 22
6.412120
 13
6.363720
 23
6.775560
  0
POLYLINE
  8
0
  6
CONTINUOUS
 66
     1
 40
0.000000
 41
0.000000
  0
VERTEX
  8
0
  6
CONTINUOUS
 10
5.665000
 20
6.433240
  0
VERTEX
  8
0
  6
CONTINUOUS
 10
6.322800
 20
6.796240
  0
VERTEX
  8
0
  6
CONTINUOUS
 10
6.363720
 20
6.775560
  0
VERTEX
  8
0
  6
CONTINUOUS
 10
5.705920
 20
6.412120
  0
VERTEX
  8
0
  6
CONTINUOUS
 10
5.665000
 20
6.433240
  0
SEQEND
  8
0
  0
SOLID
  8
0
 62
    15
 10
5.705920
 20
6.412120
 11
6.363720
 21
6.775560
 12
5.750800
 22
6.398040
 13
6.408600
 23
6.761480
  0
POLYLINE
  8
0
  6
CONTINUOUS
 66
     1
 40
0.000000
 41
0.000000
  0
VERTEX
  8
0
  6
CONTINUOUS
 10
5.705920
 20
6.412120
  0
VERTEX
  8
0
  6
CONTINUOUS
 10
6.363720
 20
6.775560
  0
VERTEX
  8
0
  6
CONTINUOUS
 10
6.408600
 20
6.761480
  0
VERTEX
  8
0
  6
CONTINUOUS
 10
5.750800
 20
6.398040
  0
VERTEX
  8
0
  6
CONTINUOUS
 10
5.705920
 20
6.412120
  0
SEQEND
  8
0
  0
SOLID
  8
0
 62
    15
 10
5.750800
 20
6.398040
 11
6.408600
 21
6.761480
 12
5.846280
 22
6.379560
 13
6.504080
 23
6.743000
  0
POLYLINE
  8
0
  6
CONTINUOUS
 66
     1
 40
0.000000
 41
0.000000
  0
VERTEX
  8
0
  6
CONTINUOUS
 10
5.750800
 20
6.398040
  0
VERTEX
  8
0
  6
CONTINUOUS
 10
6.408600
 20
6.761480
  0
VERTEX
  8
0
  6
CONTINUOUS
 10
6.504080
 20
6.743000
  0
VERTEX
  8
0
  6
CONTINUOUS
 10
5.846280
 20
6.379560
  0
VERTEX
  8
0
  6
CONTINUOUS
 10
5.750800
 20
6.398040
  0
SEQEND
  8
0
  0
SOLID
  8
0
 62
    15
 10
5.846280
 20
6.379560
 11
6.504080
 21
6.743000
 12
5.894680
 22
6.370760
 13
6.552480
 23
6.734200
  0
POLYLINE
  8
0
  6
CONTINUOUS
 66
     1
 40
0.000000
 41
0.000000
  0
VERTEX
  8
0
  6
CONTINUOUS
 10
5.846280
 20
6.379560
  0
VERTEX
  8
0
  6
CONTINUOUS
 10
6.504080
 20
6.743000
  0
VERTEX
  8
0
  6
CONTINUOUS
 10
6.552480
 20
6.734200
  0
VERTEX
  8
0
  6
CONTINUOUS
 10
5.894680
 20
6.370760
  0
VERTEX
  8
0
  6
CONTINUOUS
 10
5.846280
 20
6.379560
  0
SEQEND
  8
0
  0
SOLID
  8
0
 62
    15
 10
5.535200
 20
6.630360
 11
6.193000
 21
6.993800
 12
5.560720
 22
6.630360
 13
6.218520
 23
6.993800
  0
POLYLINE
  8
0
  6
CONTINUOUS
 66
     1
 40
0.000000
 41
0.000000
  0
VERTEX
  8
0
  6
CONTINUOUS
 10
5.535200
 20
6.630360
  0
VERTEX
  8
0
  6
CONTINUOUS
 10
6.193000
 20
6.993800
  0
VERTEX
  8
0
  6
CONTINUOUS
 10
6.218520
 20
6.993800
  0
VERTEX
  8
0
  6
CONTINUOUS
 10
5.560720
 20
6.630360
  0
VERTEX
  8
0
  6
CONTINUOUS
 10
5.535200
 20
6.630360
  0
SEQEND
  8
0
  0
SOLID
  8
0
 62
    15
 10
5.941760
 20
6.358880
 11
6.599560
 21
6.722320
 12
5.986640
 22
6.341720
 13
6.644440
 23
6.704720
  0
POLYLINE
  8
0
  6
CONTINUOUS
 66
     1
 40
0.000000
 41
0.000000
  0
VERTEX
  8
0
  6
CONTINUOUS
 10
5.941760
 20
6.358880
  0
VERTEX
  8
0
  6
CONTINUOUS
 10
6.599560
 20
6.722320
  0
VERTEX
  8
0
  6
CONTINUOUS
 10
6.644440
 20
6.704720
  0
VERTEX
  8
0
  6
CONTINUOUS
 10
5.986640
 20
6.341720
  0
VERTEX
  8
0
  6
CONTINUOUS
 10
5.941760
 20
6.358880
  0
SEQEND
  8
0
  0
SOLID
  8
0
 62
    15
 10
5.986640
 20
6.341720
 11
6.644440
 21
6.704720
 12
6.007760
 22
6.329840
 13
6.665120
 23
6.693280
  0
POLYLINE
  8
0
  6
CONTINUOUS
 66
     1
 40
0.000000
 41
0.000000
  0
VERTEX
  8
0
  6
CONTINUOUS
 10
5.986640
 20
6.341720
  0
VERTEX
  8
0
  6
CONTINUOUS
 10
6.644440
 20
6.704720
  0
VERTEX
  8
0
  6
CONTINUOUS
 10
6.665120
 20
6.693280
  0
VERTEX
  8
0
  6
CONTINUOUS
 10
6.007760
 20
6.329840
  0
VERTEX
  8
0
  6
CONTINUOUS
 10
5.986640
 20
6.341720
  0
SEQEND
  8
0
  0
SOLID
  8
0
 62
    15
 10
6.007760
 20
6.329840
 11
6.665120
 21
6.693280
 12
6.027560
 22
6.316200
 13
6.685360
 23
6.679640
  0
POLYLINE
  8
0
  6
CONTINUOUS
 66
     1
 40
0.000000
 41
0.000000
  0
VERTEX
  8
0
  6
CONTINUOUS
 10
6.007760
 20
6.329840
  0
VERTEX
  8
0
  6
CONTINUOUS
 10
6.665120
 20
6.693280
  0
VERTEX
  8
0
  6
CONTINUOUS
 10
6.685360
 20
6.679640
  0
VERTEX
  8
0
  6
CONTINUOUS
 10
6.027560
 20
6.316200
  0
VERTEX
  8
0
  6
CONTINUOUS
 10
6.007760
 20
6.329840
  0
SEQEND
  8
0
  0
SOLID
  8
0
 62
    15
 10
6.027560
 20
6.316200
 11
6.685360
 21
6.679640
 12
6.046480
 22
6.299920
 13
6.704280
 23
6.662920
  0
POLYLINE
  8
0
  6
CONTINUOUS
 66
     1
 40
0.000000
 41
0.000000
  0
VERTEX
  8
0
  6
CONTINUOUS
 10
6.027560
 20
6.316200
  0
VERTEX
  8
0
  6
CONTINUOUS
 10
6.685360
 20
6.679640
  0
VERTEX
  8
0
  6
CONTINUOUS
 10
6.704280
 20
6.662920
  0
VERTEX
  8
0
  6
CONTINUOUS
 10
6.046480
 20
6.299920
  0
VERTEX
  8
0
  6
CONTINUOUS
 10
6.027560
 20
6.316200
  0
SEQEND
  8
0
  0
SOLID
  8
0
 62
    15
 10
6.046480
 20
6.299920
 11
6.704280
 21
6.662920
 12
6.063640
 22
6.280560
 13
6.721440
 23
6.644000
  0
POLYLINE
  8
0
  6
CONTINUOUS
 66
     1
 40
0.000000
 41
0.000000
  0
VERTEX
  8
0
  6
CONTINUOUS
 10
6.046480
 20
6.299920
  0
VERTEX
  8
0
  6
CONTINUOUS
 10
6.704280
 20
6.662920
  0
VERTEX
  8
0
  6
CONTINUOUS
 10
6.721440
 20
6.644000
  0
VERTEX
  8
0
  6
CONTINUOUS
 10
6.063640
 20
6.280560
  0
VERTEX
  8
0
  6
CONTINUOUS
 10
6.046480
 20
6.299920
  0
SEQEND
  8
0
  0
SOLID
  8
0
 62
    15
 10
6.063640
 20
6.280560
 11
6.721440
 21
6.644000
 12
6.079480
 22
6.258120
 13
6.737280
 23
6.621560
  0
POLYLINE
  8
0
  6
CONTINUOUS
 66
     1
 40
0.000000
 41
0.000000
  0
VERTEX
  8
0
  6
CONTINUOUS
 10
6.063640
 20
6.280560
  0
VERTEX
  8
0
  6
CONTINUOUS
 10
6.721440
 20
6.644000
  0
VERTEX
  8
0
  6
CONTINUOUS
 10
6.737280
 20
6.621560
  0
VERTEX
  8
0
  6
CONTINUOUS
 10
6.079480
 20
6.258120
  0
VERTEX
  8
0
  6
CONTINUOUS
 10
6.063640
 20
6.280560
  0
SEQEND
  8
0
  0
SOLID
  8
0
 62
    15
 10
6.079480
 20
6.258120
 11
6.737280
 21
6.621560
 12
6.094000
 22
6.232160
 13
6.751800
 23
6.595600
  0
POLYLINE
  8
0
  6
CONTINUOUS
 66
     1
 40
0.000000
 41
0.000000
  0
VERTEX
  8
0
  6
CONTINUOUS
 10
6.079480
 20
6.258120
  0
VERTEX
  8
0
  6
CONTINUOUS
 10
6.737280
 20
6.621560
  0
VERTEX
  8
0
  6
CONTINUOUS
 10
6.751800
 20
6.595600
  0
VERTEX
  8
0
  6
CONTINUOUS
 10
6.094000
 20
6.232160
  0
VERTEX
  8
0
  6
CONTINUOUS
 10
6.079480
 20
6.258120
  0
SEQEND
  8
0
  0
SOLID
  8
0
 62
    15
 10
6.094000
 20
6.232160
 11
6.751800
 21
6.595600
 12
6.106320
 22
6.202680
 13
6.764120
 23
6.566120
  0
POLYLINE
  8
0
  6
CONTINUOUS
 66
     1
 40
0.000000
 41
0.000000
  0
VERTEX
  8
0
  6
CONTINUOUS
 10
6.094000
 20
6.232160
  0
VERTEX
  8
0
  6
CONTINUOUS
 10
6.751800
 20
6.595600
  0
VERTEX
  8
0
  6
CONTINUOUS
 10
6.764120
 20
6.566120
  0
VERTEX
  8
0
  6
CONTINUOUS
 10
6.106320
 20
6.202680
  0
VERTEX
  8
0
  6
CONTINUOUS
 10
6.094000
 20
6.232160
  0
SEQEND
  8
0
  0
SOLID
  8
0
 62
    15
 10
6.106320
 20
6.202680
 11
6.764120
 21
6.566120
 12
6.116880
 22
6.168800
 13
6.774680
 23
6.532240
  0
POLYLINE
  8
0
  6
CONTINUOUS
 66
     1
 40
0.000000
 41
0.000000
  0
VERTEX
  8
0
  6
CONTINUOUS
 10
6.106320
 20
6.202680
  0
VERTEX
  8
0
  6
CONTINUOUS
 10
6.764120
 20
6.566120
  0
VERTEX
  8
0
  6
CONTINUOUS
 10
6.774680
 20
6.532240
  0
VERTEX
  8
0
  6
CONTINUOUS
 10
6.116880
 20
6.168800
  0
VERTEX
  8
0
  6
CONTINUOUS
 10
6.106320
 20
6.202680
  0
SEQEND
  8
0
  0
SOLID
  8
0
 62
    15
 10
6.116880
 20
6.168800
 11
6.774680
 21
6.532240
 12
6.125240
 22
6.130960
 13
6.783040
 23
6.493960
  0
POLYLINE
  8
0
  6
CONTINUOUS
 66
     1
 40
0.000000
 41
0.000000
  0
VERTEX
  8
0
  6
CONTINUOUS
 10
6.116880
 20
6.168800
  0
VERTEX
  8
0
  6
CONTINUOUS
 10
6.774680
 20
6.532240
  0
VERTEX
  8
0
  6
CONTINUOUS
 10
6.783040
 20
6.493960
  0
VERTEX
  8
0
  6
CONTINUOUS
 10
6.125240
 20
6.130960
  0
VERTEX
  8
0
  6
CONTINUOUS
 10
6.116880
 20
6.168800
  0
SEQEND
  8
0
  0
SOLID
  8
0
 62
    15
 10
6.125240
 20
6.130960
 11
6.783040
 21
6.493960
 12
6.131400
 22
6.087840
 13
6.788760
 23
6.451280
  0
POLYLINE
  8
0
  6
CONTINUOUS
 66
     1
 40
0.000000
 41
0.000000
  0
VERTEX
  8
0
  6
CONTINUOUS
 10
6.125240
 20
6.130960
  0
VERTEX
  8
0
  6
CONTINUOUS
 10
6.783040
 20
6.493960
  0
VERTEX
  8
0
  6
CONTINUOUS
 10
6.788760
 20
6.451280
  0
VERTEX
  8
0
  6
CONTINUOUS
 10
6.131400
 20
6.087840
  0
VERTEX
  8
0
  6
CONTINUOUS
 10
6.125240
 20
6.130960
  0
SEQEND
  8
0
  0
SOLID
  8
0
 62
    15
 10
6.131400
 20
6.087840
 11
6.788760
 21
6.451280
 12
6.131400
 22
6.086520
 13
6.788760
 23
6.449960
  0
POLYLINE
  8
0
  6
CONTINUOUS
 66
     1
 40
0.000000
 41
0.000000
  0
VERTEX
  8
0
  6
CONTINUOUS
 10
6.131400
 20
6.087840
  0
VERTEX
  8
0
  6
CONTINUOUS
 10
6.788760
 20
6.451280
  0
VERTEX
  8
0
  6
CONTINUOUS
 10
6.788760
 20
6.449960
  0
VERTEX
  8
0
  6
CONTINUOUS
 10
6.131400
 20
6.086520
  0
VERTEX
  8
0
  6
CONTINUOUS
 10
6.131400
 20
6.087840
  0
SEQEND
  8
0
  0
SOLID
  8
0
 62
    15
 10
1.711160
 20
6.630360
 11
2.368960
 21
6.993800
 12
5.545760
 22
6.630360
 13
6.203560
 23
6.993800
  0
POLYLINE
  8
0
  6
CONTINUOUS
 66
     1
 40
0.000000
 41
0.000000
  0
VERTEX
  8
0
  6
CONTINUOUS
 10
1.711160
 20
6.630360
  0
VERTEX
  8
0
  6
CONTINUOUS
 10
2.368960
 20
6.993800
  0
VERTEX
  8
0
  6
CONTINUOUS
 10
6.203560
 20
6.993800
  0
VERTEX
  8
0
  6
CONTINUOUS
 10
5.545760
 20
6.630360
  0
VERTEX
  8
0
  6
CONTINUOUS
 10
1.711160
 20
6.630360
  0
SEQEND
  8
0
  0
POLYLINE
  8
0
  6
CONTINUOUS
 66
     1
 40
0.000000
 41
0.000000
  0
VERTEX
  8
0
  6
CONTINUOUS
 10
5.535200
 20
6.630360
  0
VERTEX
  8
0
  6
CONTINUOUS
 10
5.560720
 20
6.630360
  0
VERTEX
  8
0
  6
CONTINUOUS
 10
5.566880
 20
6.592520
  0
VERTEX
  8
0
  6
CONTINUOUS
 10
5.575240
 20
6.559080
  0
VERTEX
  8
0
  6
CONTINUOUS
 10
5.585800
 20
6.530040
  0
VERTEX
  8
0
  6
CONTINUOUS
 10
5.598120
 20
6.504080
  0
VERTEX
  8
0
  6
CONTINUOUS
 10
5.612640
 20
6.482080
  0
VERTEX
  8
0
  6
CONTINUOUS
 10
5.628480
 20
6.463160
  0
VERTEX
  8
0
  6
CONTINUOUS
 10
5.646080
 20
6.446880
  0
VERTEX
  8
0
  6
CONTINUOUS
 10
5.665000
 20
6.433240
  0
VERTEX
  8
0
  6
CONTINUOUS
 10
5.705920
 20
6.412120
  0
VERTEX
  8
0
  6
CONTINUOUS
 10
5.750800
 20
6.398040
  0
VERTEX
  8
0
  6
CONTINUOUS
 10
5.846280
 20
6.379560
  0
VERTEX
  8
0
  6
CONTINUOUS
 10
5.894680
 20
6.370760
  0
VERTEX
  8
0
  6
CONTINUOUS
 10
5.941760
 20
6.358880
  0
VERTEX
  8
0
  6
CONTINUOUS
 10
5.986640
 20
6.341720
  0
VERTEX
  8
0
  6
CONTINUOUS
 10
6.007760
 20
6.329840
  0
VERTEX
  8
0
  6
CONTINUOUS
 10
6.027560
 20
6.316200
  0
VERTEX
  8
0
  6
CONTINUOUS
 10
6.046480
 20
6.299920
  0
VERTEX
  8
0
  6
CONTINUOUS
 10
6.063640
 20
6.280560
  0
VERTEX
  8
0
  6
CONTINUOUS
 10
6.079480
 20
6.258120
  0
VERTEX
  8
0
  6
CONTINUOUS
 10
6.094000
 20
6.232160
  0
VERTEX
  8
0
  6
CONTINUOUS
 10
6.106320
 20
6.202680
  0
VERTEX
  8
0
  6
CONTINUOUS
 10
6.116880
 20
6.168800
  0
VERTEX
  8
0
  6
CONTINUOUS
 10
6.125240
 20
6.130960
  0
VERTEX
  8
0
  6
CONTINUOUS
 10
6.131400
 20
6.087840
  0
VERTEX
  8
0
  6
CONTINUOUS
 10
6.131400
 20
6.086520
  0
VERTEX
  8
0
  6
CONTINUOUS
 10
1.711160
 20
6.086520
  0
VERTEX
  8
0
  6
CONTINUOUS
 10
1.711160
 20
6.630360
  0
VERTEX
  8
0
  6
CONTINUOUS
 10
5.545760
 20
6.630360
  0
VERTEX
  8
0
  6
CONTINUOUS
 10
5.535200
 20
6.630360
  0
SEQEND
  8
0
  0
POLYLINE
  8
0
  6
CONTINUOUS
 66
     1
 40
0.014080
 41
0.014080
  0
VERTEX
  8
0
  6
CONTINUOUS
 10
5.598560
 20
5.369320
  0
VERTEX
  8
0
  6
CONTINUOUS
 10
1.763960
 20
5.369320
  0
VERTEX
  8
0
  6
CONTINUOUS
 10
1.763960
 20
4.825480
  0
VERTEX
  8
0
  6
CONTINUOUS
 10
6.183760
 20
4.825480
  0
VERTEX
  8
0
  6
CONTINUOUS
 10
6.177600
 20
4.869480
  0
VERTEX
  8
0
  6
CONTINUOUS
 10
6.164400
 20
4.924920
  0
VERTEX
  8
0
  6
CONTINUOUS
 10
6.152960
 20
4.956600
  0
VERTEX
  8
0
  6
CONTINUOUS
 10
6.139760
 20
4.984760
  0
VERTEX
  8
0
  6
CONTINUOUS
 10
6.116440
 20
5.019520
  0
VERTEX
  8
0
  6
CONTINUOUS
 10
6.089600
 20
5.047240
  0
VERTEX
  8
0
  6
CONTINUOUS
 10
6.070240
 20
5.062200
  0
VERTEX
  8
0
  6
CONTINUOUS
 10
6.039000
 20
5.080240
  0
VERTEX
  8
0
  6
CONTINUOUS
 10
6.017000
 20
5.089920
  0
VERTEX
  8
0
  6
CONTINUOUS
 10
5.971240
 20
5.104440
  0
VERTEX
  8
0
  6
CONTINUOUS
 10
5.899080
 20
5.118520
  0
VERTEX
  8
0
  6
CONTINUOUS
 10
5.826920
 20
5.131720
  0
VERTEX
  8
0
  6
CONTINUOUS
 10
5.803160
 20
5.137000
  0
VERTEX
  8
0
  6
CONTINUOUS
 10
5.758720
 20
5.151080
  0
VERTEX
  8
0
  6
CONTINUOUS
 10
5.737600
 20
5.160760
  0
VERTEX
  8
0
  6
CONTINUOUS
 10
5.707680
 20
5.178360
  0
VERTEX
  8
0
  6
CONTINUOUS
 10
5.681280
 20
5.201680
  0
VERTEX
  8
0
  6
CONTINUOUS
 10
5.657520
 20
5.231600
  0
VERTEX
  8
0
  6
CONTINUOUS
 10
5.638160
 20
5.268560
  0
VERTEX
  8
0
  6
CONTINUOUS
 10
5.627600
 20
5.298040
  0
VERTEX
  8
0
  6
CONTINUOUS
 10
5.615720
 20
5.349960
  0
VERTEX
  8
0
  6
CONTINUOUS
 10
5.613080
 20
5.369320
  0
VERTEX
  8
0
  6
CONTINUOUS
 10
5.587560
 20
5.369320
  0
VERTEX
  8
0
  6
CONTINUOUS
 10
5.598560
 20
5.369320
  0
SEQEND
  8
0
  0
TEXT
  8
0
 10
3.609760
 20
5.122480
 40
0.138034
  1
BA  243
 41
1.000000
  7
SN0
 71
     0
 72
     5
 11
4.199879
 21
5.122480
  0
TEXT
  8
0
 10
3.407800
 20
4.931080
 40
0.138034
  1
1/2" x 4-7/16"
 41
1.000000
  7
SN0
 71
     0
 72
     5
 11
4.400897
 21
4.931080
  0
ENDSEC
  0
EOF
