  0
SECTION
  2
HEADER
  9
$ACADVER
  1
AC1006
  9
$EXTMIN
 10
3.654385
 20
0.303478
  9
$EXTMAX
 10
17.563104
 20
5.183718
  9
$LTSCALE
 40
0.070250
  9
$PDMODE
 70
    35
  9
$PDSIZE
 40
0.056200
  0
ENDSEC
  0
SECTION
  2
TABLES
  0
TABLE
  2
LTYPE
 70
     9
  0
LTYPE
  2
CONTINUOUS
 70
    64
  3
Solid line
 72
    65
 73
     0
 40
0.000000
  0
LTYPE
  2
DASHED
 70
    64
  3
__ __ __ __ __ __ __ __ __ __ __ __ __ __ __
 72
    65
 73
     2
 40
0.000527
 49
0.000351
 49
-0.000176
  0
LTYPE
  2
HIDDEN
 70
    64
  3
 _ _ _ _ _ _ _ _ _ _ _ _ _ _ _ _ _ _ _ _ _ _
 72
    65
 73
     2
 40
0.000263
 49
0.000176
 49
-0.000088
  0
LTYPE
  2
CENTER
 70
    64
  3
____ _ ____ _ ____ _ ____ _ ____ _ ____ _ ____
 72
    65
 73
     4
 40
0.001405
 49
0.000878
 49
-0.000176
 49
0.000176
 49
-0.000176
  0
LTYPE
  2
PHANTOM
 70
    64
  3
_____ _ _ _____ _ _ _____ _ _ _____ _ _ ____
 72
    65
 73
     6
 40
0.001756
 49
0.000878
 49
-0.000176
 49
0.000176
 49
-0.000176
 49
0.000176
 49
-0.000176
  0
LTYPE
  2
DOT
 70
    64
  3
...............................................
 72
    65
 73
     2
 40
0.000176
 49
0.000000
 49
-0.000176
  0
LTYPE
  2
DASHDOT
 70
    64
  3
__ . __ . __ . __ . __ . __ . __ . __ . __ . __
 72
    65
 73
     4
 40
0.000702
 49
0.000351
 49
-0.000176
 49
0.000000
 49
-0.000176
  0
LTYPE
  2
BORDER
 70
    64
  3
__ __ . __ __ . __ __ . __ __ . __ __ . __ __
 72
    65
 73
     6
 40
0.001229
 49
0.000351
 49
-0.000176
 49
0.000351
 49
-0.000176
 49
0.000000
 49
-0.000176
  0
LTYPE
  2
DIVIDE
 70
    64
  3
__ . . __ . . __ . . __ . . __ . . __ . . __
 72
    65
 73
     6
 40
0.000878
 49
0.000351
 49
-0.000176
 49
0.000000
 49
-0.000176
 49
0.000000
 49
-0.000176
  0
LTYPE
  2
DOTDOT
 70
    64
  3
 . .  . .  . .  . .  . .  . . 
 72
    65
 73
     5
 40
0.000386
 49
-0.000176
 49
0.000000
 49
-0.000176
 49
0.000000
 49
-0.000176
  0
ENDTAB
  0
TABLE
  2
STYLE
 70
     4
  0
STYLE
 70
     0
  2
SN0
 40
0.000000
 41
0.000702
 50
0.000000
 71
     0
 42
0.000000
  3
ROMAND
  0
STYLE
 70
    68
  2
SV0
 40
0.000000
 41
0.000702
 50
0.000000
 71
     0
 42
0.000000
  3
ROMAND
  0
STYLE
 70
     0
  2
SN1
 40
0.000000
 41
0.000702
 50
0.000000
 71
     0
 42
0.000000
  3
ROMAND
  0
STYLE
 70
    68
  2
SV1
 40
0.000000
 41
0.000702
 50
0.000000
 71
     0
 42
0.000000
  3
ROMAND
  0
ENDTAB
  0
TABLE
  2
LAYER
 70
     3
  0
LAYER
  2
FOREGROUND
 70
    64
 62
     7
  6
CONTINUOUS
  0
LAYER
  2
BACKGROUND
 70
    65
 62
    -7
  6
CONTINUOUS
  0
LAYER
  2
0
 70
    64
 62
     7
  6
CONTINUOUS
  0
ENDTAB
  0
ENDSEC
  0
SECTION
  2
ENTITIES
  0
POLYLINE
  8
FOREGROUND
  6
CONTINUOUS
 66
     1
 40
0.000000
 41
0.000000
  0
VERTEX
  8
FOREGROUND
  6
CONTINUOUS
 10
0.000000
 20
5.487197
  0
VERTEX
  8
FOREGROUND
  6
CONTINUOUS
 10
8.500202
 20
5.487197
  0
VERTEX
  8
FOREGROUND
  6
CONTINUOUS
 10
8.500202
 20
-5.512487
  0
VERTEX
  8
FOREGROUND
  6
CONTINUOUS
 10
0.000000
 20
-5.512487
  0
VERTEX
  8
FOREGROUND
  6
CONTINUOUS
 10
0.000000
 20
5.487197
  0
SEQEND
  8
0
  0
POLYLINE
  8
FOREGROUND
  6
CONTINUOUS
 66
     1
 40
0.000000
 41
0.000000
  0
VERTEX
  8
FOREGROUND
  6
CONTINUOUS
 10
0.000000
 20
5.487197
  0
VERTEX
  8
FOREGROUND
  6
CONTINUOUS
 10
8.500202
 20
5.487197
  0
VERTEX
  8
FOREGROUND
  6
CONTINUOUS
 10
8.500202
 20
-5.512487
  0
VERTEX
  8
FOREGROUND
  6
CONTINUOUS
 10
0.000000
 20
-5.512487
  0
VERTEX
  8
FOREGROUND
  6
CONTINUOUS
 10
0.000000
 20
5.487197
  0
SEQEND
  8
0
  0
POLYLINE
  8
0
  6
CONTINUOUS
 66
     1
 40
0.014050
 41
0.014050
  0
VERTEX
  8
0
  6
CONTINUOUS
 10
7.159840
 20
4.354071
  0
VERTEX
  8
0
  6
CONTINUOUS
 10
7.159840
 20
4.340723
  0
VERTEX
  8
0
  6
CONTINUOUS
 10
3.662112
 20
4.340021
  0
VERTEX
  8
0
  6
CONTINUOUS
 10
3.662112
 20
5.010202
  0
VERTEX
  8
0
  6
CONTINUOUS
 10
4.435560
 20
5.010202
  0
VERTEX
  8
0
  6
CONTINUOUS
 10
4.494570
 20
4.937142
  0
VERTEX
  8
0
  6
CONTINUOUS
 10
4.564117
 20
4.958217
  0
VERTEX
  8
0
  6
CONTINUOUS
 10
4.672301
 20
4.980697
  0
VERTEX
  8
0
  6
CONTINUOUS
 10
4.724286
 20
4.987020
  0
VERTEX
  8
0
  6
CONTINUOUS
 10
4.774163
 20
4.990532
  0
VERTEX
  8
0
  6
CONTINUOUS
 10
4.823338
 20
4.991235
  0
VERTEX
  8
0
  6
CONTINUOUS
 10
4.918175
 20
4.986317
  0
VERTEX
  8
0
  6
CONTINUOUS
 10
5.010904
 20
4.972970
  0
VERTEX
  8
0
  6
CONTINUOUS
 10
5.102931
 20
4.954002
  0
VERTEX
  8
0
  6
CONTINUOUS
 10
5.446452
 20
4.864083
  0
VERTEX
  8
0
  6
CONTINUOUS
 10
5.616456
 20
4.828958
  0
VERTEX
  8
0
  6
CONTINUOUS
 10
5.742905
 20
4.811396
  0
VERTEX
  8
0
  6
CONTINUOUS
 10
5.809642
 20
4.805073
  0
VERTEX
  8
0
  6
CONTINUOUS
 10
5.954357
 20
4.798048
  0
VERTEX
  8
0
  6
CONTINUOUS
 10
6.071673
 20
4.799453
  0
VERTEX
  8
0
  6
CONTINUOUS
 10
6.198123
 20
4.805776
  0
VERTEX
  8
0
  6
CONTINUOUS
 10
6.334407
 20
4.819825
  0
VERTEX
  8
0
  6
CONTINUOUS
 10
6.382177
 20
4.826148
  0
VERTEX
  8
0
  6
CONTINUOUS
 10
6.460856
 20
4.719369
  0
VERTEX
  8
0
  6
CONTINUOUS
 10
6.465071
 20
4.720774
  0
VERTEX
  8
0
  6
CONTINUOUS
 10
7.060788
 20
4.720071
  0
VERTEX
  8
0
  6
CONTINUOUS
 10
7.095913
 20
4.712344
  0
VERTEX
  8
0
  6
CONTINUOUS
 10
7.123310
 20
4.696889
  0
VERTEX
  8
0
  6
CONTINUOUS
 10
7.138062
 20
4.682839
  0
VERTEX
  8
0
  6
CONTINUOUS
 10
7.148600
 20
4.664574
  0
VERTEX
  8
0
  6
CONTINUOUS
 10
7.157732
 20
4.628747
  0
VERTEX
  8
0
  6
CONTINUOUS
 10
7.158435
 20
4.350558
  0
VERTEX
  8
0
  6
CONTINUOUS
 10
7.159840
 20
4.354071
  0
SEQEND
  8
0
  0
TEXT
  8
0
 10
17.530789
 20
0.309098
 40
0.012113
  1
B242
 41
1.000000
  7
SN0
 71
     0
 72
     5
 11
17.559998
 21
0.309098
  0
SOLID
  8
0
 62
    15
 10
6.299282
 20
2.993336
 11
6.301390
 21
3.730957
 12
6.369532
 22
2.988418
 13
6.372342
 23
3.726742
  0
POLYLINE
  8
0
  6
CONTINUOUS
 66
     1
 40
0.000000
 41
0.000000
  0
VERTEX
  8
0
  6
CONTINUOUS
 10
6.299282
 20
2.993336
  0
VERTEX
  8
0
  6
CONTINUOUS
 10
6.301390
 20
3.730957
  0
VERTEX
  8
0
  6
CONTINUOUS
 10
6.372342
 20
3.726742
  0
VERTEX
  8
0
  6
CONTINUOUS
 10
6.369532
 20
2.988418
  0
VERTEX
  8
0
  6
CONTINUOUS
 10
6.299282
 20
2.993336
  0
SEQEND
  8
0
  0
SOLID
  8
0
 62
    15
 10
4.151752
 20
3.198465
 11
4.153859
 21
3.936085
 12
4.925200
 22
3.198465
 13
4.927307
 23
3.936085
  0
POLYLINE
  8
0
  6
CONTINUOUS
 66
     1
 40
0.000000
 41
0.000000
  0
VERTEX
  8
0
  6
CONTINUOUS
 10
4.151752
 20
3.198465
  0
VERTEX
  8
0
  6
CONTINUOUS
 10
4.153859
 20
3.936085
  0
VERTEX
  8
0
  6
CONTINUOUS
 10
4.927307
 20
3.936085
  0
VERTEX
  8
0
  6
CONTINUOUS
 10
4.925200
 20
3.198465
  0
VERTEX
  8
0
  6
CONTINUOUS
 10
4.151752
 20
3.198465
  0
SEQEND
  8
0
  0
SOLID
  8
0
 62
    15
 10
4.925200
 20
3.198465
 11
4.927307
 21
3.936085
 12
4.983507
 22
3.124702
 13
4.986317
 23
3.863026
  0
POLYLINE
  8
0
  6
CONTINUOUS
 66
     1
 40
0.000000
 41
0.000000
  0
VERTEX
  8
0
  6
CONTINUOUS
 10
4.925200
 20
3.198465
  0
VERTEX
  8
0
  6
CONTINUOUS
 10
4.927307
 20
3.936085
  0
VERTEX
  8
0
  6
CONTINUOUS
 10
4.986317
 20
3.863026
  0
VERTEX
  8
0
  6
CONTINUOUS
 10
4.983507
 20
3.124702
  0
VERTEX
  8
0
  6
CONTINUOUS
 10
4.925200
 20
3.198465
  0
SEQEND
  8
0
  0
SOLID
  8
0
 62
    15
 10
4.983507
 20
3.124702
 11
4.986317
 21
3.863026
 12
4.996854
 22
3.128917
 13
4.998962
 23
3.866538
  0
POLYLINE
  8
0
  6
CONTINUOUS
 66
     1
 40
0.000000
 41
0.000000
  0
VERTEX
  8
0
  6
CONTINUOUS
 10
4.983507
 20
3.124702
  0
VERTEX
  8
0
  6
CONTINUOUS
 10
4.986317
 20
3.863026
  0
VERTEX
  8
0
  6
CONTINUOUS
 10
4.998962
 20
3.866538
  0
VERTEX
  8
0
  6
CONTINUOUS
 10
4.996854
 20
3.128917
  0
VERTEX
  8
0
  6
CONTINUOUS
 10
4.983507
 20
3.124702
  0
SEQEND
  8
0
  0
SOLID
  8
0
 62
    15
 10
4.995450
 20
3.128917
 11
4.998259
 21
3.866538
 12
5.053054
 22
3.145777
 13
5.055162
 23
3.883398
  0
POLYLINE
  8
0
  6
CONTINUOUS
 66
     1
 40
0.000000
 41
0.000000
  0
VERTEX
  8
0
  6
CONTINUOUS
 10
4.995450
 20
3.128917
  0
VERTEX
  8
0
  6
CONTINUOUS
 10
4.998259
 20
3.866538
  0
VERTEX
  8
0
  6
CONTINUOUS
 10
5.055162
 20
3.883398
  0
VERTEX
  8
0
  6
CONTINUOUS
 10
5.053054
 20
3.145777
  0
VERTEX
  8
0
  6
CONTINUOUS
 10
4.995450
 20
3.128917
  0
SEQEND
  8
0
  0
SOLID
  8
0
 62
    15
 10
5.053054
 20
3.145777
 11
5.055162
 21
3.883398
 12
5.108551
 22
3.158422
 13
5.110659
 23
3.896746
  0
POLYLINE
  8
0
  6
CONTINUOUS
 66
     1
 40
0.000000
 41
0.000000
  0
VERTEX
  8
0
  6
CONTINUOUS
 10
5.053054
 20
3.145777
  0
VERTEX
  8
0
  6
CONTINUOUS
 10
5.055162
 20
3.883398
  0
VERTEX
  8
0
  6
CONTINUOUS
 10
5.110659
 20
3.896746
  0
VERTEX
  8
0
  6
CONTINUOUS
 10
5.108551
 20
3.158422
  0
VERTEX
  8
0
  6
CONTINUOUS
 10
5.053054
 20
3.145777
  0
SEQEND
  8
0
  0
SOLID
  8
0
 62
    15
 10
5.108551
 20
3.158422
 11
5.110659
 21
3.896746
 12
5.161941
 22
3.168257
 13
5.164049
 23
3.905878
  0
POLYLINE
  8
0
  6
CONTINUOUS
 66
     1
 40
0.000000
 41
0.000000
  0
VERTEX
  8
0
  6
CONTINUOUS
 10
5.108551
 20
3.158422
  0
VERTEX
  8
0
  6
CONTINUOUS
 10
5.110659
 20
3.896746
  0
VERTEX
  8
0
  6
CONTINUOUS
 10
5.164049
 20
3.905878
  0
VERTEX
  8
0
  6
CONTINUOUS
 10
5.161941
 20
3.168257
  0
VERTEX
  8
0
  6
CONTINUOUS
 10
5.108551
 20
3.158422
  0
SEQEND
  8
0
  0
SOLID
  8
0
 62
    15
 10
5.161941
 20
3.168257
 11
5.164049
 21
3.905878
 12
5.213223
 22
3.174580
 13
5.215331
 23
3.912903
  0
POLYLINE
  8
0
  6
CONTINUOUS
 66
     1
 40
0.000000
 41
0.000000
  0
VERTEX
  8
0
  6
CONTINUOUS
 10
5.161941
 20
3.168257
  0
VERTEX
  8
0
  6
CONTINUOUS
 10
5.164049
 20
3.905878
  0
VERTEX
  8
0
  6
CONTINUOUS
 10
5.215331
 20
3.912903
  0
VERTEX
  8
0
  6
CONTINUOUS
 10
5.213223
 20
3.174580
  0
VERTEX
  8
0
  6
CONTINUOUS
 10
5.161941
 20
3.168257
  0
SEQEND
  8
0
  0
SOLID
  8
0
 62
    15
 10
5.213223
 20
3.174580
 11
5.215331
 21
3.912903
 12
5.312275
 22
3.179497
 13
5.314383
 23
3.917118
  0
POLYLINE
  8
0
  6
CONTINUOUS
 66
     1
 40
0.000000
 41
0.000000
  0
VERTEX
  8
0
  6
CONTINUOUS
 10
5.213223
 20
3.174580
  0
VERTEX
  8
0
  6
CONTINUOUS
 10
5.215331
 20
3.912903
  0
VERTEX
  8
0
  6
CONTINUOUS
 10
5.314383
 20
3.917118
  0
VERTEX
  8
0
  6
CONTINUOUS
 10
5.312275
 20
3.179497
  0
VERTEX
  8
0
  6
CONTINUOUS
 10
5.213223
 20
3.174580
  0
SEQEND
  8
0
  0
SOLID
  8
0
 62
    15
 10
5.312275
 20
3.179497
 11
5.314383
 21
3.917118
 12
5.407112
 22
3.173877
 13
5.409922
 23
3.912201
  0
POLYLINE
  8
0
  6
CONTINUOUS
 66
     1
 40
0.000000
 41
0.000000
  0
VERTEX
  8
0
  6
CONTINUOUS
 10
5.312275
 20
3.179497
  0
VERTEX
  8
0
  6
CONTINUOUS
 10
5.314383
 20
3.917118
  0
VERTEX
  8
0
  6
CONTINUOUS
 10
5.409922
 20
3.912201
  0
VERTEX
  8
0
  6
CONTINUOUS
 10
5.407112
 20
3.173877
  0
VERTEX
  8
0
  6
CONTINUOUS
 10
5.312275
 20
3.179497
  0
SEQEND
  8
0
  0
SOLID
  8
0
 62
    15
 10
5.407112
 20
3.173877
 11
5.409922
 21
3.912201
 12
5.499842
 22
3.161232
 13
5.501949
 23
3.898853
  0
POLYLINE
  8
0
  6
CONTINUOUS
 66
     1
 40
0.000000
 41
0.000000
  0
VERTEX
  8
0
  6
CONTINUOUS
 10
5.407112
 20
3.173877
  0
VERTEX
  8
0
  6
CONTINUOUS
 10
5.409922
 20
3.912201
  0
VERTEX
  8
0
  6
CONTINUOUS
 10
5.501949
 20
3.898853
  0
VERTEX
  8
0
  6
CONTINUOUS
 10
5.499842
 20
3.161232
  0
VERTEX
  8
0
  6
CONTINUOUS
 10
5.407112
 20
3.173877
  0
SEQEND
  8
0
  0
SOLID
  8
0
 62
    15
 10
5.499842
 20
3.161232
 11
5.501949
 21
3.898853
 12
5.591869
 22
3.141562
 13
5.594679
 23
3.879886
  0
POLYLINE
  8
0
  6
CONTINUOUS
 66
     1
 40
0.000000
 41
0.000000
  0
VERTEX
  8
0
  6
CONTINUOUS
 10
5.499842
 20
3.161232
  0
VERTEX
  8
0
  6
CONTINUOUS
 10
5.501949
 20
3.898853
  0
VERTEX
  8
0
  6
CONTINUOUS
 10
5.594679
 20
3.879886
  0
VERTEX
  8
0
  6
CONTINUOUS
 10
5.591869
 20
3.141562
  0
VERTEX
  8
0
  6
CONTINUOUS
 10
5.499842
 20
3.161232
  0
SEQEND
  8
0
  0
SOLID
  8
0
 62
    15
 10
5.591869
 20
3.141562
 11
5.594679
 21
3.879886
 12
5.685301
 22
3.118380
 13
5.687408
 23
3.856001
  0
POLYLINE
  8
0
  6
CONTINUOUS
 66
     1
 40
0.000000
 41
0.000000
  0
VERTEX
  8
0
  6
CONTINUOUS
 10
5.591869
 20
3.141562
  0
VERTEX
  8
0
  6
CONTINUOUS
 10
5.594679
 20
3.879886
  0
VERTEX
  8
0
  6
CONTINUOUS
 10
5.687408
 20
3.856001
  0
VERTEX
  8
0
  6
CONTINUOUS
 10
5.685301
 20
3.118380
  0
VERTEX
  8
0
  6
CONTINUOUS
 10
5.591869
 20
3.141562
  0
SEQEND
  8
0
  0
SOLID
  8
0
 62
    15
 10
5.685301
 20
3.118380
 11
5.687408
 21
3.856001
 12
5.733070
 22
3.105033
 13
5.735178
 23
3.843356
  0
POLYLINE
  8
0
  6
CONTINUOUS
 66
     1
 40
0.000000
 41
0.000000
  0
VERTEX
  8
0
  6
CONTINUOUS
 10
5.685301
 20
3.118380
  0
VERTEX
  8
0
  6
CONTINUOUS
 10
5.687408
 20
3.856001
  0
VERTEX
  8
0
  6
CONTINUOUS
 10
5.735178
 20
3.843356
  0
VERTEX
  8
0
  6
CONTINUOUS
 10
5.733070
 20
3.105033
  0
VERTEX
  8
0
  6
CONTINUOUS
 10
5.685301
 20
3.118380
  0
SEQEND
  8
0
  0
SOLID
  8
0
 62
    15
 10
5.733070
 20
3.105033
 11
5.735178
 21
3.843356
 12
5.781543
 22
3.092388
 13
5.783650
 23
3.830009
  0
POLYLINE
  8
0
  6
CONTINUOUS
 66
     1
 40
0.000000
 41
0.000000
  0
VERTEX
  8
0
  6
CONTINUOUS
 10
5.733070
 20
3.105033
  0
VERTEX
  8
0
  6
CONTINUOUS
 10
5.735178
 20
3.843356
  0
VERTEX
  8
0
  6
CONTINUOUS
 10
5.783650
 20
3.830009
  0
VERTEX
  8
0
  6
CONTINUOUS
 10
5.781543
 20
3.092388
  0
VERTEX
  8
0
  6
CONTINUOUS
 10
5.733070
 20
3.105033
  0
SEQEND
  8
0
  0
SOLID
  8
0
 62
    15
 10
5.781543
 20
3.092388
 11
5.783650
 21
3.830009
 12
5.882702
 22
3.064990
 13
5.884810
 23
3.803314
  0
POLYLINE
  8
0
  6
CONTINUOUS
 66
     1
 40
0.000000
 41
0.000000
  0
VERTEX
  8
0
  6
CONTINUOUS
 10
5.781543
 20
3.092388
  0
VERTEX
  8
0
  6
CONTINUOUS
 10
5.783650
 20
3.830009
  0
VERTEX
  8
0
  6
CONTINUOUS
 10
5.884810
 20
3.803314
  0
VERTEX
  8
0
  6
CONTINUOUS
 10
5.882702
 20
3.064990
  0
VERTEX
  8
0
  6
CONTINUOUS
 10
5.781543
 20
3.092388
  0
SEQEND
  8
0
  0
SOLID
  8
0
 62
    15
 10
5.882702
 20
3.064990
 11
5.884810
 21
3.803314
 12
5.990184
 22
3.039700
 13
5.992291
 23
3.778024
  0
POLYLINE
  8
0
  6
CONTINUOUS
 66
     1
 40
0.000000
 41
0.000000
  0
VERTEX
  8
0
  6
CONTINUOUS
 10
5.882702
 20
3.064990
  0
VERTEX
  8
0
  6
CONTINUOUS
 10
5.884810
 20
3.803314
  0
VERTEX
  8
0
  6
CONTINUOUS
 10
5.992291
 20
3.778024
  0
VERTEX
  8
0
  6
CONTINUOUS
 10
5.990184
 20
3.039700
  0
VERTEX
  8
0
  6
CONTINUOUS
 10
5.882702
 20
3.064990
  0
SEQEND
  8
0
  0
SOLID
  8
0
 62
    15
 10
5.990184
 20
3.039700
 11
5.992291
 21
3.778024
 12
6.106096
 22
3.017221
 13
6.108203
 23
3.755544
  0
POLYLINE
  8
0
  6
CONTINUOUS
 66
     1
 40
0.000000
 41
0.000000
  0
VERTEX
  8
0
  6
CONTINUOUS
 10
5.990184
 20
3.039700
  0
VERTEX
  8
0
  6
CONTINUOUS
 10
5.992291
 20
3.778024
  0
VERTEX
  8
0
  6
CONTINUOUS
 10
6.108203
 20
3.755544
  0
VERTEX
  8
0
  6
CONTINUOUS
 10
6.106096
 20
3.017221
  0
VERTEX
  8
0
  6
CONTINUOUS
 10
5.990184
 20
3.039700
  0
SEQEND
  8
0
  0
SOLID
  8
0
 62
    15
 10
6.106096
 20
3.017221
 11
6.108203
 21
3.755544
 12
6.167915
 22
3.008088
 13
6.170023
 23
3.745709
  0
POLYLINE
  8
0
  6
CONTINUOUS
 66
     1
 40
0.000000
 41
0.000000
  0
VERTEX
  8
0
  6
CONTINUOUS
 10
6.106096
 20
3.017221
  0
VERTEX
  8
0
  6
CONTINUOUS
 10
6.108203
 20
3.755544
  0
VERTEX
  8
0
  6
CONTINUOUS
 10
6.170023
 20
3.745709
  0
VERTEX
  8
0
  6
CONTINUOUS
 10
6.167915
 20
3.008088
  0
VERTEX
  8
0
  6
CONTINUOUS
 10
6.106096
 20
3.017221
  0
SEQEND
  8
0
  0
SOLID
  8
0
 62
    15
 10
6.167915
 20
3.008088
 11
6.170023
 21
3.745709
 12
6.231843
 22
2.999658
 13
6.234653
 23
3.737279
  0
POLYLINE
  8
0
  6
CONTINUOUS
 66
     1
 40
0.000000
 41
0.000000
  0
VERTEX
  8
0
  6
CONTINUOUS
 10
6.167915
 20
3.008088
  0
VERTEX
  8
0
  6
CONTINUOUS
 10
6.170023
 20
3.745709
  0
VERTEX
  8
0
  6
CONTINUOUS
 10
6.234653
 20
3.737279
  0
VERTEX
  8
0
  6
CONTINUOUS
 10
6.231843
 20
2.999658
  0
VERTEX
  8
0
  6
CONTINUOUS
 10
6.167915
 20
3.008088
  0
SEQEND
  8
0
  0
SOLID
  8
0
 62
    15
 10
6.231843
 20
2.999658
 11
6.234653
 21
3.737279
 12
6.299282
 22
2.993336
 13
6.301390
 23
3.730957
  0
POLYLINE
  8
0
  6
CONTINUOUS
 66
     1
 40
0.000000
 41
0.000000
  0
VERTEX
  8
0
  6
CONTINUOUS
 10
6.231843
 20
2.999658
  0
VERTEX
  8
0
  6
CONTINUOUS
 10
6.234653
 20
3.737279
  0
VERTEX
  8
0
  6
CONTINUOUS
 10
6.301390
 20
3.730957
  0
VERTEX
  8
0
  6
CONTINUOUS
 10
6.299282
 20
2.993336
  0
VERTEX
  8
0
  6
CONTINUOUS
 10
6.231843
 20
2.999658
  0
SEQEND
  8
0
  0
SOLID
  8
0
 62
    15
 10
7.648777
 20
2.542333
 11
7.651587
 21
3.279954
 12
7.648777
 22
2.528986
 13
7.651587
 23
3.266607
  0
POLYLINE
  8
0
  6
CONTINUOUS
 66
     1
 40
0.000000
 41
0.000000
  0
VERTEX
  8
0
  6
CONTINUOUS
 10
7.648777
 20
2.542333
  0
VERTEX
  8
0
  6
CONTINUOUS
 10
7.651587
 20
3.279954
  0
VERTEX
  8
0
  6
CONTINUOUS
 10
7.651587
 20
3.266607
  0
VERTEX
  8
0
  6
CONTINUOUS
 10
7.648777
 20
2.528986
  0
VERTEX
  8
0
  6
CONTINUOUS
 10
7.648777
 20
2.542333
  0
SEQEND
  8
0
  0
SOLID
  8
0
 62
    15
 10
6.369532
 20
2.988418
 11
6.372342
 21
3.726742
 12
6.443996
 22
2.986311
 13
6.446104
 23
3.723932
  0
POLYLINE
  8
0
  6
CONTINUOUS
 66
     1
 40
0.000000
 41
0.000000
  0
VERTEX
  8
0
  6
CONTINUOUS
 10
6.369532
 20
2.988418
  0
VERTEX
  8
0
  6
CONTINUOUS
 10
6.372342
 20
3.726742
  0
VERTEX
  8
0
  6
CONTINUOUS
 10
6.446104
 20
3.723932
  0
VERTEX
  8
0
  6
CONTINUOUS
 10
6.443996
 20
2.986311
  0
VERTEX
  8
0
  6
CONTINUOUS
 10
6.369532
 20
2.988418
  0
SEQEND
  8
0
  0
SOLID
  8
0
 62
    15
 10
6.443996
 20
2.986311
 11
6.446104
 21
3.723932
 12
6.521271
 22
2.986311
 13
6.523378
 23
3.723932
  0
POLYLINE
  8
0
  6
CONTINUOUS
 66
     1
 40
0.000000
 41
0.000000
  0
VERTEX
  8
0
  6
CONTINUOUS
 10
6.443996
 20
2.986311
  0
VERTEX
  8
0
  6
CONTINUOUS
 10
6.446104
 20
3.723932
  0
VERTEX
  8
0
  6
CONTINUOUS
 10
6.523378
 20
3.723932
  0
VERTEX
  8
0
  6
CONTINUOUS
 10
6.521271
 20
2.986311
  0
VERTEX
  8
0
  6
CONTINUOUS
 10
6.443996
 20
2.986311
  0
SEQEND
  8
0
  0
SOLID
  8
0
 62
    15
 10
6.521271
 20
2.986311
 11
6.523378
 21
3.723932
 12
6.602760
 22
2.989121
 13
6.604868
 23
3.726742
  0
POLYLINE
  8
0
  6
CONTINUOUS
 66
     1
 40
0.000000
 41
0.000000
  0
VERTEX
  8
0
  6
CONTINUOUS
 10
6.521271
 20
2.986311
  0
VERTEX
  8
0
  6
CONTINUOUS
 10
6.523378
 20
3.723932
  0
VERTEX
  8
0
  6
CONTINUOUS
 10
6.604868
 20
3.726742
  0
VERTEX
  8
0
  6
CONTINUOUS
 10
6.602760
 20
2.989121
  0
VERTEX
  8
0
  6
CONTINUOUS
 10
6.521271
 20
2.986311
  0
SEQEND
  8
0
  0
SOLID
  8
0
 62
    15
 10
6.602760
 20
2.989121
 11
6.604868
 21
3.726742
 12
6.687763
 22
2.994038
 13
6.689870
 23
3.732362
  0
POLYLINE
  8
0
  6
CONTINUOUS
 66
     1
 40
0.000000
 41
0.000000
  0
VERTEX
  8
0
  6
CONTINUOUS
 10
6.602760
 20
2.989121
  0
VERTEX
  8
0
  6
CONTINUOUS
 10
6.604868
 20
3.726742
  0
VERTEX
  8
0
  6
CONTINUOUS
 10
6.689870
 20
3.732362
  0
VERTEX
  8
0
  6
CONTINUOUS
 10
6.687763
 20
2.994038
  0
VERTEX
  8
0
  6
CONTINUOUS
 10
6.602760
 20
2.989121
  0
SEQEND
  8
0
  0
SOLID
  8
0
 62
    15
 10
6.687763
 20
2.994038
 11
6.689870
 21
3.732362
 12
6.777682
 22
3.002468
 13
6.779790
 23
3.740792
  0
POLYLINE
  8
0
  6
CONTINUOUS
 66
     1
 40
0.000000
 41
0.000000
  0
VERTEX
  8
0
  6
CONTINUOUS
 10
6.687763
 20
2.994038
  0
VERTEX
  8
0
  6
CONTINUOUS
 10
6.689870
 20
3.732362
  0
VERTEX
  8
0
  6
CONTINUOUS
 10
6.779790
 20
3.740792
  0
VERTEX
  8
0
  6
CONTINUOUS
 10
6.777682
 20
3.002468
  0
VERTEX
  8
0
  6
CONTINUOUS
 10
6.687763
 20
2.994038
  0
SEQEND
  8
0
  0
SOLID
  8
0
 62
    15
 10
6.777682
 20
3.002468
 11
6.779790
 21
3.740792
 12
6.871816
 22
3.014411
 13
6.873924
 23
3.752031
  0
POLYLINE
  8
0
  6
CONTINUOUS
 66
     1
 40
0.000000
 41
0.000000
  0
VERTEX
  8
0
  6
CONTINUOUS
 10
6.777682
 20
3.002468
  0
VERTEX
  8
0
  6
CONTINUOUS
 10
6.779790
 20
3.740792
  0
VERTEX
  8
0
  6
CONTINUOUS
 10
6.873924
 20
3.752031
  0
VERTEX
  8
0
  6
CONTINUOUS
 10
6.871816
 20
3.014411
  0
VERTEX
  8
0
  6
CONTINUOUS
 10
6.777682
 20
3.002468
  0
SEQEND
  8
0
  0
SOLID
  8
0
 62
    15
 10
6.871816
 20
3.014411
 11
6.873924
 21
3.752031
 12
6.873221
 22
3.011601
 13
6.875329
 23
3.749221
  0
POLYLINE
  8
0
  6
CONTINUOUS
 66
     1
 40
0.000000
 41
0.000000
  0
VERTEX
  8
0
  6
CONTINUOUS
 10
6.871816
 20
3.014411
  0
VERTEX
  8
0
  6
CONTINUOUS
 10
6.873924
 20
3.752031
  0
VERTEX
  8
0
  6
CONTINUOUS
 10
6.875329
 20
3.749221
  0
VERTEX
  8
0
  6
CONTINUOUS
 10
6.873221
 20
3.011601
  0
VERTEX
  8
0
  6
CONTINUOUS
 10
6.871816
 20
3.014411
  0
SEQEND
  8
0
  0
SOLID
  8
0
 62
    15
 10
6.873221
 20
3.011601
 11
6.875329
 21
3.749221
 12
6.950496
 22
2.907631
 13
6.952604
 23
3.645252
  0
POLYLINE
  8
0
  6
CONTINUOUS
 66
     1
 40
0.000000
 41
0.000000
  0
VERTEX
  8
0
  6
CONTINUOUS
 10
6.873221
 20
3.011601
  0
VERTEX
  8
0
  6
CONTINUOUS
 10
6.875329
 20
3.749221
  0
VERTEX
  8
0
  6
CONTINUOUS
 10
6.952604
 20
3.645252
  0
VERTEX
  8
0
  6
CONTINUOUS
 10
6.950496
 20
2.907631
  0
VERTEX
  8
0
  6
CONTINUOUS
 10
6.873221
 20
3.011601
  0
SEQEND
  8
0
  0
SOLID
  8
0
 62
    15
 10
6.950496
 20
2.907631
 11
6.952604
 21
3.645252
 12
6.954711
 22
2.909036
 13
6.956819
 23
3.646657
  0
POLYLINE
  8
0
  6
CONTINUOUS
 66
     1
 40
0.000000
 41
0.000000
  0
VERTEX
  8
0
  6
CONTINUOUS
 10
6.950496
 20
2.907631
  0
VERTEX
  8
0
  6
CONTINUOUS
 10
6.952604
 20
3.645252
  0
VERTEX
  8
0
  6
CONTINUOUS
 10
6.956819
 20
3.646657
  0
VERTEX
  8
0
  6
CONTINUOUS
 10
6.954711
 20
2.909036
  0
VERTEX
  8
0
  6
CONTINUOUS
 10
6.950496
 20
2.907631
  0
SEQEND
  8
0
  0
SOLID
  8
0
 62
    15
 10
6.954711
 20
2.909036
 11
6.956819
 21
3.646657
 12
7.537080
 22
2.909036
 13
7.539188
 23
3.646657
  0
POLYLINE
  8
0
  6
CONTINUOUS
 66
     1
 40
0.000000
 41
0.000000
  0
VERTEX
  8
0
  6
CONTINUOUS
 10
6.954711
 20
2.909036
  0
VERTEX
  8
0
  6
CONTINUOUS
 10
6.956819
 20
3.646657
  0
VERTEX
  8
0
  6
CONTINUOUS
 10
7.539188
 20
3.646657
  0
VERTEX
  8
0
  6
CONTINUOUS
 10
7.537080
 20
2.909036
  0
VERTEX
  8
0
  6
CONTINUOUS
 10
6.954711
 20
2.909036
  0
SEQEND
  8
0
  0
SOLID
  8
0
 62
    15
 10
7.537080
 20
2.909036
 11
7.539188
 21
3.646657
 12
7.562370
 22
2.906226
 13
7.564478
 23
3.643847
  0
POLYLINE
  8
0
  6
CONTINUOUS
 66
     1
 40
0.000000
 41
0.000000
  0
VERTEX
  8
0
  6
CONTINUOUS
 10
7.537080
 20
2.909036
  0
VERTEX
  8
0
  6
CONTINUOUS
 10
7.539188
 20
3.646657
  0
VERTEX
  8
0
  6
CONTINUOUS
 10
7.564478
 20
3.643847
  0
VERTEX
  8
0
  6
CONTINUOUS
 10
7.562370
 20
2.906226
  0
VERTEX
  8
0
  6
CONTINUOUS
 10
7.537080
 20
2.909036
  0
SEQEND
  8
0
  0
SOLID
  8
0
 62
    15
 10
7.562370
 20
2.906226
 11
7.564478
 21
3.643847
 12
7.584850
 22
2.899904
 13
7.586957
 23
3.638227
  0
POLYLINE
  8
0
  6
CONTINUOUS
 66
     1
 40
0.000000
 41
0.000000
  0
VERTEX
  8
0
  6
CONTINUOUS
 10
7.562370
 20
2.906226
  0
VERTEX
  8
0
  6
CONTINUOUS
 10
7.564478
 20
3.643847
  0
VERTEX
  8
0
  6
CONTINUOUS
 10
7.586957
 20
3.638227
  0
VERTEX
  8
0
  6
CONTINUOUS
 10
7.584850
 20
2.899904
  0
VERTEX
  8
0
  6
CONTINUOUS
 10
7.562370
 20
2.906226
  0
SEQEND
  8
0
  0
SOLID
  8
0
 62
    15
 10
7.584850
 20
2.899904
 11
7.586957
 21
3.638227
 12
7.604520
 22
2.890771
 13
7.606627
 23
3.629095
  0
POLYLINE
  8
0
  6
CONTINUOUS
 66
     1
 40
0.000000
 41
0.000000
  0
VERTEX
  8
0
  6
CONTINUOUS
 10
7.584850
 20
2.899904
  0
VERTEX
  8
0
  6
CONTINUOUS
 10
7.586957
 20
3.638227
  0
VERTEX
  8
0
  6
CONTINUOUS
 10
7.606627
 20
3.629095
  0
VERTEX
  8
0
  6
CONTINUOUS
 10
7.604520
 20
2.890771
  0
VERTEX
  8
0
  6
CONTINUOUS
 10
7.584850
 20
2.899904
  0
SEQEND
  8
0
  0
SOLID
  8
0
 62
    15
 10
7.604520
 20
2.890771
 11
7.606627
 21
3.629095
 12
7.619975
 22
2.878126
 13
7.622785
 23
3.616450
  0
POLYLINE
  8
0
  6
CONTINUOUS
 66
     1
 40
0.000000
 41
0.000000
  0
VERTEX
  8
0
  6
CONTINUOUS
 10
7.604520
 20
2.890771
  0
VERTEX
  8
0
  6
CONTINUOUS
 10
7.606627
 20
3.629095
  0
VERTEX
  8
0
  6
CONTINUOUS
 10
7.622785
 20
3.616450
  0
VERTEX
  8
0
  6
CONTINUOUS
 10
7.619975
 20
2.878126
  0
VERTEX
  8
0
  6
CONTINUOUS
 10
7.604520
 20
2.890771
  0
SEQEND
  8
0
  0
SOLID
  8
0
 62
    15
 10
7.619975
 20
2.878126
 11
7.622785
 21
3.616450
 12
7.632620
 22
2.861969
 13
7.634727
 23
3.599590
  0
POLYLINE
  8
0
  6
CONTINUOUS
 66
     1
 40
0.000000
 41
0.000000
  0
VERTEX
  8
0
  6
CONTINUOUS
 10
7.619975
 20
2.878126
  0
VERTEX
  8
0
  6
CONTINUOUS
 10
7.622785
 20
3.616450
  0
VERTEX
  8
0
  6
CONTINUOUS
 10
7.634727
 20
3.599590
  0
VERTEX
  8
0
  6
CONTINUOUS
 10
7.632620
 20
2.861969
  0
VERTEX
  8
0
  6
CONTINUOUS
 10
7.619975
 20
2.878126
  0
SEQEND
  8
0
  0
SOLID
  8
0
 62
    15
 10
7.641752
 20
2.841597
 11
7.643860
 21
3.579217
 12
7.646670
 22
2.817009
 13
7.648777
 23
3.554630
  0
POLYLINE
  8
0
  6
CONTINUOUS
 66
     1
 40
0.000000
 41
0.000000
  0
VERTEX
  8
0
  6
CONTINUOUS
 10
7.641752
 20
2.841597
  0
VERTEX
  8
0
  6
CONTINUOUS
 10
7.643860
 20
3.579217
  0
VERTEX
  8
0
  6
CONTINUOUS
 10
7.648777
 20
3.554630
  0
VERTEX
  8
0
  6
CONTINUOUS
 10
7.646670
 20
2.817009
  0
VERTEX
  8
0
  6
CONTINUOUS
 10
7.641752
 20
2.841597
  0
SEQEND
  8
0
  0
SOLID
  8
0
 62
    15
 10
7.632620
 20
2.861969
 11
7.634727
 21
3.599590
 12
7.641752
 22
2.841597
 13
7.643860
 23
3.579217
  0
POLYLINE
  8
0
  6
CONTINUOUS
 66
     1
 40
0.000000
 41
0.000000
  0
VERTEX
  8
0
  6
CONTINUOUS
 10
7.632620
 20
2.861969
  0
VERTEX
  8
0
  6
CONTINUOUS
 10
7.634727
 20
3.599590
  0
VERTEX
  8
0
  6
CONTINUOUS
 10
7.643860
 20
3.579217
  0
VERTEX
  8
0
  6
CONTINUOUS
 10
7.641752
 20
2.841597
  0
VERTEX
  8
0
  6
CONTINUOUS
 10
7.632620
 20
2.861969
  0
SEQEND
  8
0
  0
SOLID
  8
0
 62
    15
 10
7.646670
 20
2.817009
 11
7.648777
 21
3.554630
 12
7.647372
 22
2.787504
 13
7.650182
 23
3.525828
  0
POLYLINE
  8
0
  6
CONTINUOUS
 66
     1
 40
0.000000
 41
0.000000
  0
VERTEX
  8
0
  6
CONTINUOUS
 10
7.646670
 20
2.817009
  0
VERTEX
  8
0
  6
CONTINUOUS
 10
7.648777
 20
3.554630
  0
VERTEX
  8
0
  6
CONTINUOUS
 10
7.650182
 20
3.525828
  0
VERTEX
  8
0
  6
CONTINUOUS
 10
7.647372
 20
2.787504
  0
VERTEX
  8
0
  6
CONTINUOUS
 10
7.646670
 20
2.817009
  0
SEQEND
  8
0
  0
SOLID
  8
0
 62
    15
 10
7.647372
 20
2.538118
 11
7.650182
 21
3.276442
 12
7.648777
 22
2.542333
 13
7.651587
 23
3.279954
  0
POLYLINE
  8
0
  6
CONTINUOUS
 66
     1
 40
0.000000
 41
0.000000
  0
VERTEX
  8
0
  6
CONTINUOUS
 10
7.647372
 20
2.538118
  0
VERTEX
  8
0
  6
CONTINUOUS
 10
7.650182
 20
3.276442
  0
VERTEX
  8
0
  6
CONTINUOUS
 10
7.651587
 20
3.279954
  0
VERTEX
  8
0
  6
CONTINUOUS
 10
7.648777
 20
2.542333
  0
VERTEX
  8
0
  6
CONTINUOUS
 10
7.647372
 20
2.538118
  0
SEQEND
  8
0
  0
SOLID
  8
0
 62
    15
 10
7.647372
 20
2.787504
 11
7.650182
 21
3.525828
 12
7.647372
 22
2.538118
 13
7.650182
 23
3.276442
  0
POLYLINE
  8
0
  6
CONTINUOUS
 66
     1
 40
0.000000
 41
0.000000
  0
VERTEX
  8
0
  6
CONTINUOUS
 10
7.647372
 20
2.787504
  0
VERTEX
  8
0
  6
CONTINUOUS
 10
7.650182
 20
3.525828
  0
VERTEX
  8
0
  6
CONTINUOUS
 10
7.650182
 20
3.276442
  0
VERTEX
  8
0
  6
CONTINUOUS
 10
7.647372
 20
2.538118
  0
VERTEX
  8
0
  6
CONTINUOUS
 10
7.647372
 20
2.787504
  0
SEQEND
  8
0
  0
POLYLINE
  8
0
  6
CONTINUOUS
 66
     1
 40
0.000000
 41
0.000000
  0
VERTEX
  8
0
  6
CONTINUOUS
 10
7.648777
 20
2.542333
  0
VERTEX
  8
0
  6
CONTINUOUS
 10
7.648777
 20
2.528986
  0
VERTEX
  8
0
  6
CONTINUOUS
 10
7.646670
 20
2.527581
  0
VERTEX
  8
0
  6
CONTINUOUS
 10
4.151752
 20
2.527581
  0
VERTEX
  8
0
  6
CONTINUOUS
 10
4.151752
 20
3.198465
  0
VERTEX
  8
0
  6
CONTINUOUS
 10
4.925200
 20
3.198465
  0
VERTEX
  8
0
  6
CONTINUOUS
 10
4.983507
 20
3.124702
  0
VERTEX
  8
0
  6
CONTINUOUS
 10
4.996854
 20
3.128917
  0
VERTEX
  8
0
  6
CONTINUOUS
 10
4.995450
 20
3.128917
  0
VERTEX
  8
0
  6
CONTINUOUS
 10
5.053054
 20
3.145777
  0
VERTEX
  8
0
  6
CONTINUOUS
 10
5.108551
 20
3.158422
  0
VERTEX
  8
0
  6
CONTINUOUS
 10
5.161941
 20
3.168257
  0
VERTEX
  8
0
  6
CONTINUOUS
 10
5.213223
 20
3.174580
  0
VERTEX
  8
0
  6
CONTINUOUS
 10
5.312275
 20
3.179497
  0
VERTEX
  8
0
  6
CONTINUOUS
 10
5.407112
 20
3.173877
  0
VERTEX
  8
0
  6
CONTINUOUS
 10
5.499842
 20
3.161232
  0
VERTEX
  8
0
  6
CONTINUOUS
 10
5.591869
 20
3.141562
  0
VERTEX
  8
0
  6
CONTINUOUS
 10
5.685301
 20
3.118380
  0
VERTEX
  8
0
  6
CONTINUOUS
 10
5.733070
 20
3.105033
  0
VERTEX
  8
0
  6
CONTINUOUS
 10
5.781543
 20
3.092388
  0
VERTEX
  8
0
  6
CONTINUOUS
 10
5.882702
 20
3.064990
  0
VERTEX
  8
0
  6
CONTINUOUS
 10
5.990184
 20
3.039700
  0
VERTEX
  8
0
  6
CONTINUOUS
 10
6.106096
 20
3.017221
  0
VERTEX
  8
0
  6
CONTINUOUS
 10
6.167915
 20
3.008088
  0
VERTEX
  8
0
  6
CONTINUOUS
 10
6.231843
 20
2.999658
  0
VERTEX
  8
0
  6
CONTINUOUS
 10
6.299282
 20
2.993336
  0
VERTEX
  8
0
  6
CONTINUOUS
 10
6.369532
 20
2.988418
  0
VERTEX
  8
0
  6
CONTINUOUS
 10
6.443996
 20
2.986311
  0
VERTEX
  8
0
  6
CONTINUOUS
 10
6.521271
 20
2.986311
  0
VERTEX
  8
0
  6
CONTINUOUS
 10
6.602760
 20
2.989121
  0
VERTEX
  8
0
  6
CONTINUOUS
 10
6.687763
 20
2.994038
  0
VERTEX
  8
0
  6
CONTINUOUS
 10
6.777682
 20
3.002468
  0
VERTEX
  8
0
  6
CONTINUOUS
 10
6.871816
 20
3.014411
  0
VERTEX
  8
0
  6
CONTINUOUS
 10
6.873221
 20
3.011601
  0
VERTEX
  8
0
  6
CONTINUOUS
 10
6.950496
 20
2.907631
  0
VERTEX
  8
0
  6
CONTINUOUS
 10
6.954711
 20
2.909036
  0
VERTEX
  8
0
  6
CONTINUOUS
 10
7.537080
 20
2.909036
  0
VERTEX
  8
0
  6
CONTINUOUS
 10
7.562370
 20
2.906226
  0
VERTEX
  8
0
  6
CONTINUOUS
 10
7.584850
 20
2.899904
  0
VERTEX
  8
0
  6
CONTINUOUS
 10
7.604520
 20
2.890771
  0
VERTEX
  8
0
  6
CONTINUOUS
 10
7.619975
 20
2.878126
  0
VERTEX
  8
0
  6
CONTINUOUS
 10
7.632620
 20
2.861969
  0
VERTEX
  8
0
  6
CONTINUOUS
 10
7.641752
 20
2.841597
  0
VERTEX
  8
0
  6
CONTINUOUS
 10
7.646670
 20
2.817009
  0
VERTEX
  8
0
  6
CONTINUOUS
 10
7.647372
 20
2.787504
  0
VERTEX
  8
0
  6
CONTINUOUS
 10
7.647372
 20
2.538118
  0
VERTEX
  8
0
  6
CONTINUOUS
 10
7.648777
 20
2.542333
  0
SEQEND
  8
0
  0
TEXT
  8
0
 10
5.608026
 20
2.294352
 40
0.136426
  1
BA  242
 41
1.000000
  7
SN1
 71
     0
 72
     5
 11
6.196365
 21
2.294352
  0
TEXT
  8
0
 10
5.360045
 20
2.102571
 40
0.136426
  1
11/16" x 3-1/2"
 41
1.000000
  7
SN1
 71
     0
 72
     5
 11
6.431016
 21
2.102571
  0
TEXT
  8
0
 10
7.725349
 20
5.033384
 40
0.136426
  1
case
 41
1.000000
  7
SN1
 71
     0
 72
     5
 11
8.072372
 21
5.033384
  0
TEXT
  8
0
 10
7.761879
 20
4.842305
 40
0.136426
  1
242
 41
1.000000
  7
SN1
 71
     0
 72
     5
 11
8.035881
 21
4.842305
  0
TEXT
  8
0
 10
7.845476
 20
4.650524
 40
0.136426
  1
B
 41
1.000000
  7
SN1
 71
     0
 72
     5
 11
7.956050
 21
4.650524
  0
ENDSEC
  0
EOF
