  0
SECTION
  2
HEADER
  9
$ACADVER
  1
AC1006
  9
$EXTMIN
 10
4.674108
 20
0.359306
  9
$EXTMAX
 10
19.570822
 20
7.484366
  9
$LTSCALE
 40
0.078280
  9
$PDMODE
 70
    35
  9
$PDSIZE
 40
0.062624
  0
ENDSEC
  0
SECTION
  2
TABLES
  0
TABLE
  2
LTYPE
 70
     9
  0
LTYPE
  2
CONTINUOUS
 70
    64
  3
Solid line
 72
    65
 73
     0
 40
0.000000
  0
LTYPE
  2
DASHED
 70
    64
  3
__ __ __ __ __ __ __ __ __ __ __ __ __ __ __
 72
    65
 73
     2
 40
0.000587
 49
0.000391
 49
-0.000196
  0
LTYPE
  2
HIDDEN
 70
    64
  3
 _ _ _ _ _ _ _ _ _ _ _ _ _ _ _ _ _ _ _ _ _ _
 72
    65
 73
     2
 40
0.000294
 49
0.000196
 49
-0.000098
  0
LTYPE
  2
CENTER
 70
    64
  3
____ _ ____ _ ____ _ ____ _ ____ _ ____ _ ____
 72
    65
 73
     4
 40
0.001566
 49
0.000979
 49
-0.000196
 49
0.000196
 49
-0.000196
  0
LTYPE
  2
PHANTOM
 70
    64
  3
_____ _ _ _____ _ _ _____ _ _ _____ _ _ ____
 72
    65
 73
     6
 40
0.001957
 49
0.000979
 49
-0.000196
 49
0.000196
 49
-0.000196
 49
0.000196
 49
-0.000196
  0
LTYPE
  2
DOT
 70
    64
  3
...............................................
 72
    65
 73
     2
 40
0.000196
 49
0.000000
 49
-0.000196
  0
LTYPE
  2
DASHDOT
 70
    64
  3
__ . __ . __ . __ . __ . __ . __ . __ . __ . __
 72
    65
 73
     4
 40
0.000783
 49
0.000391
 49
-0.000196
 49
0.000000
 49
-0.000196
  0
LTYPE
  2
BORDER
 70
    64
  3
__ __ . __ __ . __ __ . __ __ . __ __ . __ __
 72
    65
 73
     6
 40
0.001370
 49
0.000391
 49
-0.000196
 49
0.000391
 49
-0.000196
 49
0.000000
 49
-0.000196
  0
LTYPE
  2
DIVIDE
 70
    64
  3
__ . . __ . . __ . . __ . . __ . . __ . . __
 72
    65
 73
     6
 40
0.000979
 49
0.000391
 49
-0.000196
 49
0.000000
 49
-0.000196
 49
0.000000
 49
-0.000196
  0
LTYPE
  2
DOTDOT
 70
    64
  3
 . .  . .  . .  . .  . .  . . 
 72
    65
 73
     5
 40
0.000431
 49
-0.000196
 49
0.000000
 49
-0.000196
 49
0.000000
 49
-0.000196
  0
ENDTAB
  0
TABLE
  2
STYLE
 70
     4
  0
STYLE
 70
     0
  2
SN0
 40
0.000000
 41
0.000783
 50
0.000000
 71
     0
 42
0.000000
  3
ROMAND
  0
STYLE
 70
    68
  2
SV0
 40
0.000000
 41
0.000783
 50
0.000000
 71
     0
 42
0.000000
  3
ROMAND
  0
STYLE
 70
     0
  2
SN1
 40
0.000000
 41
0.000783
 50
0.000000
 71
     0
 42
0.000000
  3
ROMAND
  0
STYLE
 70
    68
  2
SV1
 40
0.000000
 41
0.000783
 50
0.000000
 71
     0
 42
0.000000
  3
ROMAND
  0
ENDTAB
  0
TABLE
  2
LAYER
 70
     3
  0
LAYER
  2
FOREGROUND
 70
    64
 62
     7
  6
CONTINUOUS
  0
LAYER
  2
BACKGROUND
 70
    65
 62
    -7
  6
CONTINUOUS
  0
LAYER
  2
0
 70
    64
 62
     7
  6
CONTINUOUS
  0
ENDTAB
  0
ENDSEC
  0
SECTION
  2
ENTITIES
  0
POLYLINE
  8
FOREGROUND
  6
CONTINUOUS
 66
     1
 40
0.000000
 41
0.000000
  0
VERTEX
  8
FOREGROUND
  6
CONTINUOUS
 10
0.000000
 20
7.843672
  0
VERTEX
  8
FOREGROUND
  6
CONTINUOUS
 10
8.499659
 20
7.843672
  0
VERTEX
  8
FOREGROUND
  6
CONTINUOUS
 10
8.499659
 20
-3.156256
  0
VERTEX
  8
FOREGROUND
  6
CONTINUOUS
 10
0.000000
 20
-3.156256
  0
VERTEX
  8
FOREGROUND
  6
CONTINUOUS
 10
0.000000
 20
7.843672
  0
SEQEND
  8
0
  0
POLYLINE
  8
FOREGROUND
  6
CONTINUOUS
 66
     1
 40
0.000000
 41
0.000000
  0
VERTEX
  8
FOREGROUND
  6
CONTINUOUS
 10
0.000000
 20
7.843672
  0
VERTEX
  8
FOREGROUND
  6
CONTINUOUS
 10
8.499659
 20
7.843672
  0
VERTEX
  8
FOREGROUND
  6
CONTINUOUS
 10
8.499659
 20
-3.156256
  0
VERTEX
  8
FOREGROUND
  6
CONTINUOUS
 10
0.000000
 20
-3.156256
  0
VERTEX
  8
FOREGROUND
  6
CONTINUOUS
 10
0.000000
 20
7.843672
  0
SEQEND
  8
0
  0
POLYLINE
  8
0
  6
CONTINUOUS
 66
     1
 40
0.014090
 41
0.014090
  0
VERTEX
  8
0
  6
CONTINUOUS
 10
6.851862
 20
6.799414
  0
VERTEX
  8
0
  6
CONTINUOUS
 10
6.857342
 20
6.790021
  0
VERTEX
  8
0
  6
CONTINUOUS
 10
6.875346
 20
6.778279
  0
VERTEX
  8
0
  6
CONTINUOUS
 10
6.887088
 20
6.775930
  0
VERTEX
  8
0
  6
CONTINUOUS
 10
6.898830
 20
6.776713
  0
VERTEX
  8
0
  6
CONTINUOUS
 10
6.910572
 20
6.780627
  0
VERTEX
  8
0
  6
CONTINUOUS
 10
6.931708
 20
6.799414
  0
VERTEX
  8
0
  6
CONTINUOUS
 10
6.939536
 20
6.817419
  0
VERTEX
  8
0
  6
CONTINUOUS
 10
6.963020
 20
6.847948
  0
VERTEX
  8
0
  6
CONTINUOUS
 10
6.995115
 20
6.870649
  0
VERTEX
  8
0
  6
CONTINUOUS
 10
7.013902
 20
6.878477
  0
VERTEX
  8
0
  6
CONTINUOUS
 10
7.033472
 20
6.883174
  0
VERTEX
  8
0
  6
CONTINUOUS
 10
7.067915
 20
6.883957
  0
VERTEX
  8
0
  6
CONTINUOUS
 10
7.080440
 20
6.882391
  0
VERTEX
  8
0
  6
CONTINUOUS
 10
7.114884
 20
6.869084
  0
VERTEX
  8
0
  6
CONTINUOUS
 10
7.136019
 20
6.854993
  0
VERTEX
  8
0
  6
CONTINUOUS
 10
7.161069
 20
6.827595
  0
VERTEX
  8
0
  6
CONTINUOUS
 10
7.176725
 20
6.794718
  0
VERTEX
  8
0
  6
CONTINUOUS
 10
7.182204
 20
6.769668
  0
VERTEX
  8
0
  6
CONTINUOUS
 10
7.183770
 20
6.499601
  0
VERTEX
  8
0
  6
CONTINUOUS
 10
4.684285
 20
6.499601
  0
VERTEX
  8
0
  6
CONTINUOUS
 10
4.682719
 20
6.501167
  0
VERTEX
  8
0
  6
CONTINUOUS
 10
4.682719
 20
7.199426
  0
VERTEX
  8
0
  6
CONTINUOUS
 10
5.141441
 20
7.179856
  0
VERTEX
  8
0
  6
CONTINUOUS
 10
5.145355
 20
7.103141
  0
VERTEX
  8
0
  6
CONTINUOUS
 10
5.169622
 20
7.103141
  0
VERTEX
  8
0
  6
CONTINUOUS
 10
5.230680
 20
7.128974
  0
VERTEX
  8
0
  6
CONTINUOUS
 10
5.284693
 20
7.143064
  0
VERTEX
  8
0
  6
CONTINUOUS
 10
5.316788
 20
7.146196
  0
VERTEX
  8
0
  6
CONTINUOUS
 10
5.347318
 20
7.145413
  0
VERTEX
  8
0
  6
CONTINUOUS
 10
5.377064
 20
7.140716
  0
VERTEX
  8
0
  6
CONTINUOUS
 10
5.406028
 20
7.132888
  0
VERTEX
  8
0
  6
CONTINUOUS
 10
5.496833
 20
7.093748
  0
VERTEX
  8
0
  6
CONTINUOUS
 10
5.604859
 20
7.043649
  0
VERTEX
  8
0
  6
CONTINUOUS
 10
5.696447
 20
7.009988
  0
VERTEX
  8
0
  6
CONTINUOUS
 10
5.766899
 20
6.990418
  0
VERTEX
  8
0
  6
CONTINUOUS
 10
5.815433
 20
6.985721
  0
VERTEX
  8
0
  6
CONTINUOUS
 10
5.870229
 20
6.990418
  0
VERTEX
  8
0
  6
CONTINUOUS
 10
5.968862
 20
7.011554
  0
VERTEX
  8
0
  6
CONTINUOUS
 10
6.011916
 20
7.012337
  0
VERTEX
  8
0
  6
CONTINUOUS
 10
6.035400
 20
7.004508
  0
VERTEX
  8
0
  6
CONTINUOUS
 10
6.063581
 20
6.988070
  0
VERTEX
  8
0
  6
CONTINUOUS
 10
6.076106
 20
6.977893
  0
VERTEX
  8
0
  6
CONTINUOUS
 10
6.093327
 20
6.952061
  0
VERTEX
  8
0
  6
CONTINUOUS
 10
6.098024
 20
6.936405
  0
VERTEX
  8
0
  6
CONTINUOUS
 10
6.099590
 20
6.918400
  0
VERTEX
  8
0
  6
CONTINUOUS
 10
6.815853
 20
6.899613
  0
VERTEX
  8
0
  6
CONTINUOUS
 10
6.834641
 20
6.894916
  0
VERTEX
  8
0
  6
CONTINUOUS
 10
6.847948
 20
6.880826
  0
VERTEX
  8
0
  6
CONTINUOUS
 10
6.850297
 20
6.865953
  0
VERTEX
  8
0
  6
CONTINUOUS
 10
6.851862
 20
6.799414
  0
SEQEND
  8
0
  0
TEXT
  8
0
 10
19.538727
 20
0.365568
 40
0.010925
  1
B242
 41
1.000000
  7
SN0
 71
     0
 72
     5
 11
19.567031
 21
0.365568
  0
SOLID
  8
0
 62
    15
 10
5.795863
 20
5.383326
 11
5.791166
 21
6.110549
 12
5.856921
 22
5.355146
 13
5.852225
 23
6.082368
  0
POLYLINE
  8
0
  6
CONTINUOUS
 66
     1
 40
0.000000
 41
0.000000
  0
VERTEX
  8
0
  6
CONTINUOUS
 10
5.795863
 20
5.383326
  0
VERTEX
  8
0
  6
CONTINUOUS
 10
5.791166
 20
6.110549
  0
VERTEX
  8
0
  6
CONTINUOUS
 10
5.852225
 20
6.082368
  0
VERTEX
  8
0
  6
CONTINUOUS
 10
5.856921
 20
5.355146
  0
VERTEX
  8
0
  6
CONTINUOUS
 10
5.795863
 20
5.383326
  0
SEQEND
  8
0
  0
SOLID
  8
0
 62
    15
 10
7.226824
 20
5.044373
 11
7.222127
 21
5.770813
 12
7.247177
 22
5.037328
 13
7.243263
 23
5.764551
  0
POLYLINE
  8
0
  6
CONTINUOUS
 66
     1
 40
0.000000
 41
0.000000
  0
VERTEX
  8
0
  6
CONTINUOUS
 10
7.226824
 20
5.044373
  0
VERTEX
  8
0
  6
CONTINUOUS
 10
7.222127
 20
5.770813
  0
VERTEX
  8
0
  6
CONTINUOUS
 10
7.243263
 20
5.764551
  0
VERTEX
  8
0
  6
CONTINUOUS
 10
7.247177
 20
5.037328
  0
VERTEX
  8
0
  6
CONTINUOUS
 10
7.226824
 20
5.044373
  0
SEQEND
  8
0
  0
SOLID
  8
0
 62
    15
 10
7.247177
 20
5.037328
 11
7.243263
 21
5.764551
 12
7.271444
 22
5.042025
 13
7.266747
 23
5.769248
  0
POLYLINE
  8
0
  6
CONTINUOUS
 66
     1
 40
0.000000
 41
0.000000
  0
VERTEX
  8
0
  6
CONTINUOUS
 10
7.247177
 20
5.037328
  0
VERTEX
  8
0
  6
CONTINUOUS
 10
7.243263
 20
5.764551
  0
VERTEX
  8
0
  6
CONTINUOUS
 10
7.266747
 20
5.769248
  0
VERTEX
  8
0
  6
CONTINUOUS
 10
7.271444
 20
5.042025
  0
VERTEX
  8
0
  6
CONTINUOUS
 10
7.247177
 20
5.037328
  0
SEQEND
  8
0
  0
SOLID
  8
0
 62
    15
 10
7.271444
 20
5.042025
 11
7.266747
 21
5.769248
 12
7.282403
 22
5.049853
 13
7.277706
 23
5.777076
  0
POLYLINE
  8
0
  6
CONTINUOUS
 66
     1
 40
0.000000
 41
0.000000
  0
VERTEX
  8
0
  6
CONTINUOUS
 10
7.271444
 20
5.042025
  0
VERTEX
  8
0
  6
CONTINUOUS
 10
7.266747
 20
5.769248
  0
VERTEX
  8
0
  6
CONTINUOUS
 10
7.277706
 20
5.777076
  0
VERTEX
  8
0
  6
CONTINUOUS
 10
7.282403
 20
5.049853
  0
VERTEX
  8
0
  6
CONTINUOUS
 10
7.271444
 20
5.042025
  0
SEQEND
  8
0
  0
SOLID
  8
0
 62
    15
 10
7.282403
 20
5.049853
 11
7.277706
 21
5.777076
 12
7.292579
 22
5.060812
 13
7.287883
 23
5.788035
  0
POLYLINE
  8
0
  6
CONTINUOUS
 66
     1
 40
0.000000
 41
0.000000
  0
VERTEX
  8
0
  6
CONTINUOUS
 10
7.282403
 20
5.049853
  0
VERTEX
  8
0
  6
CONTINUOUS
 10
7.277706
 20
5.777076
  0
VERTEX
  8
0
  6
CONTINUOUS
 10
7.287883
 20
5.788035
  0
VERTEX
  8
0
  6
CONTINUOUS
 10
7.292579
 20
5.060812
  0
VERTEX
  8
0
  6
CONTINUOUS
 10
7.282403
 20
5.049853
  0
SEQEND
  8
0
  0
SOLID
  8
0
 62
    15
 10
7.292579
 20
5.060812
 11
7.287883
 21
5.788035
 12
7.311367
 22
5.095255
 13
7.306670
 23
5.821695
  0
POLYLINE
  8
0
  6
CONTINUOUS
 66
     1
 40
0.000000
 41
0.000000
  0
VERTEX
  8
0
  6
CONTINUOUS
 10
7.292579
 20
5.060812
  0
VERTEX
  8
0
  6
CONTINUOUS
 10
7.287883
 20
5.788035
  0
VERTEX
  8
0
  6
CONTINUOUS
 10
7.306670
 20
5.821695
  0
VERTEX
  8
0
  6
CONTINUOUS
 10
7.311367
 20
5.095255
  0
VERTEX
  8
0
  6
CONTINUOUS
 10
7.292579
 20
5.060812
  0
SEQEND
  8
0
  0
SOLID
  8
0
 62
    15
 10
7.311367
 20
5.095255
 11
7.306670
 21
5.821695
 12
7.339548
 22
5.121871
 13
7.334851
 23
5.849093
  0
POLYLINE
  8
0
  6
CONTINUOUS
 66
     1
 40
0.000000
 41
0.000000
  0
VERTEX
  8
0
  6
CONTINUOUS
 10
7.311367
 20
5.095255
  0
VERTEX
  8
0
  6
CONTINUOUS
 10
7.306670
 20
5.821695
  0
VERTEX
  8
0
  6
CONTINUOUS
 10
7.334851
 20
5.849093
  0
VERTEX
  8
0
  6
CONTINUOUS
 10
7.339548
 20
5.121871
  0
VERTEX
  8
0
  6
CONTINUOUS
 10
7.311367
 20
5.095255
  0
SEQEND
  8
0
  0
SOLID
  8
0
 62
    15
 10
7.339548
 20
5.121871
 11
7.334851
 21
5.849093
 12
7.374774
 22
5.139875
 13
7.370077
 23
5.867098
  0
POLYLINE
  8
0
  6
CONTINUOUS
 66
     1
 40
0.000000
 41
0.000000
  0
VERTEX
  8
0
  6
CONTINUOUS
 10
7.339548
 20
5.121871
  0
VERTEX
  8
0
  6
CONTINUOUS
 10
7.334851
 20
5.849093
  0
VERTEX
  8
0
  6
CONTINUOUS
 10
7.370077
 20
5.867098
  0
VERTEX
  8
0
  6
CONTINUOUS
 10
7.374774
 20
5.139875
  0
VERTEX
  8
0
  6
CONTINUOUS
 10
7.339548
 20
5.121871
  0
SEQEND
  8
0
  0
SOLID
  8
0
 62
    15
 10
7.374774
 20
5.139875
 11
7.370077
 21
5.867098
 12
7.394344
 22
5.144572
 13
7.390430
 23
5.871795
  0
POLYLINE
  8
0
  6
CONTINUOUS
 66
     1
 40
0.000000
 41
0.000000
  0
VERTEX
  8
0
  6
CONTINUOUS
 10
7.374774
 20
5.139875
  0
VERTEX
  8
0
  6
CONTINUOUS
 10
7.370077
 20
5.867098
  0
VERTEX
  8
0
  6
CONTINUOUS
 10
7.390430
 20
5.871795
  0
VERTEX
  8
0
  6
CONTINUOUS
 10
7.394344
 20
5.144572
  0
VERTEX
  8
0
  6
CONTINUOUS
 10
7.374774
 20
5.139875
  0
SEQEND
  8
0
  0
SOLID
  8
0
 62
    15
 10
7.394344
 20
5.144572
 11
7.390430
 21
5.871795
 12
7.415479
 22
5.146138
 13
7.410783
 23
5.873360
  0
POLYLINE
  8
0
  6
CONTINUOUS
 66
     1
 40
0.000000
 41
0.000000
  0
VERTEX
  8
0
  6
CONTINUOUS
 10
7.394344
 20
5.144572
  0
VERTEX
  8
0
  6
CONTINUOUS
 10
7.390430
 20
5.871795
  0
VERTEX
  8
0
  6
CONTINUOUS
 10
7.410783
 20
5.873360
  0
VERTEX
  8
0
  6
CONTINUOUS
 10
7.415479
 20
5.146138
  0
VERTEX
  8
0
  6
CONTINUOUS
 10
7.394344
 20
5.144572
  0
SEQEND
  8
0
  0
SOLID
  8
0
 62
    15
 10
7.415479
 20
5.146138
 11
7.410783
 21
5.873360
 12
7.440529
 22
5.143789
 13
7.435832
 23
5.870229
  0
POLYLINE
  8
0
  6
CONTINUOUS
 66
     1
 40
0.000000
 41
0.000000
  0
VERTEX
  8
0
  6
CONTINUOUS
 10
7.415479
 20
5.146138
  0
VERTEX
  8
0
  6
CONTINUOUS
 10
7.410783
 20
5.873360
  0
VERTEX
  8
0
  6
CONTINUOUS
 10
7.435832
 20
5.870229
  0
VERTEX
  8
0
  6
CONTINUOUS
 10
7.440529
 20
5.143789
  0
VERTEX
  8
0
  6
CONTINUOUS
 10
7.415479
 20
5.146138
  0
SEQEND
  8
0
  0
SOLID
  8
0
 62
    15
 10
7.440529
 20
5.143789
 11
7.435832
 21
5.870229
 12
7.464796
 22
5.135961
 13
7.460099
 23
5.863184
  0
POLYLINE
  8
0
  6
CONTINUOUS
 66
     1
 40
0.000000
 41
0.000000
  0
VERTEX
  8
0
  6
CONTINUOUS
 10
7.440529
 20
5.143789
  0
VERTEX
  8
0
  6
CONTINUOUS
 10
7.435832
 20
5.870229
  0
VERTEX
  8
0
  6
CONTINUOUS
 10
7.460099
 20
5.863184
  0
VERTEX
  8
0
  6
CONTINUOUS
 10
7.464796
 20
5.135961
  0
VERTEX
  8
0
  6
CONTINUOUS
 10
7.440529
 20
5.143789
  0
SEQEND
  8
0
  0
SOLID
  8
0
 62
    15
 10
7.464796
 20
5.135961
 11
7.460099
 21
5.863184
 12
7.485931
 22
5.124219
 13
7.482017
 23
5.850659
  0
POLYLINE
  8
0
  6
CONTINUOUS
 66
     1
 40
0.000000
 41
0.000000
  0
VERTEX
  8
0
  6
CONTINUOUS
 10
7.464796
 20
5.135961
  0
VERTEX
  8
0
  6
CONTINUOUS
 10
7.460099
 20
5.863184
  0
VERTEX
  8
0
  6
CONTINUOUS
 10
7.482017
 20
5.850659
  0
VERTEX
  8
0
  6
CONTINUOUS
 10
7.485931
 20
5.124219
  0
VERTEX
  8
0
  6
CONTINUOUS
 10
7.464796
 20
5.135961
  0
SEQEND
  8
0
  0
SOLID
  8
0
 62
    15
 10
7.485931
 20
5.124219
 11
7.482017
 21
5.850659
 12
7.505501
 22
5.107780
 13
7.500805
 23
5.835003
  0
POLYLINE
  8
0
  6
CONTINUOUS
 66
     1
 40
0.000000
 41
0.000000
  0
VERTEX
  8
0
  6
CONTINUOUS
 10
7.485931
 20
5.124219
  0
VERTEX
  8
0
  6
CONTINUOUS
 10
7.482017
 20
5.850659
  0
VERTEX
  8
0
  6
CONTINUOUS
 10
7.500805
 20
5.835003
  0
VERTEX
  8
0
  6
CONTINUOUS
 10
7.505501
 20
5.107780
  0
VERTEX
  8
0
  6
CONTINUOUS
 10
7.485931
 20
5.124219
  0
SEQEND
  8
0
  0
SOLID
  8
0
 62
    15
 10
7.505501
 20
5.107780
 11
7.500805
 21
5.835003
 12
7.521158
 22
5.088993
 13
7.516461
 23
5.816216
  0
POLYLINE
  8
0
  6
CONTINUOUS
 66
     1
 40
0.000000
 41
0.000000
  0
VERTEX
  8
0
  6
CONTINUOUS
 10
7.505501
 20
5.107780
  0
VERTEX
  8
0
  6
CONTINUOUS
 10
7.500805
 20
5.835003
  0
VERTEX
  8
0
  6
CONTINUOUS
 10
7.516461
 20
5.816216
  0
VERTEX
  8
0
  6
CONTINUOUS
 10
7.521158
 20
5.088993
  0
VERTEX
  8
0
  6
CONTINUOUS
 10
7.505501
 20
5.107780
  0
SEQEND
  8
0
  0
SOLID
  8
0
 62
    15
 10
7.521158
 20
5.088993
 11
7.516461
 21
5.816216
 12
7.532900
 22
5.067075
 13
7.528203
 23
5.794297
  0
POLYLINE
  8
0
  6
CONTINUOUS
 66
     1
 40
0.000000
 41
0.000000
  0
VERTEX
  8
0
  6
CONTINUOUS
 10
7.521158
 20
5.088993
  0
VERTEX
  8
0
  6
CONTINUOUS
 10
7.516461
 20
5.816216
  0
VERTEX
  8
0
  6
CONTINUOUS
 10
7.528203
 20
5.794297
  0
VERTEX
  8
0
  6
CONTINUOUS
 10
7.532900
 20
5.067075
  0
VERTEX
  8
0
  6
CONTINUOUS
 10
7.521158
 20
5.088993
  0
SEQEND
  8
0
  0
SOLID
  8
0
 62
    15
 10
7.540728
 20
5.043591
 11
7.536031
 21
5.770813
 12
7.543076
 22
5.017758
 13
7.538379
 23
5.744981
  0
POLYLINE
  8
0
  6
CONTINUOUS
 66
     1
 40
0.000000
 41
0.000000
  0
VERTEX
  8
0
  6
CONTINUOUS
 10
7.540728
 20
5.043591
  0
VERTEX
  8
0
  6
CONTINUOUS
 10
7.536031
 20
5.770813
  0
VERTEX
  8
0
  6
CONTINUOUS
 10
7.538379
 20
5.744981
  0
VERTEX
  8
0
  6
CONTINUOUS
 10
7.543076
 20
5.017758
  0
VERTEX
  8
0
  6
CONTINUOUS
 10
7.540728
 20
5.043591
  0
SEQEND
  8
0
  0
SOLID
  8
0
 62
    15
 10
7.532900
 20
5.067075
 11
7.528203
 21
5.794297
 12
7.540728
 22
5.043591
 13
7.536031
 23
5.770813
  0
POLYLINE
  8
0
  6
CONTINUOUS
 66
     1
 40
0.000000
 41
0.000000
  0
VERTEX
  8
0
  6
CONTINUOUS
 10
7.532900
 20
5.067075
  0
VERTEX
  8
0
  6
CONTINUOUS
 10
7.528203
 20
5.794297
  0
VERTEX
  8
0
  6
CONTINUOUS
 10
7.536031
 20
5.770813
  0
VERTEX
  8
0
  6
CONTINUOUS
 10
7.540728
 20
5.043591
  0
VERTEX
  8
0
  6
CONTINUOUS
 10
7.532900
 20
5.067075
  0
SEQEND
  8
0
  0
SOLID
  8
0
 62
    15
 10
7.543076
 20
4.763348
 11
7.539162
 21
5.490570
 12
7.544642
 22
4.760999
 13
7.539945
 23
5.488222
  0
POLYLINE
  8
0
  6
CONTINUOUS
 66
     1
 40
0.000000
 41
0.000000
  0
VERTEX
  8
0
  6
CONTINUOUS
 10
7.543076
 20
4.763348
  0
VERTEX
  8
0
  6
CONTINUOUS
 10
7.539162
 20
5.490570
  0
VERTEX
  8
0
  6
CONTINUOUS
 10
7.539945
 20
5.488222
  0
VERTEX
  8
0
  6
CONTINUOUS
 10
7.544642
 20
4.760999
  0
VERTEX
  8
0
  6
CONTINUOUS
 10
7.543076
 20
4.763348
  0
SEQEND
  8
0
  0
SOLID
  8
0
 62
    15
 10
5.043591
 20
4.761782
 11
5.038894
 21
5.489005
 12
5.043591
 22
5.460824
 13
5.038894
 23
6.188046
  0
POLYLINE
  8
0
  6
CONTINUOUS
 66
     1
 40
0.000000
 41
0.000000
  0
VERTEX
  8
0
  6
CONTINUOUS
 10
5.043591
 20
4.761782
  0
VERTEX
  8
0
  6
CONTINUOUS
 10
5.038894
 20
5.489005
  0
VERTEX
  8
0
  6
CONTINUOUS
 10
5.038894
 20
6.188046
  0
VERTEX
  8
0
  6
CONTINUOUS
 10
5.043591
 20
5.460824
  0
VERTEX
  8
0
  6
CONTINUOUS
 10
5.043591
 20
4.761782
  0
SEQEND
  8
0
  0
SOLID
  8
0
 62
    15
 10
5.043591
 20
5.460824
 11
5.038894
 21
6.188046
 12
5.044373
 22
5.460824
 13
5.040459
 23
6.188046
  0
POLYLINE
  8
0
  6
CONTINUOUS
 66
     1
 40
0.000000
 41
0.000000
  0
VERTEX
  8
0
  6
CONTINUOUS
 10
5.043591
 20
5.460824
  0
VERTEX
  8
0
  6
CONTINUOUS
 10
5.038894
 20
6.188046
  0
VERTEX
  8
0
  6
CONTINUOUS
 10
5.040459
 20
6.188046
  0
VERTEX
  8
0
  6
CONTINUOUS
 10
5.044373
 20
5.460824
  0
VERTEX
  8
0
  6
CONTINUOUS
 10
5.043591
 20
5.460824
  0
SEQEND
  8
0
  0
SOLID
  8
0
 62
    15
 10
5.501529
 20
5.440471
 11
5.497615
 21
6.167694
 12
5.506226
 22
5.364539
 13
5.501529
 23
6.091762
  0
POLYLINE
  8
0
  6
CONTINUOUS
 66
     1
 40
0.000000
 41
0.000000
  0
VERTEX
  8
0
  6
CONTINUOUS
 10
5.501529
 20
5.440471
  0
VERTEX
  8
0
  6
CONTINUOUS
 10
5.497615
 20
6.167694
  0
VERTEX
  8
0
  6
CONTINUOUS
 10
5.501529
 20
6.091762
  0
VERTEX
  8
0
  6
CONTINUOUS
 10
5.506226
 20
5.364539
  0
VERTEX
  8
0
  6
CONTINUOUS
 10
5.501529
 20
5.440471
  0
SEQEND
  8
0
  0
SOLID
  8
0
 62
    15
 10
5.044373
 20
5.460824
 11
5.040459
 21
6.188046
 12
5.501529
 22
5.442037
 13
5.497615
 23
6.169259
  0
POLYLINE
  8
0
  6
CONTINUOUS
 66
     1
 40
0.000000
 41
0.000000
  0
VERTEX
  8
0
  6
CONTINUOUS
 10
5.044373
 20
5.460824
  0
VERTEX
  8
0
  6
CONTINUOUS
 10
5.040459
 20
6.188046
  0
VERTEX
  8
0
  6
CONTINUOUS
 10
5.497615
 20
6.169259
  0
VERTEX
  8
0
  6
CONTINUOUS
 10
5.501529
 20
5.442037
  0
VERTEX
  8
0
  6
CONTINUOUS
 10
5.044373
 20
5.460824
  0
SEQEND
  8
0
  0
SOLID
  8
0
 62
    15
 10
5.506226
 20
5.364539
 11
5.501529
 21
6.091762
 12
5.527362
 22
5.363756
 13
5.522665
 23
6.090196
  0
POLYLINE
  8
0
  6
CONTINUOUS
 66
     1
 40
0.000000
 41
0.000000
  0
VERTEX
  8
0
  6
CONTINUOUS
 10
5.506226
 20
5.364539
  0
VERTEX
  8
0
  6
CONTINUOUS
 10
5.501529
 20
6.091762
  0
VERTEX
  8
0
  6
CONTINUOUS
 10
5.522665
 20
6.090196
  0
VERTEX
  8
0
  6
CONTINUOUS
 10
5.527362
 20
5.363756
  0
VERTEX
  8
0
  6
CONTINUOUS
 10
5.506226
 20
5.364539
  0
SEQEND
  8
0
  0
SOLID
  8
0
 62
    15
 10
5.527362
 20
5.363756
 11
5.522665
 21
6.090196
 12
5.529710
 22
5.364539
 13
5.525796
 23
6.091762
  0
POLYLINE
  8
0
  6
CONTINUOUS
 66
     1
 40
0.000000
 41
0.000000
  0
VERTEX
  8
0
  6
CONTINUOUS
 10
5.527362
 20
5.363756
  0
VERTEX
  8
0
  6
CONTINUOUS
 10
5.522665
 20
6.090196
  0
VERTEX
  8
0
  6
CONTINUOUS
 10
5.525796
 20
6.091762
  0
VERTEX
  8
0
  6
CONTINUOUS
 10
5.529710
 20
5.364539
  0
VERTEX
  8
0
  6
CONTINUOUS
 10
5.527362
 20
5.363756
  0
SEQEND
  8
0
  0
SOLID
  8
0
 62
    15
 10
5.529710
 20
5.364539
 11
5.525796
 21
6.091762
 12
5.571982
 22
5.383326
 13
5.567285
 23
6.110549
  0
POLYLINE
  8
0
  6
CONTINUOUS
 66
     1
 40
0.000000
 41
0.000000
  0
VERTEX
  8
0
  6
CONTINUOUS
 10
5.529710
 20
5.364539
  0
VERTEX
  8
0
  6
CONTINUOUS
 10
5.525796
 20
6.091762
  0
VERTEX
  8
0
  6
CONTINUOUS
 10
5.567285
 20
6.110549
  0
VERTEX
  8
0
  6
CONTINUOUS
 10
5.571982
 20
5.383326
  0
VERTEX
  8
0
  6
CONTINUOUS
 10
5.529710
 20
5.364539
  0
SEQEND
  8
0
  0
SOLID
  8
0
 62
    15
 10
5.571982
 20
5.383326
 11
5.567285
 21
6.110549
 12
5.609556
 22
5.396634
 13
5.605642
 23
6.123857
  0
POLYLINE
  8
0
  6
CONTINUOUS
 66
     1
 40
0.000000
 41
0.000000
  0
VERTEX
  8
0
  6
CONTINUOUS
 10
5.571982
 20
5.383326
  0
VERTEX
  8
0
  6
CONTINUOUS
 10
5.567285
 20
6.110549
  0
VERTEX
  8
0
  6
CONTINUOUS
 10
5.605642
 20
6.123857
  0
VERTEX
  8
0
  6
CONTINUOUS
 10
5.609556
 20
5.396634
  0
VERTEX
  8
0
  6
CONTINUOUS
 10
5.571982
 20
5.383326
  0
SEQEND
  8
0
  0
SOLID
  8
0
 62
    15
 10
5.609556
 20
5.396634
 11
5.605642
 21
6.123857
 12
5.644782
 22
5.404462
 13
5.640868
 23
6.131685
  0
POLYLINE
  8
0
  6
CONTINUOUS
 66
     1
 40
0.000000
 41
0.000000
  0
VERTEX
  8
0
  6
CONTINUOUS
 10
5.609556
 20
5.396634
  0
VERTEX
  8
0
  6
CONTINUOUS
 10
5.605642
 20
6.123857
  0
VERTEX
  8
0
  6
CONTINUOUS
 10
5.640868
 20
6.131685
  0
VERTEX
  8
0
  6
CONTINUOUS
 10
5.644782
 20
5.404462
  0
VERTEX
  8
0
  6
CONTINUOUS
 10
5.609556
 20
5.396634
  0
SEQEND
  8
0
  0
SOLID
  8
0
 62
    15
 10
5.644782
 20
5.404462
 11
5.640868
 21
6.131685
 12
5.677660
 22
5.407593
 13
5.672963
 23
6.134816
  0
POLYLINE
  8
0
  6
CONTINUOUS
 66
     1
 40
0.000000
 41
0.000000
  0
VERTEX
  8
0
  6
CONTINUOUS
 10
5.644782
 20
5.404462
  0
VERTEX
  8
0
  6
CONTINUOUS
 10
5.640868
 20
6.131685
  0
VERTEX
  8
0
  6
CONTINUOUS
 10
5.672963
 20
6.134816
  0
VERTEX
  8
0
  6
CONTINUOUS
 10
5.677660
 20
5.407593
  0
VERTEX
  8
0
  6
CONTINUOUS
 10
5.644782
 20
5.404462
  0
SEQEND
  8
0
  0
SOLID
  8
0
 62
    15
 10
5.677660
 20
5.407593
 11
5.672963
 21
6.134816
 12
5.708189
 22
5.406810
 13
5.703492
 23
6.134033
  0
POLYLINE
  8
0
  6
CONTINUOUS
 66
     1
 40
0.000000
 41
0.000000
  0
VERTEX
  8
0
  6
CONTINUOUS
 10
5.677660
 20
5.407593
  0
VERTEX
  8
0
  6
CONTINUOUS
 10
5.672963
 20
6.134816
  0
VERTEX
  8
0
  6
CONTINUOUS
 10
5.703492
 20
6.134033
  0
VERTEX
  8
0
  6
CONTINUOUS
 10
5.708189
 20
5.406810
  0
VERTEX
  8
0
  6
CONTINUOUS
 10
5.677660
 20
5.407593
  0
SEQEND
  8
0
  0
SOLID
  8
0
 62
    15
 10
5.708189
 20
5.406810
 11
5.703492
 21
6.134033
 12
5.737936
 22
5.402114
 13
5.733239
 23
6.129336
  0
POLYLINE
  8
0
  6
CONTINUOUS
 66
     1
 40
0.000000
 41
0.000000
  0
VERTEX
  8
0
  6
CONTINUOUS
 10
5.708189
 20
5.406810
  0
VERTEX
  8
0
  6
CONTINUOUS
 10
5.703492
 20
6.134033
  0
VERTEX
  8
0
  6
CONTINUOUS
 10
5.733239
 20
6.129336
  0
VERTEX
  8
0
  6
CONTINUOUS
 10
5.737936
 20
5.402114
  0
VERTEX
  8
0
  6
CONTINUOUS
 10
5.708189
 20
5.406810
  0
SEQEND
  8
0
  0
SOLID
  8
0
 62
    15
 10
5.737936
 20
5.402114
 11
5.733239
 21
6.129336
 12
5.795863
 22
5.383326
 13
5.791166
 23
6.110549
  0
POLYLINE
  8
0
  6
CONTINUOUS
 66
     1
 40
0.000000
 41
0.000000
  0
VERTEX
  8
0
  6
CONTINUOUS
 10
5.737936
 20
5.402114
  0
VERTEX
  8
0
  6
CONTINUOUS
 10
5.733239
 20
6.129336
  0
VERTEX
  8
0
  6
CONTINUOUS
 10
5.791166
 20
6.110549
  0
VERTEX
  8
0
  6
CONTINUOUS
 10
5.795863
 20
5.383326
  0
VERTEX
  8
0
  6
CONTINUOUS
 10
5.737936
 20
5.402114
  0
SEQEND
  8
0
  0
SOLID
  8
0
 62
    15
 10
7.212734
 20
5.060812
 11
7.208037
 21
5.788035
 12
7.226824
 22
5.044373
 13
7.222127
 23
5.770813
  0
POLYLINE
  8
0
  6
CONTINUOUS
 66
     1
 40
0.000000
 41
0.000000
  0
VERTEX
  8
0
  6
CONTINUOUS
 10
7.212734
 20
5.060812
  0
VERTEX
  8
0
  6
CONTINUOUS
 10
7.208037
 20
5.788035
  0
VERTEX
  8
0
  6
CONTINUOUS
 10
7.222127
 20
5.770813
  0
VERTEX
  8
0
  6
CONTINUOUS
 10
7.226824
 20
5.044373
  0
VERTEX
  8
0
  6
CONTINUOUS
 10
7.212734
 20
5.060812
  0
SEQEND
  8
0
  0
SOLID
  8
0
 62
    15
 10
5.856921
 20
5.355146
 11
5.852225
 21
6.082368
 12
5.890582
 22
5.338707
 13
5.885885
 23
6.065929
  0
POLYLINE
  8
0
  6
CONTINUOUS
 66
     1
 40
0.000000
 41
0.000000
  0
VERTEX
  8
0
  6
CONTINUOUS
 10
5.856921
 20
5.355146
  0
VERTEX
  8
0
  6
CONTINUOUS
 10
5.852225
 20
6.082368
  0
VERTEX
  8
0
  6
CONTINUOUS
 10
5.885885
 20
6.065929
  0
VERTEX
  8
0
  6
CONTINUOUS
 10
5.890582
 20
5.338707
  0
VERTEX
  8
0
  6
CONTINUOUS
 10
5.856921
 20
5.355146
  0
SEQEND
  8
0
  0
SOLID
  8
0
 62
    15
 10
5.890582
 20
5.338707
 11
5.885885
 21
6.065929
 12
5.926591
 22
5.322268
 13
5.921894
 23
6.049491
  0
POLYLINE
  8
0
  6
CONTINUOUS
 66
     1
 40
0.000000
 41
0.000000
  0
VERTEX
  8
0
  6
CONTINUOUS
 10
5.890582
 20
5.338707
  0
VERTEX
  8
0
  6
CONTINUOUS
 10
5.885885
 20
6.065929
  0
VERTEX
  8
0
  6
CONTINUOUS
 10
5.921894
 20
6.049491
  0
VERTEX
  8
0
  6
CONTINUOUS
 10
5.926591
 20
5.322268
  0
VERTEX
  8
0
  6
CONTINUOUS
 10
5.890582
 20
5.338707
  0
SEQEND
  8
0
  0
SOLID
  8
0
 62
    15
 10
5.926591
 20
5.322268
 11
5.921894
 21
6.049491
 12
5.965731
 22
5.305046
 13
5.961034
 23
6.031486
  0
POLYLINE
  8
0
  6
CONTINUOUS
 66
     1
 40
0.000000
 41
0.000000
  0
VERTEX
  8
0
  6
CONTINUOUS
 10
5.926591
 20
5.322268
  0
VERTEX
  8
0
  6
CONTINUOUS
 10
5.921894
 20
6.049491
  0
VERTEX
  8
0
  6
CONTINUOUS
 10
5.961034
 20
6.031486
  0
VERTEX
  8
0
  6
CONTINUOUS
 10
5.965731
 20
5.305046
  0
VERTEX
  8
0
  6
CONTINUOUS
 10
5.926591
 20
5.322268
  0
SEQEND
  8
0
  0
SOLID
  8
0
 62
    15
 10
5.965731
 20
5.305046
 11
5.961034
 21
6.031486
 12
6.008785
 22
5.287825
 13
6.004088
 23
6.014264
  0
POLYLINE
  8
0
  6
CONTINUOUS
 66
     1
 40
0.000000
 41
0.000000
  0
VERTEX
  8
0
  6
CONTINUOUS
 10
5.965731
 20
5.305046
  0
VERTEX
  8
0
  6
CONTINUOUS
 10
5.961034
 20
6.031486
  0
VERTEX
  8
0
  6
CONTINUOUS
 10
6.004088
 20
6.014264
  0
VERTEX
  8
0
  6
CONTINUOUS
 10
6.008785
 20
5.287825
  0
VERTEX
  8
0
  6
CONTINUOUS
 10
5.965731
 20
5.305046
  0
SEQEND
  8
0
  0
SOLID
  8
0
 62
    15
 10
6.008785
 20
5.287825
 11
6.004088
 21
6.014264
 12
6.056536
 22
5.270603
 13
6.052622
 23
5.997826
  0
POLYLINE
  8
0
  6
CONTINUOUS
 66
     1
 40
0.000000
 41
0.000000
  0
VERTEX
  8
0
  6
CONTINUOUS
 10
6.008785
 20
5.287825
  0
VERTEX
  8
0
  6
CONTINUOUS
 10
6.004088
 20
6.014264
  0
VERTEX
  8
0
  6
CONTINUOUS
 10
6.052622
 20
5.997826
  0
VERTEX
  8
0
  6
CONTINUOUS
 10
6.056536
 20
5.270603
  0
VERTEX
  8
0
  6
CONTINUOUS
 10
6.008785
 20
5.287825
  0
SEQEND
  8
0
  0
SOLID
  8
0
 62
    15
 10
6.056536
 20
5.270603
 11
6.052622
 21
5.997826
 12
6.109766
 22
5.255730
 13
6.105069
 23
5.982170
  0
POLYLINE
  8
0
  6
CONTINUOUS
 66
     1
 40
0.000000
 41
0.000000
  0
VERTEX
  8
0
  6
CONTINUOUS
 10
6.056536
 20
5.270603
  0
VERTEX
  8
0
  6
CONTINUOUS
 10
6.052622
 20
5.997826
  0
VERTEX
  8
0
  6
CONTINUOUS
 10
6.105069
 20
5.982170
  0
VERTEX
  8
0
  6
CONTINUOUS
 10
6.109766
 20
5.255730
  0
VERTEX
  8
0
  6
CONTINUOUS
 10
6.056536
 20
5.270603
  0
SEQEND
  8
0
  0
SOLID
  8
0
 62
    15
 10
6.109766
 20
5.255730
 11
6.105069
 21
5.982170
 12
6.144210
 22
5.249467
 13
6.139513
 23
5.976690
  0
POLYLINE
  8
0
  6
CONTINUOUS
 66
     1
 40
0.000000
 41
0.000000
  0
VERTEX
  8
0
  6
CONTINUOUS
 10
6.109766
 20
5.255730
  0
VERTEX
  8
0
  6
CONTINUOUS
 10
6.105069
 20
5.982170
  0
VERTEX
  8
0
  6
CONTINUOUS
 10
6.139513
 20
5.976690
  0
VERTEX
  8
0
  6
CONTINUOUS
 10
6.144210
 20
5.249467
  0
VERTEX
  8
0
  6
CONTINUOUS
 10
6.109766
 20
5.255730
  0
SEQEND
  8
0
  0
SOLID
  8
0
 62
    15
 10
6.144210
 20
5.249467
 11
6.139513
 21
5.976690
 12
6.175522
 22
5.247119
 13
6.171608
 23
5.974342
  0
POLYLINE
  8
0
  6
CONTINUOUS
 66
     1
 40
0.000000
 41
0.000000
  0
VERTEX
  8
0
  6
CONTINUOUS
 10
6.144210
 20
5.249467
  0
VERTEX
  8
0
  6
CONTINUOUS
 10
6.139513
 20
5.976690
  0
VERTEX
  8
0
  6
CONTINUOUS
 10
6.171608
 20
5.974342
  0
VERTEX
  8
0
  6
CONTINUOUS
 10
6.175522
 20
5.247119
  0
VERTEX
  8
0
  6
CONTINUOUS
 10
6.144210
 20
5.249467
  0
SEQEND
  8
0
  0
SOLID
  8
0
 62
    15
 10
6.175522
 20
5.247119
 11
6.171608
 21
5.974342
 12
6.230318
 22
5.251816
 13
6.226404
 23
5.979038
  0
POLYLINE
  8
0
  6
CONTINUOUS
 66
     1
 40
0.000000
 41
0.000000
  0
VERTEX
  8
0
  6
CONTINUOUS
 10
6.175522
 20
5.247119
  0
VERTEX
  8
0
  6
CONTINUOUS
 10
6.171608
 20
5.974342
  0
VERTEX
  8
0
  6
CONTINUOUS
 10
6.226404
 20
5.979038
  0
VERTEX
  8
0
  6
CONTINUOUS
 10
6.230318
 20
5.251816
  0
VERTEX
  8
0
  6
CONTINUOUS
 10
6.175522
 20
5.247119
  0
SEQEND
  8
0
  0
SOLID
  8
0
 62
    15
 10
6.230318
 20
5.251816
 11
6.226404
 21
5.979038
 12
6.277286
 22
5.262775
 13
6.272589
 23
5.989215
  0
POLYLINE
  8
0
  6
CONTINUOUS
 66
     1
 40
0.000000
 41
0.000000
  0
VERTEX
  8
0
  6
CONTINUOUS
 10
6.230318
 20
5.251816
  0
VERTEX
  8
0
  6
CONTINUOUS
 10
6.226404
 20
5.979038
  0
VERTEX
  8
0
  6
CONTINUOUS
 10
6.272589
 20
5.989215
  0
VERTEX
  8
0
  6
CONTINUOUS
 10
6.277286
 20
5.262775
  0
VERTEX
  8
0
  6
CONTINUOUS
 10
6.230318
 20
5.251816
  0
SEQEND
  8
0
  0
SOLID
  8
0
 62
    15
 10
6.277286
 20
5.262775
 11
6.272589
 21
5.989215
 12
6.287462
 22
5.265123
 13
6.282765
 23
5.992346
  0
POLYLINE
  8
0
  6
CONTINUOUS
 66
     1
 40
0.000000
 41
0.000000
  0
VERTEX
  8
0
  6
CONTINUOUS
 10
6.277286
 20
5.262775
  0
VERTEX
  8
0
  6
CONTINUOUS
 10
6.272589
 20
5.989215
  0
VERTEX
  8
0
  6
CONTINUOUS
 10
6.282765
 20
5.992346
  0
VERTEX
  8
0
  6
CONTINUOUS
 10
6.287462
 20
5.265123
  0
VERTEX
  8
0
  6
CONTINUOUS
 10
6.277286
 20
5.262775
  0
SEQEND
  8
0
  0
SOLID
  8
0
 62
    15
 10
6.287462
 20
5.265123
 11
6.282765
 21
5.992346
 12
6.297639
 22
5.267472
 13
6.292942
 23
5.994694
  0
POLYLINE
  8
0
  6
CONTINUOUS
 66
     1
 40
0.000000
 41
0.000000
  0
VERTEX
  8
0
  6
CONTINUOUS
 10
6.287462
 20
5.265123
  0
VERTEX
  8
0
  6
CONTINUOUS
 10
6.282765
 20
5.992346
  0
VERTEX
  8
0
  6
CONTINUOUS
 10
6.292942
 20
5.994694
  0
VERTEX
  8
0
  6
CONTINUOUS
 10
6.297639
 20
5.267472
  0
VERTEX
  8
0
  6
CONTINUOUS
 10
6.287462
 20
5.265123
  0
SEQEND
  8
0
  0
SOLID
  8
0
 62
    15
 10
6.297639
 20
5.267472
 11
6.292942
 21
5.994694
 12
6.316426
 22
5.271386
 13
6.311729
 23
5.998608
  0
POLYLINE
  8
0
  6
CONTINUOUS
 66
     1
 40
0.000000
 41
0.000000
  0
VERTEX
  8
0
  6
CONTINUOUS
 10
6.297639
 20
5.267472
  0
VERTEX
  8
0
  6
CONTINUOUS
 10
6.292942
 20
5.994694
  0
VERTEX
  8
0
  6
CONTINUOUS
 10
6.311729
 20
5.998608
  0
VERTEX
  8
0
  6
CONTINUOUS
 10
6.316426
 20
5.271386
  0
VERTEX
  8
0
  6
CONTINUOUS
 10
6.297639
 20
5.267472
  0
SEQEND
  8
0
  0
SOLID
  8
0
 62
    15
 10
6.316426
 20
5.271386
 11
6.311729
 21
5.998608
 12
6.341476
 22
5.273734
 13
6.337562
 23
6.000957
  0
POLYLINE
  8
0
  6
CONTINUOUS
 66
     1
 40
0.000000
 41
0.000000
  0
VERTEX
  8
0
  6
CONTINUOUS
 10
6.316426
 20
5.271386
  0
VERTEX
  8
0
  6
CONTINUOUS
 10
6.311729
 20
5.998608
  0
VERTEX
  8
0
  6
CONTINUOUS
 10
6.337562
 20
6.000957
  0
VERTEX
  8
0
  6
CONTINUOUS
 10
6.341476
 20
5.273734
  0
VERTEX
  8
0
  6
CONTINUOUS
 10
6.316426
 20
5.271386
  0
SEQEND
  8
0
  0
SOLID
  8
0
 62
    15
 10
6.341476
 20
5.273734
 11
6.337562
 21
6.000957
 12
6.360263
 22
5.274517
 13
6.356349
 23
6.000957
  0
POLYLINE
  8
0
  6
CONTINUOUS
 66
     1
 40
0.000000
 41
0.000000
  0
VERTEX
  8
0
  6
CONTINUOUS
 10
6.341476
 20
5.273734
  0
VERTEX
  8
0
  6
CONTINUOUS
 10
6.337562
 20
6.000957
  0
VERTEX
  8
0
  6
CONTINUOUS
 10
6.356349
 20
6.000957
  0
VERTEX
  8
0
  6
CONTINUOUS
 10
6.360263
 20
5.274517
  0
VERTEX
  8
0
  6
CONTINUOUS
 10
6.341476
 20
5.273734
  0
SEQEND
  8
0
  0
SOLID
  8
0
 62
    15
 10
6.360263
 20
5.274517
 11
6.356349
 21
6.000957
 12
6.372788
 22
5.273734
 13
6.368091
 23
6.000174
  0
POLYLINE
  8
0
  6
CONTINUOUS
 66
     1
 40
0.000000
 41
0.000000
  0
VERTEX
  8
0
  6
CONTINUOUS
 10
6.360263
 20
5.274517
  0
VERTEX
  8
0
  6
CONTINUOUS
 10
6.356349
 20
6.000957
  0
VERTEX
  8
0
  6
CONTINUOUS
 10
6.368091
 20
6.000174
  0
VERTEX
  8
0
  6
CONTINUOUS
 10
6.372788
 20
5.273734
  0
VERTEX
  8
0
  6
CONTINUOUS
 10
6.360263
 20
5.274517
  0
SEQEND
  8
0
  0
SOLID
  8
0
 62
    15
 10
6.372788
 20
5.273734
 11
6.368091
 21
6.000174
 12
6.376702
 22
5.272951
 13
6.372005
 23
6.000174
  0
POLYLINE
  8
0
  6
CONTINUOUS
 66
     1
 40
0.000000
 41
0.000000
  0
VERTEX
  8
0
  6
CONTINUOUS
 10
6.372788
 20
5.273734
  0
VERTEX
  8
0
  6
CONTINUOUS
 10
6.368091
 20
6.000174
  0
VERTEX
  8
0
  6
CONTINUOUS
 10
6.372005
 20
6.000174
  0
VERTEX
  8
0
  6
CONTINUOUS
 10
6.376702
 20
5.272951
  0
VERTEX
  8
0
  6
CONTINUOUS
 10
6.372788
 20
5.273734
  0
SEQEND
  8
0
  0
SOLID
  8
0
 62
    15
 10
6.376702
 20
5.272951
 11
6.372005
 21
6.000174
 12
6.379050
 22
5.271386
 13
6.375136
 23
5.998608
  0
POLYLINE
  8
0
  6
CONTINUOUS
 66
     1
 40
0.000000
 41
0.000000
  0
VERTEX
  8
0
  6
CONTINUOUS
 10
6.376702
 20
5.272951
  0
VERTEX
  8
0
  6
CONTINUOUS
 10
6.372005
 20
6.000174
  0
VERTEX
  8
0
  6
CONTINUOUS
 10
6.375136
 20
5.998608
  0
VERTEX
  8
0
  6
CONTINUOUS
 10
6.379050
 20
5.271386
  0
VERTEX
  8
0
  6
CONTINUOUS
 10
6.376702
 20
5.272951
  0
SEQEND
  8
0
  0
SOLID
  8
0
 62
    15
 10
6.379050
 20
5.271386
 11
6.375136
 21
5.998608
 12
6.410362
 22
5.258078
 13
6.405665
 23
5.985301
  0
POLYLINE
  8
0
  6
CONTINUOUS
 66
     1
 40
0.000000
 41
0.000000
  0
VERTEX
  8
0
  6
CONTINUOUS
 10
6.379050
 20
5.271386
  0
VERTEX
  8
0
  6
CONTINUOUS
 10
6.375136
 20
5.998608
  0
VERTEX
  8
0
  6
CONTINUOUS
 10
6.405665
 20
5.985301
  0
VERTEX
  8
0
  6
CONTINUOUS
 10
6.410362
 20
5.258078
  0
VERTEX
  8
0
  6
CONTINUOUS
 10
6.379050
 20
5.271386
  0
SEQEND
  8
0
  0
SOLID
  8
0
 62
    15
 10
6.410362
 20
5.258078
 11
6.405665
 21
5.985301
 12
6.436195
 22
5.239291
 13
6.432281
 23
5.966514
  0
POLYLINE
  8
0
  6
CONTINUOUS
 66
     1
 40
0.000000
 41
0.000000
  0
VERTEX
  8
0
  6
CONTINUOUS
 10
6.410362
 20
5.258078
  0
VERTEX
  8
0
  6
CONTINUOUS
 10
6.405665
 20
5.985301
  0
VERTEX
  8
0
  6
CONTINUOUS
 10
6.432281
 20
5.966514
  0
VERTEX
  8
0
  6
CONTINUOUS
 10
6.436195
 20
5.239291
  0
VERTEX
  8
0
  6
CONTINUOUS
 10
6.410362
 20
5.258078
  0
SEQEND
  8
0
  0
SOLID
  8
0
 62
    15
 10
6.436195
 20
5.239291
 11
6.432281
 21
5.966514
 12
6.454199
 22
5.213458
 13
6.449502
 23
5.940681
  0
POLYLINE
  8
0
  6
CONTINUOUS
 66
     1
 40
0.000000
 41
0.000000
  0
VERTEX
  8
0
  6
CONTINUOUS
 10
6.436195
 20
5.239291
  0
VERTEX
  8
0
  6
CONTINUOUS
 10
6.432281
 20
5.966514
  0
VERTEX
  8
0
  6
CONTINUOUS
 10
6.449502
 20
5.940681
  0
VERTEX
  8
0
  6
CONTINUOUS
 10
6.454199
 20
5.213458
  0
VERTEX
  8
0
  6
CONTINUOUS
 10
6.436195
 20
5.239291
  0
SEQEND
  8
0
  0
SOLID
  8
0
 62
    15
 10
6.454199
 20
5.213458
 11
6.449502
 21
5.940681
 12
6.458896
 22
5.197802
 13
6.454199
 23
5.925025
  0
POLYLINE
  8
0
  6
CONTINUOUS
 66
     1
 40
0.000000
 41
0.000000
  0
VERTEX
  8
0
  6
CONTINUOUS
 10
6.454199
 20
5.213458
  0
VERTEX
  8
0
  6
CONTINUOUS
 10
6.449502
 20
5.940681
  0
VERTEX
  8
0
  6
CONTINUOUS
 10
6.454199
 20
5.925025
  0
VERTEX
  8
0
  6
CONTINUOUS
 10
6.458896
 20
5.197802
  0
VERTEX
  8
0
  6
CONTINUOUS
 10
6.454199
 20
5.213458
  0
SEQEND
  8
0
  0
SOLID
  8
0
 62
    15
 10
6.458896
 20
5.197802
 11
6.454199
 21
5.925025
 12
6.460461
 22
5.180581
 13
6.455765
 23
5.907803
  0
POLYLINE
  8
0
  6
CONTINUOUS
 66
     1
 40
0.000000
 41
0.000000
  0
VERTEX
  8
0
  6
CONTINUOUS
 10
6.458896
 20
5.197802
  0
VERTEX
  8
0
  6
CONTINUOUS
 10
6.454199
 20
5.925025
  0
VERTEX
  8
0
  6
CONTINUOUS
 10
6.455765
 20
5.907803
  0
VERTEX
  8
0
  6
CONTINUOUS
 10
6.460461
 20
5.180581
  0
VERTEX
  8
0
  6
CONTINUOUS
 10
6.458896
 20
5.197802
  0
SEQEND
  8
0
  0
SOLID
  8
0
 62
    15
 10
6.460461
 20
5.180581
 11
6.455765
 21
5.907803
 12
6.460461
 22
5.179798
 13
6.455765
 23
5.906238
  0
POLYLINE
  8
0
  6
CONTINUOUS
 66
     1
 40
0.000000
 41
0.000000
  0
VERTEX
  8
0
  6
CONTINUOUS
 10
6.460461
 20
5.180581
  0
VERTEX
  8
0
  6
CONTINUOUS
 10
6.455765
 20
5.907803
  0
VERTEX
  8
0
  6
CONTINUOUS
 10
6.455765
 20
5.906238
  0
VERTEX
  8
0
  6
CONTINUOUS
 10
6.460461
 20
5.179798
  0
VERTEX
  8
0
  6
CONTINUOUS
 10
6.460461
 20
5.180581
  0
SEQEND
  8
0
  0
SOLID
  8
0
 62
    15
 10
6.460461
 20
5.179798
 11
6.455765
 21
5.906238
 12
7.176725
 22
5.161011
 13
7.172028
 23
5.888233
  0
POLYLINE
  8
0
  6
CONTINUOUS
 66
     1
 40
0.000000
 41
0.000000
  0
VERTEX
  8
0
  6
CONTINUOUS
 10
6.460461
 20
5.179798
  0
VERTEX
  8
0
  6
CONTINUOUS
 10
6.455765
 20
5.906238
  0
VERTEX
  8
0
  6
CONTINUOUS
 10
7.172028
 20
5.888233
  0
VERTEX
  8
0
  6
CONTINUOUS
 10
7.176725
 20
5.161011
  0
VERTEX
  8
0
  6
CONTINUOUS
 10
6.460461
 20
5.179798
  0
SEQEND
  8
0
  0
SOLID
  8
0
 62
    15
 10
7.176725
 20
5.161011
 11
7.172028
 21
5.888233
 12
7.194729
 22
5.156314
 13
7.190815
 23
5.882754
  0
POLYLINE
  8
0
  6
CONTINUOUS
 66
     1
 40
0.000000
 41
0.000000
  0
VERTEX
  8
0
  6
CONTINUOUS
 10
7.176725
 20
5.161011
  0
VERTEX
  8
0
  6
CONTINUOUS
 10
7.172028
 20
5.888233
  0
VERTEX
  8
0
  6
CONTINUOUS
 10
7.190815
 20
5.882754
  0
VERTEX
  8
0
  6
CONTINUOUS
 10
7.194729
 20
5.156314
  0
VERTEX
  8
0
  6
CONTINUOUS
 10
7.176725
 20
5.161011
  0
SEQEND
  8
0
  0
SOLID
  8
0
 62
    15
 10
7.194729
 20
5.156314
 11
7.190815
 21
5.882754
 12
7.205688
 22
5.147703
 13
7.201774
 23
5.874143
  0
POLYLINE
  8
0
  6
CONTINUOUS
 66
     1
 40
0.000000
 41
0.000000
  0
VERTEX
  8
0
  6
CONTINUOUS
 10
7.194729
 20
5.156314
  0
VERTEX
  8
0
  6
CONTINUOUS
 10
7.190815
 20
5.882754
  0
VERTEX
  8
0
  6
CONTINUOUS
 10
7.201774
 20
5.874143
  0
VERTEX
  8
0
  6
CONTINUOUS
 10
7.205688
 20
5.147703
  0
VERTEX
  8
0
  6
CONTINUOUS
 10
7.194729
 20
5.156314
  0
SEQEND
  8
0
  0
SOLID
  8
0
 62
    15
 10
7.210385
 20
5.137527
 11
7.206471
 21
5.864749
 12
7.211168
 22
5.128916
 13
7.206471
 23
5.856139
  0
POLYLINE
  8
0
  6
CONTINUOUS
 66
     1
 40
0.000000
 41
0.000000
  0
VERTEX
  8
0
  6
CONTINUOUS
 10
7.210385
 20
5.137527
  0
VERTEX
  8
0
  6
CONTINUOUS
 10
7.206471
 20
5.864749
  0
VERTEX
  8
0
  6
CONTINUOUS
 10
7.206471
 20
5.856139
  0
VERTEX
  8
0
  6
CONTINUOUS
 10
7.211168
 20
5.128916
  0
VERTEX
  8
0
  6
CONTINUOUS
 10
7.210385
 20
5.137527
  0
SEQEND
  8
0
  0
SOLID
  8
0
 62
    15
 10
7.205688
 20
5.147703
 11
7.201774
 21
5.874143
 12
7.210385
 22
5.137527
 13
7.206471
 23
5.864749
  0
POLYLINE
  8
0
  6
CONTINUOUS
 66
     1
 40
0.000000
 41
0.000000
  0
VERTEX
  8
0
  6
CONTINUOUS
 10
7.205688
 20
5.147703
  0
VERTEX
  8
0
  6
CONTINUOUS
 10
7.201774
 20
5.874143
  0
VERTEX
  8
0
  6
CONTINUOUS
 10
7.206471
 20
5.864749
  0
VERTEX
  8
0
  6
CONTINUOUS
 10
7.210385
 20
5.137527
  0
VERTEX
  8
0
  6
CONTINUOUS
 10
7.205688
 20
5.147703
  0
SEQEND
  8
0
  0
SOLID
  8
0
 62
    15
 10
7.211168
 20
5.128916
 11
7.206471
 21
5.856139
 12
7.212734
 22
5.063161
 13
7.208037
 23
5.790383
  0
POLYLINE
  8
0
  6
CONTINUOUS
 66
     1
 40
0.000000
 41
0.000000
  0
VERTEX
  8
0
  6
CONTINUOUS
 10
7.211168
 20
5.128916
  0
VERTEX
  8
0
  6
CONTINUOUS
 10
7.206471
 20
5.856139
  0
VERTEX
  8
0
  6
CONTINUOUS
 10
7.208037
 20
5.790383
  0
VERTEX
  8
0
  6
CONTINUOUS
 10
7.212734
 20
5.063161
  0
VERTEX
  8
0
  6
CONTINUOUS
 10
7.211168
 20
5.128916
  0
SEQEND
  8
0
  0
SOLID
  8
0
 62
    15
 10
7.212734
 20
5.063161
 11
7.208037
 21
5.790383
 12
7.212734
 22
5.060812
 13
7.208037
 23
5.788035
  0
POLYLINE
  8
0
  6
CONTINUOUS
 66
     1
 40
0.000000
 41
0.000000
  0
VERTEX
  8
0
  6
CONTINUOUS
 10
7.212734
 20
5.063161
  0
VERTEX
  8
0
  6
CONTINUOUS
 10
7.208037
 20
5.790383
  0
VERTEX
  8
0
  6
CONTINUOUS
 10
7.208037
 20
5.788035
  0
VERTEX
  8
0
  6
CONTINUOUS
 10
7.212734
 20
5.060812
  0
VERTEX
  8
0
  6
CONTINUOUS
 10
7.212734
 20
5.063161
  0
SEQEND
  8
0
  0
POLYLINE
  8
0
  6
CONTINUOUS
 66
     1
 40
0.000000
 41
0.000000
  0
VERTEX
  8
0
  6
CONTINUOUS
 10
7.212734
 20
5.060812
  0
VERTEX
  8
0
  6
CONTINUOUS
 10
7.226824
 20
5.044373
  0
VERTEX
  8
0
  6
CONTINUOUS
 10
7.247177
 20
5.037328
  0
VERTEX
  8
0
  6
CONTINUOUS
 10
7.271444
 20
5.042025
  0
VERTEX
  8
0
  6
CONTINUOUS
 10
7.292579
 20
5.060812
  0
VERTEX
  8
0
  6
CONTINUOUS
 10
7.311367
 20
5.095255
  0
VERTEX
  8
0
  6
CONTINUOUS
 10
7.339548
 20
5.121871
  0
VERTEX
  8
0
  6
CONTINUOUS
 10
7.374774
 20
5.139875
  0
VERTEX
  8
0
  6
CONTINUOUS
 10
7.394344
 20
5.144572
  0
VERTEX
  8
0
  6
CONTINUOUS
 10
7.415479
 20
5.146138
  0
VERTEX
  8
0
  6
CONTINUOUS
 10
7.440529
 20
5.143789
  0
VERTEX
  8
0
  6
CONTINUOUS
 10
7.464796
 20
5.135961
  0
VERTEX
  8
0
  6
CONTINUOUS
 10
7.485931
 20
5.124219
  0
VERTEX
  8
0
  6
CONTINUOUS
 10
7.505501
 20
5.107780
  0
VERTEX
  8
0
  6
CONTINUOUS
 10
7.521158
 20
5.088993
  0
VERTEX
  8
0
  6
CONTINUOUS
 10
7.532900
 20
5.067075
  0
VERTEX
  8
0
  6
CONTINUOUS
 10
7.540728
 20
5.043591
  0
VERTEX
  8
0
  6
CONTINUOUS
 10
7.543076
 20
5.017758
  0
VERTEX
  8
0
  6
CONTINUOUS
 10
7.543076
 20
4.763348
  0
VERTEX
  8
0
  6
CONTINUOUS
 10
7.544642
 20
4.760999
  0
VERTEX
  8
0
  6
CONTINUOUS
 10
5.043591
 20
4.761782
  0
VERTEX
  8
0
  6
CONTINUOUS
 10
5.044373
 20
5.460824
  0
VERTEX
  8
0
  6
CONTINUOUS
 10
5.501529
 20
5.442037
  0
VERTEX
  8
0
  6
CONTINUOUS
 10
5.506226
 20
5.364539
  0
VERTEX
  8
0
  6
CONTINUOUS
 10
5.529710
 20
5.364539
  0
VERTEX
  8
0
  6
CONTINUOUS
 10
5.571982
 20
5.383326
  0
VERTEX
  8
0
  6
CONTINUOUS
 10
5.609556
 20
5.396634
  0
VERTEX
  8
0
  6
CONTINUOUS
 10
5.644782
 20
5.404462
  0
VERTEX
  8
0
  6
CONTINUOUS
 10
5.677660
 20
5.407593
  0
VERTEX
  8
0
  6
CONTINUOUS
 10
5.708189
 20
5.406810
  0
VERTEX
  8
0
  6
CONTINUOUS
 10
5.737936
 20
5.402114
  0
VERTEX
  8
0
  6
CONTINUOUS
 10
5.795863
 20
5.383326
  0
VERTEX
  8
0
  6
CONTINUOUS
 10
5.965731
 20
5.305046
  0
VERTEX
  8
0
  6
CONTINUOUS
 10
6.056536
 20
5.270603
  0
VERTEX
  8
0
  6
CONTINUOUS
 10
6.109766
 20
5.255730
  0
VERTEX
  8
0
  6
CONTINUOUS
 10
6.144210
 20
5.249467
  0
VERTEX
  8
0
  6
CONTINUOUS
 10
6.175522
 20
5.247119
  0
VERTEX
  8
0
  6
CONTINUOUS
 10
6.230318
 20
5.251816
  0
VERTEX
  8
0
  6
CONTINUOUS
 10
6.316426
 20
5.271386
  0
VERTEX
  8
0
  6
CONTINUOUS
 10
6.360263
 20
5.274517
  0
VERTEX
  8
0
  6
CONTINUOUS
 10
6.379050
 20
5.271386
  0
VERTEX
  8
0
  6
CONTINUOUS
 10
6.410362
 20
5.258078
  0
VERTEX
  8
0
  6
CONTINUOUS
 10
6.436195
 20
5.239291
  0
VERTEX
  8
0
  6
CONTINUOUS
 10
6.454199
 20
5.213458
  0
VERTEX
  8
0
  6
CONTINUOUS
 10
6.458896
 20
5.197802
  0
VERTEX
  8
0
  6
CONTINUOUS
 10
6.460461
 20
5.179798
  0
VERTEX
  8
0
  6
CONTINUOUS
 10
7.176725
 20
5.161011
  0
VERTEX
  8
0
  6
CONTINUOUS
 10
7.194729
 20
5.156314
  0
VERTEX
  8
0
  6
CONTINUOUS
 10
7.205688
 20
5.147703
  0
VERTEX
  8
0
  6
CONTINUOUS
 10
7.210385
 20
5.137527
  0
VERTEX
  8
0
  6
CONTINUOUS
 10
7.212734
 20
5.060812
  0
SEQEND
  8
0
  0
TEXT
  8
0
 10
5.995477
 20
4.527724
 40
0.135193
  1
BA  241
 41
1.000000
  7
SN1
 71
     0
 72
     5
 11
6.580173
 21
4.527724
  0
TEXT
  8
0
 10
5.747329
 20
4.335938
 40
0.135193
  1
11/16" x 2-1/2"
 41
1.000000
  7
SN1
 71
     0
 72
     5
 11
6.824362
 21
4.335938
  0
TEXT
  8
0
 10
7.753650
 20
7.333285
 40
0.135193
  1
case
 41
1.000000
  7
SN1
 71
     0
 72
     5
 11
8.099998
 21
7.333285
  0
TEXT
  8
0
 10
7.753650
 20
7.141499
 40
0.135193
  1
241
 41
1.000000
  7
SN1
 71
     0
 72
     5
 11
8.028494
 21
7.141499
  0
TEXT
  8
0
 10
7.907862
 20
6.869084
 40
0.135193
  1
B
 41
1.000000
  7
SN1
 71
     0
 72
     5
 11
8.017352
 21
6.869084
  0
ENDSEC
  0
EOF
